ISO-10303-21;
HEADER;
/****************************************************************
 * Generated by software with PDElib inside                    *
 * PDElib Version v51a, created Tue 11/30/2010                  *
 * ITI Transcendata (http://www.transcendata.com/)              *
 ****************************************************************/
FILE_DESCRIPTION((''),'2;1');
FILE_NAME('T:\\Archivio Inventor\\- FISSAGGI NUOVI\\- PBI\\PBI063.stp','2014-12-10T15:46:27',('carlo.corazza'),(''),'Autodesk Inventor 2012','Autodesk Inventor 2012','');
FILE_SCHEMA(('AUTOMOTIVE_DESIGN { 1 0 10303 214 1 1 1 1 }'));
ENDSEC;
DATA;
#5=APPLICATION_CONTEXT('automotive design');
#6=APPLICATION_PROTOCOL_DEFINITION('International Standard','automotive_design',2001,#5);
#7=PRODUCT_CONTEXT('',#5,'mechanical');
#8=PRODUCT('PBI063','PBI063',$,(#7));
#9=PRODUCT_RELATED_PRODUCT_CATEGORY('part',$,(#8));
#10=PRODUCT_DEFINITION_FORMATION('',$,#8);
#11=PRODUCT_DEFINITION_CONTEXT('part definition',#5,'design');
#12=PRODUCT_DEFINITION('',$,#10,#11);
#18=(NAMED_UNIT(*)PLANE_ANGLE_UNIT()SI_UNIT($,.RADIAN.));
#19=DIMENSIONAL_EXPONENTS(0.0,0.0,0.0,0.0,0.0,0.0,0.0);
#20=PLANE_ANGLE_MEASURE_WITH_UNIT(PLANE_ANGLE_MEASURE(0.0174532925),#18);
#24=(CONVERSION_BASED_UNIT('DEGREE',#20)NAMED_UNIT(#19)PLANE_ANGLE_UNIT());
#28=(NAMED_UNIT(*)SI_UNIT($,.STERADIAN.)SOLID_ANGLE_UNIT());
#32=(LENGTH_UNIT()NAMED_UNIT(*)SI_UNIT(.MILLI.,.METRE.));
#34=UNCERTAINTY_MEASURE_WITH_UNIT(LENGTH_MEASURE(0.01),#32,'DISTANCE_ACCURACY_VALUE','');
#36=(GEOMETRIC_REPRESENTATION_CONTEXT(3)GLOBAL_UNCERTAINTY_ASSIGNED_CONTEXT((#34))GLOBAL_UNIT_ASSIGNED_CONTEXT((#24,#28,#32))REPRESENTATION_CONTEXT('None','None'));
#37=AXIS2_PLACEMENT_3D('',#38,#39,#40);
#38=CARTESIAN_POINT('',(0.0,0.0,0.0));
#39=DIRECTION('',(0.0,0.0,1.0));
#40=DIRECTION('',(1.0,0.0,0.0));
#41=SHAPE_REPRESENTATION('',(#37),#36);
#42=PRODUCT_DEFINITION_SHAPE('','',#12);
#43=SHAPE_DEFINITION_REPRESENTATION(#42,#41);
#49=(NAMED_UNIT(*)PLANE_ANGLE_UNIT()SI_UNIT($,.RADIAN.));
#50=DIMENSIONAL_EXPONENTS(0.0,0.0,0.0,0.0,0.0,0.0,0.0);
#51=PLANE_ANGLE_MEASURE_WITH_UNIT(PLANE_ANGLE_MEASURE(0.0174532925),#49);
#55=(CONVERSION_BASED_UNIT('DEGREE',#51)NAMED_UNIT(#50)PLANE_ANGLE_UNIT());
#59=(NAMED_UNIT(*)SI_UNIT($,.STERADIAN.)SOLID_ANGLE_UNIT());
#63=(LENGTH_UNIT()NAMED_UNIT(*)SI_UNIT(.MILLI.,.METRE.));
#65=UNCERTAINTY_MEASURE_WITH_UNIT(LENGTH_MEASURE(0.000001),#63,'DISTANCE_ACCURACY_VALUE','');
#67=(GEOMETRIC_REPRESENTATION_CONTEXT(3)GLOBAL_UNCERTAINTY_ASSIGNED_CONTEXT((#65))GLOBAL_UNIT_ASSIGNED_CONTEXT((#55,#59,#63))REPRESENTATION_CONTEXT('','3D'));
#68=CARTESIAN_POINT('',(42.5,7.582587912420809,35.0));
#69=DIRECTION('',(0.0,-1.0,0.0));
#70=DIRECTION('',(0.707106781186547,0.0,0.707106781186547));
#71=AXIS2_PLACEMENT_3D('',#68,#69,#70);
#72=CYLINDRICAL_SURFACE('',#71,2.5);
#73=CARTESIAN_POINT('',(42.5,0.0,37.5));
#74=VERTEX_POINT('',#73);
#75=CARTESIAN_POINT('',(45.0,0.0,35.0));
#76=VERTEX_POINT('',#75);
#77=CARTESIAN_POINT('',(42.5,0.0,35.0));
#78=DIRECTION('',(0.0,1.0,0.0));
#79=DIRECTION('',(0.707106781186547,0.0,0.707106781186547));
#80=AXIS2_PLACEMENT_3D('',#77,#78,#79);
#81=CIRCLE('',#80,2.5);
#82=EDGE_CURVE('',#74,#76,#81,.T.);
#83=ORIENTED_EDGE('',*,*,#82,.T.);
#84=CARTESIAN_POINT('',(45.0,5.000000000000002,35.0));
#85=VERTEX_POINT('',#84);
#86=CARTESIAN_POINT('',(45.0,0.0,35.0));
#87=DIRECTION('',(0.0,1.0,0.0));
#88=VECTOR('',#87,5.000000000000002);
#89=LINE('',#86,#88);
#90=EDGE_CURVE('',#76,#85,#89,.T.);
#91=ORIENTED_EDGE('',*,*,#90,.T.);
#92=CARTESIAN_POINT('',(42.5,5.000000000000002,37.5));
#93=VERTEX_POINT('',#92);
#94=CARTESIAN_POINT('',(42.5,4.999999999999998,35.0));
#95=DIRECTION('',(0.0,-1.0,0.0));
#96=DIRECTION('',(0.707106781186547,0.0,0.707106781186547));
#97=AXIS2_PLACEMENT_3D('',#94,#95,#96);
#98=CIRCLE('',#97,2.5);
#99=EDGE_CURVE('',#85,#93,#98,.T.);
#100=ORIENTED_EDGE('',*,*,#99,.T.);
#101=CARTESIAN_POINT('',(42.5,5.000000000000002,37.5));
#102=DIRECTION('',(0.0,-1.0,0.0));
#103=VECTOR('',#102,5.000000000000002);
#104=LINE('',#101,#103);
#105=EDGE_CURVE('',#93,#74,#104,.T.);
#106=ORIENTED_EDGE('',*,*,#105,.T.);
#107=EDGE_LOOP('',(#83,#91,#100,#106));
#108=FACE_OUTER_BOUND('',#107,.T.);
#109=ADVANCED_FACE('',(#108),#72,.T.);
#110=CARTESIAN_POINT('',(15.246967969400727,10.165175824841617,37.5));
#111=DIRECTION('',(0.0,0.0,1.0));
#112=DIRECTION('',(1.0,0.0,0.0));
#113=AXIS2_PLACEMENT_3D('',#110,#111,#112);
#114=PLANE('',#113);
#115=ORIENTED_EDGE('',*,*,#105,.F.);
#116=CARTESIAN_POINT('',(6.000000000000005,4.999999999999998,37.5));
#117=VERTEX_POINT('',#116);
#118=CARTESIAN_POINT('',(6.000000000000007,4.999999999999997,37.5));
#119=DIRECTION('',(1.0,0.0,0.0));
#120=VECTOR('',#119,36.499999999999993);
#121=LINE('',#118,#120);
#122=EDGE_CURVE('',#117,#93,#121,.T.);
#123=ORIENTED_EDGE('',*,*,#122,.F.);
#124=CARTESIAN_POINT('',(5.000000000000002,5.999999999999997,37.5));
#125=VERTEX_POINT('',#124);
#126=CARTESIAN_POINT('',(6.000000000000005,5.999999999999997,37.5));
#127=DIRECTION('',(0.0,0.0,1.0));
#128=DIRECTION('',(1.0,0.0,0.0));
#129=AXIS2_PLACEMENT_3D('',#126,#127,#128);
#130=CIRCLE('',#129,1.0);
#131=EDGE_CURVE('',#125,#117,#130,.T.);
#132=ORIENTED_EDGE('',*,*,#131,.F.);
#133=CARTESIAN_POINT('',(4.999999999999996,32.5,37.5));
#134=VERTEX_POINT('',#133);
#135=CARTESIAN_POINT('',(4.999999999999996,32.5,37.5));
#136=DIRECTION('',(0.0,-1.0,0.0));
#137=VECTOR('',#136,26.500000000000004);
#138=LINE('',#135,#137);
#139=EDGE_CURVE('',#134,#125,#138,.T.);
#140=ORIENTED_EDGE('',*,*,#139,.F.);
#141=CARTESIAN_POINT('',(-2.197316E-015,32.5,37.5));
#142=VERTEX_POINT('',#141);
#143=CARTESIAN_POINT('',(-1.776357E-015,32.5,37.5));
#144=DIRECTION('',(1.0,0.0,0.0));
#145=VECTOR('',#144,4.999999999999998);
#146=LINE('',#143,#145);
#147=EDGE_CURVE('',#142,#134,#146,.T.);
#148=ORIENTED_EDGE('',*,*,#147,.F.);
#149=CARTESIAN_POINT('',(1.110223E-015,4.999999999999999,37.5));
#150=VERTEX_POINT('',#149);
#151=CARTESIAN_POINT('',(1.110223E-015,5.0,37.5));
#152=DIRECTION('',(0.0,1.0,0.0));
#153=VECTOR('',#152,27.5);
#154=LINE('',#151,#153);
#155=EDGE_CURVE('',#150,#142,#154,.T.);
#156=ORIENTED_EDGE('',*,*,#155,.F.);
#157=CARTESIAN_POINT('',(5.000000000000001,0.0,37.5));
#158=VERTEX_POINT('',#157);
#159=CARTESIAN_POINT('',(5.000000000000001,5.0,37.5));
#160=DIRECTION('',(0.0,0.0,-1.0));
#161=DIRECTION('',(-1.0,0.0,0.0));
#162=AXIS2_PLACEMENT_3D('',#159,#160,#161);
#163=CIRCLE('',#162,5.0);
#164=EDGE_CURVE('',#158,#150,#163,.T.);
#165=ORIENTED_EDGE('',*,*,#164,.F.);
#166=CARTESIAN_POINT('',(42.5,0.0,37.5));
#167=DIRECTION('',(-1.0,0.0,0.0));
#168=VECTOR('',#167,37.5);
#169=LINE('',#166,#168);
#170=EDGE_CURVE('',#74,#158,#169,.T.);
#171=ORIENTED_EDGE('',*,*,#170,.F.);
#172=EDGE_LOOP('',(#115,#123,#132,#140,#148,#156,#165,#171));
#173=FACE_OUTER_BOUND('',#172,.T.);
#174=ADVANCED_FACE('',(#173),#114,.T.);
#175=CARTESIAN_POINT('',(6.000000000000005,4.999999999999998,0.0));
#176=DIRECTION('',(0.0,1.0,0.0));
#177=DIRECTION('',(0.0,0.0,1.0));
#178=AXIS2_PLACEMENT_3D('',#175,#176,#177);
#179=PLANE('',#178);
#180=ORIENTED_EDGE('',*,*,#99,.F.);
#181=CARTESIAN_POINT('',(45.0,5.000000000000002,-35.0));
#182=VERTEX_POINT('',#181);
#183=CARTESIAN_POINT('',(45.0,5.000000000000002,-35.0));
#184=DIRECTION('',(0.0,0.0,1.0));
#185=VECTOR('',#184,70.0);
#186=LINE('',#183,#185);
#187=EDGE_CURVE('',#182,#85,#186,.T.);
#188=ORIENTED_EDGE('',*,*,#187,.F.);
#189=CARTESIAN_POINT('',(42.5,5.000000000000002,-37.5));
#190=VERTEX_POINT('',#189);
#191=CARTESIAN_POINT('',(42.5,4.999999999999998,-35.0));
#192=DIRECTION('',(0.0,-1.0,0.0));
#193=DIRECTION('',(0.707106781186547,0.0,-0.707106781186547));
#194=AXIS2_PLACEMENT_3D('',#191,#192,#193);
#195=CIRCLE('',#194,2.5);
#196=EDGE_CURVE('',#190,#182,#195,.T.);
#197=ORIENTED_EDGE('',*,*,#196,.F.);
#198=CARTESIAN_POINT('',(6.000000000000005,4.999999999999998,-37.5));
#199=VERTEX_POINT('',#198);
#200=CARTESIAN_POINT('',(42.5,5.000000000000002,-37.5));
#201=DIRECTION('',(-1.0,0.0,0.0));
#202=VECTOR('',#201,36.499999999999993);
#203=LINE('',#200,#202);
#204=EDGE_CURVE('',#190,#199,#203,.T.);
#205=ORIENTED_EDGE('',*,*,#204,.T.);
#206=CARTESIAN_POINT('',(6.000000000000005,4.999999999999998,-37.5));
#207=DIRECTION('',(0.0,0.0,1.0));
#208=VECTOR('',#207,75.0);
#209=LINE('',#206,#208);
#210=EDGE_CURVE('',#199,#117,#209,.T.);
#211=ORIENTED_EDGE('',*,*,#210,.T.);
#212=ORIENTED_EDGE('',*,*,#122,.T.);
#213=EDGE_LOOP('',(#180,#188,#197,#205,#211,#212));
#214=FACE_OUTER_BOUND('',#213,.T.);
#215=CARTESIAN_POINT('',(37.0,5.000000000000002,-25.0));
#216=VERTEX_POINT('',#215);
#217=CARTESIAN_POINT('',(32.0,5.0,-25.0));
#218=DIRECTION('',(0.0,-1.0,0.0));
#219=DIRECTION('',(1.0,0.0,0.0));
#220=AXIS2_PLACEMENT_3D('',#217,#218,#219);
#221=CIRCLE('',#220,5.0);
#222=EDGE_CURVE('',#216,#216,#221,.T.);
#223=ORIENTED_EDGE('',*,*,#222,.T.);
#224=EDGE_LOOP('',(#223));
#225=FACE_BOUND('',#224,.T.);
#226=CARTESIAN_POINT('',(37.0,5.000000000000002,25.0));
#227=VERTEX_POINT('',#226);
#228=CARTESIAN_POINT('',(32.0,5.0,25.0));
#229=DIRECTION('',(0.0,-1.0,0.0));
#230=DIRECTION('',(1.0,0.0,0.0));
#231=AXIS2_PLACEMENT_3D('',#228,#229,#230);
#232=CIRCLE('',#231,5.0);
#233=EDGE_CURVE('',#227,#227,#232,.T.);
#234=ORIENTED_EDGE('',*,*,#233,.T.);
#235=EDGE_LOOP('',(#234));
#236=FACE_BOUND('',#235,.T.);
#237=ADVANCED_FACE('',(#214,#225,#236),#179,.T.);
#238=CARTESIAN_POINT('',(42.5,7.582587912420808,-35.0));
#239=DIRECTION('',(0.0,1.0,0.0));
#240=DIRECTION('',(0.707106781186547,0.0,-0.707106781186547));
#241=AXIS2_PLACEMENT_3D('',#238,#239,#240);
#242=CYLINDRICAL_SURFACE('',#241,2.5);
#243=ORIENTED_EDGE('',*,*,#196,.T.);
#244=CARTESIAN_POINT('',(45.0,0.0,-35.0));
#245=VERTEX_POINT('',#244);
#246=CARTESIAN_POINT('',(45.0,5.000000000000002,-35.0));
#247=DIRECTION('',(0.0,-1.0,0.0));
#248=VECTOR('',#247,5.000000000000002);
#249=LINE('',#246,#248);
#250=EDGE_CURVE('',#182,#245,#249,.T.);
#251=ORIENTED_EDGE('',*,*,#250,.T.);
#252=CARTESIAN_POINT('',(42.5,0.0,-37.5));
#253=VERTEX_POINT('',#252);
#254=CARTESIAN_POINT('',(42.5,0.0,-35.0));
#255=DIRECTION('',(0.0,1.0,0.0));
#256=DIRECTION('',(0.707106781186547,0.0,-0.707106781186547));
#257=AXIS2_PLACEMENT_3D('',#254,#255,#256);
#258=CIRCLE('',#257,2.5);
#259=EDGE_CURVE('',#245,#253,#258,.T.);
#260=ORIENTED_EDGE('',*,*,#259,.T.);
#261=CARTESIAN_POINT('',(42.5,0.0,-37.5));
#262=DIRECTION('',(0.0,1.0,0.0));
#263=VECTOR('',#262,5.000000000000002);
#264=LINE('',#261,#263);
#265=EDGE_CURVE('',#253,#190,#264,.T.);
#266=ORIENTED_EDGE('',*,*,#265,.T.);
#267=EDGE_LOOP('',(#243,#251,#260,#266));
#268=FACE_OUTER_BOUND('',#267,.T.);
#269=ADVANCED_FACE('',(#268),#242,.T.);
#270=CARTESIAN_POINT('',(15.246967969400727,10.165175824841615,-37.5));
#271=DIRECTION('',(0.0,0.0,1.0));
#272=DIRECTION('',(1.0,0.0,0.0));
#273=AXIS2_PLACEMENT_3D('',#270,#271,#272);
#274=PLANE('',#273);
#275=ORIENTED_EDGE('',*,*,#265,.F.);
#276=CARTESIAN_POINT('',(5.000000000000001,0.0,-37.5));
#277=VERTEX_POINT('',#276);
#278=CARTESIAN_POINT('',(5.000000000000001,0.0,-37.5));
#279=DIRECTION('',(1.0,0.0,0.0));
#280=VECTOR('',#279,37.5);
#281=LINE('',#278,#280);
#282=EDGE_CURVE('',#277,#253,#281,.T.);
#283=ORIENTED_EDGE('',*,*,#282,.F.);
#284=CARTESIAN_POINT('',(1.110223E-015,4.999999999999999,-37.5));
#285=VERTEX_POINT('',#284);
#286=CARTESIAN_POINT('',(5.000000000000001,5.0,-37.5));
#287=DIRECTION('',(0.0,0.0,1.0));
#288=DIRECTION('',(-1.0,0.0,0.0));
#289=AXIS2_PLACEMENT_3D('',#286,#287,#288);
#290=CIRCLE('',#289,5.0);
#291=EDGE_CURVE('',#285,#277,#290,.T.);
#292=ORIENTED_EDGE('',*,*,#291,.F.);
#293=CARTESIAN_POINT('',(-2.197316E-015,32.5,-37.5));
#294=VERTEX_POINT('',#293);
#295=CARTESIAN_POINT('',(-2.197316E-015,32.5,-37.5));
#296=DIRECTION('',(0.0,-1.0,0.0));
#297=VECTOR('',#296,27.5);
#298=LINE('',#295,#297);
#299=EDGE_CURVE('',#294,#285,#298,.T.);
#300=ORIENTED_EDGE('',*,*,#299,.F.);
#301=CARTESIAN_POINT('',(4.999999999999996,32.5,-37.5));
#302=VERTEX_POINT('',#301);
#303=CARTESIAN_POINT('',(4.999999999999996,32.5,-37.5));
#304=DIRECTION('',(-1.0,0.0,0.0));
#305=VECTOR('',#304,4.999999999999998);
#306=LINE('',#303,#305);
#307=EDGE_CURVE('',#302,#294,#306,.T.);
#308=ORIENTED_EDGE('',*,*,#307,.F.);
#309=CARTESIAN_POINT('',(5.000000000000002,5.999999999999997,-37.5));
#310=VERTEX_POINT('',#309);
#311=CARTESIAN_POINT('',(5.000000000000002,5.999999999999997,-37.5));
#312=DIRECTION('',(0.0,1.0,0.0));
#313=VECTOR('',#312,26.500000000000004);
#314=LINE('',#311,#313);
#315=EDGE_CURVE('',#310,#302,#314,.T.);
#316=ORIENTED_EDGE('',*,*,#315,.F.);
#317=CARTESIAN_POINT('',(6.000000000000005,5.999999999999997,-37.5));
#318=DIRECTION('',(0.0,0.0,-1.0));
#319=DIRECTION('',(1.0,0.0,0.0));
#320=AXIS2_PLACEMENT_3D('',#317,#318,#319);
#321=CIRCLE('',#320,1.0);
#322=EDGE_CURVE('',#199,#310,#321,.T.);
#323=ORIENTED_EDGE('',*,*,#322,.F.);
#324=ORIENTED_EDGE('',*,*,#204,.F.);
#325=EDGE_LOOP('',(#275,#283,#292,#300,#308,#316,#323,#324));
#326=FACE_OUTER_BOUND('',#325,.T.);
#327=ADVANCED_FACE('',(#326),#274,.F.);
#328=CARTESIAN_POINT('',(7.623483984700362,32.5,-35.0));
#329=DIRECTION('',(-1.0,0.0,0.0));
#330=DIRECTION('',(0.0,0.707106781186547,-0.707106781186547));
#331=AXIS2_PLACEMENT_3D('',#328,#329,#330);
#332=CYLINDRICAL_SURFACE('',#331,2.5);
#333=CARTESIAN_POINT('',(-2.498002E-015,35.0,-35.0));
#334=VERTEX_POINT('',#333);
#335=CARTESIAN_POINT('',(1.110223E-015,32.5,-35.0));
#336=DIRECTION('',(1.0,0.0,0.0));
#337=DIRECTION('',(0.0,0.707106781186547,-0.707106781186547));
#338=AXIS2_PLACEMENT_3D('',#335,#336,#337);
#339=CIRCLE('',#338,2.5);
#340=EDGE_CURVE('',#294,#334,#339,.T.);
#341=ORIENTED_EDGE('',*,*,#340,.T.);
#342=CARTESIAN_POINT('',(4.999999999999996,35.0,-35.0));
#343=VERTEX_POINT('',#342);
#344=CARTESIAN_POINT('',(-1.776357E-015,35.0,-35.0));
#345=DIRECTION('',(1.0,0.0,0.0));
#346=VECTOR('',#345,4.999999999999997);
#347=LINE('',#344,#346);
#348=EDGE_CURVE('',#334,#343,#347,.T.);
#349=ORIENTED_EDGE('',*,*,#348,.T.);
#350=CARTESIAN_POINT('',(4.999999999999996,32.5,-35.0));
#351=DIRECTION('',(-1.0,0.0,0.0));
#352=DIRECTION('',(0.0,0.707106781186547,-0.707106781186547));
#353=AXIS2_PLACEMENT_3D('',#350,#351,#352);
#354=CIRCLE('',#353,2.5);
#355=EDGE_CURVE('',#343,#302,#354,.T.);
#356=ORIENTED_EDGE('',*,*,#355,.T.);
#357=ORIENTED_EDGE('',*,*,#307,.T.);
#358=EDGE_LOOP('',(#341,#349,#356,#357));
#359=FACE_OUTER_BOUND('',#358,.T.);
#360=ADVANCED_FACE('',(#359),#332,.T.);
#361=CARTESIAN_POINT('',(4.999999999999996,35.0,0.0));
#362=DIRECTION('',(1.0,0.0,0.0));
#363=DIRECTION('',(0.0,0.0,-1.0));
#364=AXIS2_PLACEMENT_3D('',#361,#362,#363);
#365=PLANE('',#364);
#366=ORIENTED_EDGE('',*,*,#355,.F.);
#367=CARTESIAN_POINT('',(4.999999999999996,35.0,-16.770509831248429));
#368=VERTEX_POINT('',#367);
#369=CARTESIAN_POINT('',(4.999999999999996,35.0,-35.0));
#370=DIRECTION('',(0.0,0.0,1.0));
#371=VECTOR('',#370,18.229490168751571);
#372=LINE('',#369,#371);
#373=EDGE_CURVE('',#343,#368,#372,.T.);
#374=ORIENTED_EDGE('',*,*,#373,.T.);
#375=CARTESIAN_POINT('',(4.999999999999996,35.0,16.770509831248429));
#376=VERTEX_POINT('',#375);
#377=CARTESIAN_POINT('',(4.999999999999992,49.999999999999993,0.0));
#378=DIRECTION('',(-1.0,-9.868649E-017,1.103349E-016));
#379=DIRECTION('',(1.480297E-016,-0.666666666666666,0.74535599249993));
#380=AXIS2_PLACEMENT_3D('',#377,#378,#379);
#381=CIRCLE('',#380,22.499999999999996);
#382=EDGE_CURVE('',#368,#376,#381,.T.);
#383=ORIENTED_EDGE('',*,*,#382,.T.);
#384=CARTESIAN_POINT('',(4.999999999999996,35.0,35.0));
#385=VERTEX_POINT('',#384);
#386=CARTESIAN_POINT('',(4.999999999999996,35.0,16.770509831248429));
#387=DIRECTION('',(0.0,0.0,1.0));
#388=VECTOR('',#387,18.229490168751571);
#389=LINE('',#386,#388);
#390=EDGE_CURVE('',#376,#385,#389,.T.);
#391=ORIENTED_EDGE('',*,*,#390,.T.);
#392=CARTESIAN_POINT('',(4.999999999999996,32.5,35.0));
#393=DIRECTION('',(-1.0,0.0,0.0));
#394=DIRECTION('',(0.0,0.707106781186547,0.707106781186547));
#395=AXIS2_PLACEMENT_3D('',#392,#393,#394);
#396=CIRCLE('',#395,2.5);
#397=EDGE_CURVE('',#134,#385,#396,.T.);
#398=ORIENTED_EDGE('',*,*,#397,.F.);
#399=ORIENTED_EDGE('',*,*,#139,.T.);
#400=CARTESIAN_POINT('',(5.000000000000002,5.999999999999997,-37.5));
#401=DIRECTION('',(0.0,0.0,1.0));
#402=VECTOR('',#401,75.0);
#403=LINE('',#400,#402);
#404=EDGE_CURVE('',#310,#125,#403,.T.);
#405=ORIENTED_EDGE('',*,*,#404,.F.);
#406=ORIENTED_EDGE('',*,*,#315,.T.);
#407=EDGE_LOOP('',(#366,#374,#383,#391,#398,#399,#405,#406));
#408=FACE_OUTER_BOUND('',#407,.T.);
#409=CARTESIAN_POINT('',(4.999999999999998,21.75,-32.750000000000014));
#410=VERTEX_POINT('',#409);
#411=CARTESIAN_POINT('',(5.0,21.75,-28.250000000000011));
#412=DIRECTION('',(-1.0,0.0,0.0));
#413=DIRECTION('',(0.0,0.0,-1.0));
#414=AXIS2_PLACEMENT_3D('',#411,#412,#413);
#415=CIRCLE('',#414,4.5);
#416=EDGE_CURVE('',#410,#410,#415,.T.);
#417=ORIENTED_EDGE('',*,*,#416,.T.);
#418=EDGE_LOOP('',(#417));
#419=FACE_BOUND('',#418,.T.);
#420=CARTESIAN_POINT('',(4.999999999999998,21.749999999999989,23.749999999999996));
#421=VERTEX_POINT('',#420);
#422=CARTESIAN_POINT('',(5.0,21.749999999999989,28.249999999999996));
#423=DIRECTION('',(-1.0,0.0,0.0));
#424=DIRECTION('',(0.0,0.0,-1.0));
#425=AXIS2_PLACEMENT_3D('',#422,#423,#424);
#426=CIRCLE('',#425,4.5);
#427=EDGE_CURVE('',#421,#421,#426,.T.);
#428=ORIENTED_EDGE('',*,*,#427,.T.);
#429=EDGE_LOOP('',(#428));
#430=FACE_BOUND('',#429,.T.);
#431=ADVANCED_FACE('',(#408,#419,#430),#365,.T.);
#432=CARTESIAN_POINT('',(7.623483984700362,32.5,35.0));
#433=DIRECTION('',(1.0,0.0,0.0));
#434=DIRECTION('',(0.0,0.707106781186547,0.707106781186547));
#435=AXIS2_PLACEMENT_3D('',#432,#433,#434);
#436=CYLINDRICAL_SURFACE('',#435,2.5);
#437=ORIENTED_EDGE('',*,*,#397,.T.);
#438=CARTESIAN_POINT('',(-2.498002E-015,35.0,35.0));
#439=VERTEX_POINT('',#438);
#440=CARTESIAN_POINT('',(4.999999999999996,35.0,35.0));
#441=DIRECTION('',(-1.0,0.0,0.0));
#442=VECTOR('',#441,4.999999999999997);
#443=LINE('',#440,#442);
#444=EDGE_CURVE('',#385,#439,#443,.T.);
#445=ORIENTED_EDGE('',*,*,#444,.T.);
#446=CARTESIAN_POINT('',(1.110223E-015,32.5,35.0));
#447=DIRECTION('',(1.0,0.0,0.0));
#448=DIRECTION('',(0.0,0.707106781186547,0.707106781186547));
#449=AXIS2_PLACEMENT_3D('',#446,#447,#448);
#450=CIRCLE('',#449,2.5);
#451=EDGE_CURVE('',#439,#142,#450,.T.);
#452=ORIENTED_EDGE('',*,*,#451,.T.);
#453=ORIENTED_EDGE('',*,*,#147,.T.);
#454=EDGE_LOOP('',(#437,#445,#452,#453));
#455=FACE_OUTER_BOUND('',#454,.T.);
#456=ADVANCED_FACE('',(#455),#436,.T.);
#457=CARTESIAN_POINT('',(-2.498002E-015,35.0,0.0));
#458=DIRECTION('',(0.0,1.0,0.0));
#459=DIRECTION('',(0.0,0.0,1.0));
#460=AXIS2_PLACEMENT_3D('',#457,#458,#459);
#461=PLANE('',#460);
#462=ORIENTED_EDGE('',*,*,#444,.F.);
#463=ORIENTED_EDGE('',*,*,#390,.F.);
#464=CARTESIAN_POINT('',(-2.220446E-015,35.0,16.770509831248429));
#465=VERTEX_POINT('',#464);
#466=CARTESIAN_POINT('',(4.999999999999996,35.0,16.770509831248429));
#467=DIRECTION('',(-1.0,0.0,0.0));
#468=VECTOR('',#467,4.999999999999998);
#469=LINE('',#466,#468);
#470=EDGE_CURVE('',#376,#465,#469,.T.);
#471=ORIENTED_EDGE('',*,*,#470,.T.);
#472=CARTESIAN_POINT('',(-2.498002E-015,35.0,35.0));
#473=DIRECTION('',(0.0,0.0,-1.0));
#474=VECTOR('',#473,18.229490168751571);
#475=LINE('',#472,#474);
#476=EDGE_CURVE('',#439,#465,#475,.T.);
#477=ORIENTED_EDGE('',*,*,#476,.F.);
#478=EDGE_LOOP('',(#462,#463,#471,#477));
#479=FACE_OUTER_BOUND('',#478,.T.);
#480=ADVANCED_FACE('',(#479),#461,.T.);
#481=CARTESIAN_POINT('',(32.000000000000014,-89.207218407083872,-25.0));
#482=DIRECTION('',(-1.138690E-016,1.0,0.0));
#483=DIRECTION('',(1.0,0.0,0.0));
#484=AXIS2_PLACEMENT_3D('',#481,#482,#483);
#485=CYLINDRICAL_SURFACE('',#484,5.0);
#486=CARTESIAN_POINT('',(27.0,-5.693451E-016,-25.0));
#487=VERTEX_POINT('',#486);
#488=CARTESIAN_POINT('',(32.0,0.0,-25.0));
#489=DIRECTION('',(0.0,1.0,0.0));
#490=DIRECTION('',(1.0,0.0,0.0));
#491=AXIS2_PLACEMENT_3D('',#488,#489,#490);
#492=CIRCLE('',#491,5.0);
#493=EDGE_CURVE('',#487,#487,#492,.T.);
#494=ORIENTED_EDGE('',*,*,#493,.F.);
#495=EDGE_LOOP('',(#494));
#496=FACE_OUTER_BOUND('',#495,.T.);
#497=ORIENTED_EDGE('',*,*,#222,.F.);
#498=EDGE_LOOP('',(#497));
#499=FACE_BOUND('',#498,.T.);
#500=ADVANCED_FACE('',(#496,#499),#485,.F.);
#501=CARTESIAN_POINT('',(32.000000000000014,-89.207218407083872,25.0));
#502=DIRECTION('',(-1.138690E-016,1.0,0.0));
#503=DIRECTION('',(1.0,0.0,0.0));
#504=AXIS2_PLACEMENT_3D('',#501,#502,#503);
#505=CYLINDRICAL_SURFACE('',#504,5.0);
#506=CARTESIAN_POINT('',(27.0,-5.693451E-016,25.0));
#507=VERTEX_POINT('',#506);
#508=CARTESIAN_POINT('',(32.0,0.0,25.0));
#509=DIRECTION('',(0.0,1.0,0.0));
#510=DIRECTION('',(1.0,0.0,0.0));
#511=AXIS2_PLACEMENT_3D('',#508,#509,#510);
#512=CIRCLE('',#511,5.0);
#513=EDGE_CURVE('',#507,#507,#512,.T.);
#514=ORIENTED_EDGE('',*,*,#513,.F.);
#515=EDGE_LOOP('',(#514));
#516=FACE_OUTER_BOUND('',#515,.T.);
#517=ORIENTED_EDGE('',*,*,#233,.F.);
#518=EDGE_LOOP('',(#517));
#519=FACE_BOUND('',#518,.T.);
#520=ADVANCED_FACE('',(#516,#519),#505,.F.);
#521=CARTESIAN_POINT('',(-89.207218407083872,21.749999999999975,-28.250000000000011));
#522=DIRECTION('',(1.0,2.297013E-016,0.0));
#523=DIRECTION('',(0.0,0.0,-1.0));
#524=AXIS2_PLACEMENT_3D('',#521,#522,#523);
#525=CYLINDRICAL_SURFACE('',#524,4.5);
#526=CARTESIAN_POINT('',(6.628201E-032,21.75,-23.750000000000007));
#527=VERTEX_POINT('',#526);
#528=CARTESIAN_POINT('',(0.0,21.75,-28.250000000000011));
#529=DIRECTION('',(1.0,0.0,0.0));
#530=DIRECTION('',(0.0,0.0,-1.0));
#531=AXIS2_PLACEMENT_3D('',#528,#529,#530);
#532=CIRCLE('',#531,4.5);
#533=EDGE_CURVE('',#527,#527,#532,.T.);
#534=ORIENTED_EDGE('',*,*,#533,.F.);
#535=EDGE_LOOP('',(#534));
#536=FACE_OUTER_BOUND('',#535,.T.);
#537=ORIENTED_EDGE('',*,*,#416,.F.);
#538=EDGE_LOOP('',(#537));
#539=FACE_BOUND('',#538,.T.);
#540=ADVANCED_FACE('',(#536,#539),#525,.F.);
#541=CARTESIAN_POINT('',(-89.207218407083872,21.749999999999968,28.249999999999996));
#542=DIRECTION('',(1.0,2.297013E-016,0.0));
#543=DIRECTION('',(0.0,0.0,-1.0));
#544=AXIS2_PLACEMENT_3D('',#541,#542,#543);
#545=CYLINDRICAL_SURFACE('',#544,4.5);
#546=CARTESIAN_POINT('',(6.628201E-032,21.749999999999989,32.75));
#547=VERTEX_POINT('',#546);
#548=CARTESIAN_POINT('',(0.0,21.749999999999989,28.249999999999996));
#549=DIRECTION('',(1.0,0.0,0.0));
#550=DIRECTION('',(0.0,0.0,-1.0));
#551=AXIS2_PLACEMENT_3D('',#548,#549,#550);
#552=CIRCLE('',#551,4.5);
#553=EDGE_CURVE('',#547,#547,#552,.T.);
#554=ORIENTED_EDGE('',*,*,#553,.F.);
#555=EDGE_LOOP('',(#554));
#556=FACE_OUTER_BOUND('',#555,.T.);
#557=ORIENTED_EDGE('',*,*,#427,.F.);
#558=EDGE_LOOP('',(#557));
#559=FACE_BOUND('',#558,.T.);
#560=ADVANCED_FACE('',(#556,#559),#545,.F.);
#561=CARTESIAN_POINT('',(4.999999999999992,49.999999999999993,0.0));
#562=DIRECTION('',(1.0,2.220446E-016,0.0));
#563=DIRECTION('',(1.480297E-016,-0.666666666666666,0.74535599249993));
#564=AXIS2_PLACEMENT_3D('',#561,#562,#563);
#565=CYLINDRICAL_SURFACE('',#564,22.499999999999996);
#566=CARTESIAN_POINT('',(-2.220446E-015,35.0,-16.770509831248429));
#567=VERTEX_POINT('',#566);
#568=CARTESIAN_POINT('',(-8.881784E-015,49.999999999999993,0.0));
#569=DIRECTION('',(1.0,9.868649E-017,-1.103349E-016));
#570=DIRECTION('',(1.480297E-016,-0.666666666666666,0.74535599249993));
#571=AXIS2_PLACEMENT_3D('',#568,#569,#570);
#572=CIRCLE('',#571,22.499999999999996);
#573=EDGE_CURVE('',#465,#567,#572,.T.);
#574=ORIENTED_EDGE('',*,*,#573,.F.);
#575=ORIENTED_EDGE('',*,*,#470,.F.);
#576=ORIENTED_EDGE('',*,*,#382,.F.);
#577=CARTESIAN_POINT('',(-2.664535E-015,35.0,-16.770509831248429));
#578=DIRECTION('',(1.0,0.0,0.0));
#579=VECTOR('',#578,4.999999999999998);
#580=LINE('',#577,#579);
#581=EDGE_CURVE('',#567,#368,#580,.T.);
#582=ORIENTED_EDGE('',*,*,#581,.F.);
#583=EDGE_LOOP('',(#574,#575,#576,#582));
#584=FACE_OUTER_BOUND('',#583,.T.);
#585=ADVANCED_FACE('',(#584),#565,.F.);
#586=CARTESIAN_POINT('',(-2.498002E-015,35.0,0.0));
#587=DIRECTION('',(0.0,1.0,0.0));
#588=DIRECTION('',(0.0,0.0,1.0));
#589=AXIS2_PLACEMENT_3D('',#586,#587,#588);
#590=PLANE('',#589);
#591=ORIENTED_EDGE('',*,*,#348,.F.);
#592=CARTESIAN_POINT('',(-2.498002E-015,35.0,-16.770509831248429));
#593=DIRECTION('',(0.0,0.0,-1.0));
#594=VECTOR('',#593,18.229490168751571);
#595=LINE('',#592,#594);
#596=EDGE_CURVE('',#567,#334,#595,.T.);
#597=ORIENTED_EDGE('',*,*,#596,.F.);
#598=ORIENTED_EDGE('',*,*,#581,.T.);
#599=ORIENTED_EDGE('',*,*,#373,.F.);
#600=EDGE_LOOP('',(#591,#597,#598,#599));
#601=FACE_OUTER_BOUND('',#600,.T.);
#602=ADVANCED_FACE('',(#601),#590,.T.);
#603=CARTESIAN_POINT('',(6.000000000000005,5.999999999999997,0.0));
#604=DIRECTION('',(0.0,0.0,1.0));
#605=DIRECTION('',(1.0,0.0,0.0));
#606=AXIS2_PLACEMENT_3D('',#603,#604,#605);
#607=CYLINDRICAL_SURFACE('',#606,1.0);
#608=ORIENTED_EDGE('',*,*,#131,.T.);
#609=ORIENTED_EDGE('',*,*,#210,.F.);
#610=ORIENTED_EDGE('',*,*,#322,.T.);
#611=ORIENTED_EDGE('',*,*,#404,.T.);
#612=EDGE_LOOP('',(#608,#609,#610,#611));
#613=FACE_OUTER_BOUND('',#612,.T.);
#614=ADVANCED_FACE('',(#613),#607,.F.);
#615=CARTESIAN_POINT('',(45.0,5.000000000000002,0.0));
#616=DIRECTION('',(1.0,0.0,0.0));
#617=DIRECTION('',(0.0,0.0,-1.0));
#618=AXIS2_PLACEMENT_3D('',#615,#616,#617);
#619=PLANE('',#618);
#620=ORIENTED_EDGE('',*,*,#90,.F.);
#621=CARTESIAN_POINT('',(45.0,0.0,-35.0));
#622=DIRECTION('',(0.0,0.0,1.0));
#623=VECTOR('',#622,70.0);
#624=LINE('',#621,#623);
#625=EDGE_CURVE('',#245,#76,#624,.T.);
#626=ORIENTED_EDGE('',*,*,#625,.F.);
#627=ORIENTED_EDGE('',*,*,#250,.F.);
#628=ORIENTED_EDGE('',*,*,#187,.T.);
#629=EDGE_LOOP('',(#620,#626,#627,#628));
#630=FACE_OUTER_BOUND('',#629,.T.);
#631=ADVANCED_FACE('',(#630),#619,.T.);
#632=CARTESIAN_POINT('',(45.0,0.0,0.0));
#633=DIRECTION('',(0.0,-1.0,0.0));
#634=DIRECTION('',(0.0,0.0,-1.0));
#635=AXIS2_PLACEMENT_3D('',#632,#633,#634);
#636=PLANE('',#635);
#637=ORIENTED_EDGE('',*,*,#82,.F.);
#638=ORIENTED_EDGE('',*,*,#170,.T.);
#639=CARTESIAN_POINT('',(5.000000000000001,0.0,-37.5));
#640=DIRECTION('',(0.0,0.0,1.0));
#641=VECTOR('',#640,75.0);
#642=LINE('',#639,#641);
#643=EDGE_CURVE('',#277,#158,#642,.T.);
#644=ORIENTED_EDGE('',*,*,#643,.F.);
#645=ORIENTED_EDGE('',*,*,#282,.T.);
#646=ORIENTED_EDGE('',*,*,#259,.F.);
#647=ORIENTED_EDGE('',*,*,#625,.T.);
#648=EDGE_LOOP('',(#637,#638,#644,#645,#646,#647));
#649=FACE_OUTER_BOUND('',#648,.T.);
#650=ORIENTED_EDGE('',*,*,#493,.T.);
#651=EDGE_LOOP('',(#650));
#652=FACE_BOUND('',#651,.T.);
#653=ORIENTED_EDGE('',*,*,#513,.T.);
#654=EDGE_LOOP('',(#653));
#655=FACE_BOUND('',#654,.T.);
#656=ADVANCED_FACE('',(#649,#652,#655),#636,.T.);
#657=CARTESIAN_POINT('',(5.000000000000001,5.0,0.0));
#658=DIRECTION('',(0.0,0.0,1.0));
#659=DIRECTION('',(-1.0,0.0,0.0));
#660=AXIS2_PLACEMENT_3D('',#657,#658,#659);
#661=CYLINDRICAL_SURFACE('',#660,5.0);
#662=ORIENTED_EDGE('',*,*,#164,.T.);
#663=CARTESIAN_POINT('',(1.110223E-015,4.999999999999999,-37.5));
#664=DIRECTION('',(0.0,0.0,1.0));
#665=VECTOR('',#664,75.0);
#666=LINE('',#663,#665);
#667=EDGE_CURVE('',#285,#150,#666,.T.);
#668=ORIENTED_EDGE('',*,*,#667,.F.);
#669=ORIENTED_EDGE('',*,*,#291,.T.);
#670=ORIENTED_EDGE('',*,*,#643,.T.);
#671=EDGE_LOOP('',(#662,#668,#669,#670));
#672=FACE_OUTER_BOUND('',#671,.T.);
#673=ADVANCED_FACE('',(#672),#661,.T.);
#674=CARTESIAN_POINT('',(1.110223E-015,4.999999999999999,0.0));
#675=DIRECTION('',(-1.0,0.0,0.0));
#676=DIRECTION('',(0.0,0.0,1.0));
#677=AXIS2_PLACEMENT_3D('',#674,#675,#676);
#678=PLANE('',#677);
#679=ORIENTED_EDGE('',*,*,#340,.F.);
#680=ORIENTED_EDGE('',*,*,#299,.T.);
#681=ORIENTED_EDGE('',*,*,#667,.T.);
#682=ORIENTED_EDGE('',*,*,#155,.T.);
#683=ORIENTED_EDGE('',*,*,#451,.F.);
#684=ORIENTED_EDGE('',*,*,#476,.T.);
#685=ORIENTED_EDGE('',*,*,#573,.T.);
#686=ORIENTED_EDGE('',*,*,#596,.T.);
#687=EDGE_LOOP('',(#679,#680,#681,#682,#683,#684,#685,#686));
#688=FACE_OUTER_BOUND('',#687,.T.);
#689=ORIENTED_EDGE('',*,*,#533,.T.);
#690=EDGE_LOOP('',(#689));
#691=FACE_BOUND('',#690,.T.);
#692=ORIENTED_EDGE('',*,*,#553,.T.);
#693=EDGE_LOOP('',(#692));
#694=FACE_BOUND('',#693,.T.);
#695=ADVANCED_FACE('',(#688,#691,#694),#678,.T.);
#696=CLOSED_SHELL('',(#109,#174,#237,#269,#327,#360,#431,#456,#480,#500,#520,#540,#560,#585,#602,#614,#631,#656,#673,#695));
#697=MANIFOLD_SOLID_BREP('Solido1',#696);
#698=COLOUR_RGB('Zinco',0.67843097448349,0.768626987934113,0.811765015125275);
#699=FILL_AREA_STYLE_COLOUR('Zinco',#698);
#700=FILL_AREA_STYLE('Zinco',(#699));
#701=SURFACE_STYLE_FILL_AREA(#700);
#702=SURFACE_SIDE_STYLE('Zinco',(#701));
#703=SURFACE_STYLE_USAGE(.BOTH.,#702);
#704=PRESENTATION_STYLE_ASSIGNMENT((#703));
#705=STYLED_ITEM('',(#704),#697);
#706=MECHANICAL_DESIGN_GEOMETRIC_PRESENTATION_REPRESENTATION('',(#705),#36);
#707=ADVANCED_BREP_SHAPE_REPRESENTATION('ABSR',(#697),#36);
#708=SHAPE_REPRESENTATION_RELATIONSHIP('SRR','None',#707,#41);
ENDSEC;
END-ISO-10303-21;
