ISO-10303-21;
HEADER;
FILE_DESCRIPTION (( 'STEP AP214' ),
    '1' );
FILE_NAME ('AZ-0674004.STEP',
    '2020-03-31T13:12:00',
    ( '' ),
    ( '' ),
    'SwSTEP 2.0',
    'SolidWorks 2020',
    '' );
FILE_SCHEMA (( 'AUTOMOTIVE_DESIGN' ));
ENDSEC;

DATA;
#1 = FILL_AREA_STYLE_COLOUR ( '', #323 ) ;
#2 = FILL_AREA_STYLE_COLOUR ( '', #3 ) ;
#3 = COLOUR_RGB ( '',0.5019607843137254832, 0.5019607843137254832, 1.000000000000000000 ) ;
#4 = EDGE_LOOP ( 'NONE', ( #230, #390, #95, #247 ) ) ;
#5 = PRODUCT_DEFINITION_CONTEXT ( 'detailed design', #324, 'design' ) ;
#6 = ADVANCED_BREP_SHAPE_REPRESENTATION ( 'AZ-0674004', ( #385, #23 ), #241 ) ;
#7 = ORIENTED_EDGE ( 'NONE', *, *, #20, .T. ) ;
#8 = PRESENTATION_STYLE_ASSIGNMENT (( #339 ) ) ;
#9 = CARTESIAN_POINT ( 'NONE',  ( 3.750000000000000000, 0.0000000000000000000, 0.0000000000000000000 ) ) ;
#10 = ORIENTED_EDGE ( 'NONE', *, *, #63, .T. ) ;
#11 = STYLED_ITEM ( 'NONE', ( #219 ), #237 ) ;
#12 = DIRECTION ( 'NONE',  ( -1.000000000000000000, -0.0000000000000000000, -0.0000000000000000000 ) ) ;
#13 = ORIENTED_EDGE ( 'NONE', *, *, #395, .T. ) ;
#14 = EDGE_CURVE ( 'NONE', #100, #378, #384, .T. ) ;
#15 =( LENGTH_UNIT ( ) NAMED_UNIT ( * ) SI_UNIT ( .MILLI., .METRE. ) );
#16 = ORIENTED_EDGE ( 'NONE', *, *, #140, .T. ) ;
#17 = FACE_OUTER_BOUND ( 'NONE', #304, .T. ) ;
#18 = CIRCLE ( 'NONE', #350, 2.000000000000000000 ) ;
#19 = ORIENTED_EDGE ( 'NONE', *, *, #135, .T. ) ;
#20 = EDGE_CURVE ( 'NONE', #378, #100, #77, .T. ) ;
#21 = PRESENTATION_STYLE_ASSIGNMENT (( #265 ) ) ;
#22 = CIRCLE ( 'NONE', #71, 2.337004445449780032 ) ;
#23 = AXIS2_PLACEMENT_3D ( 'NONE', #268, #388, #260 ) ;
#24 = CARTESIAN_POINT ( 'NONE',  ( 3.750000000000000000, 0.0000000000000000000, 0.0000000000000000000 ) ) ;
#25 = ADVANCED_FACE ( 'NONE', ( #17 ), #202, .T. ) ;
#26 = SURFACE_STYLE_USAGE ( .BOTH. , #139 ) ;
#27 = DIRECTION ( 'NONE',  ( -1.000000000000000000, -0.0000000000000000000, -0.0000000000000000000 ) ) ;
#28 =( GEOMETRIC_REPRESENTATION_CONTEXT ( 3 ) GLOBAL_UNCERTAINTY_ASSIGNED_CONTEXT ( ( #187 ) ) GLOBAL_UNIT_ASSIGNED_CONTEXT ( ( #387, #313, #353 ) ) REPRESENTATION_CONTEXT ( 'NONE', 'WORKASPACE' ) );
#29 =( GEOMETRIC_REPRESENTATION_CONTEXT ( 3 ) GLOBAL_UNCERTAINTY_ASSIGNED_CONTEXT ( ( #111 ) ) GLOBAL_UNIT_ASSIGNED_CONTEXT ( ( #200, #287, #171 ) ) REPRESENTATION_CONTEXT ( 'NONE', 'WORKASPACE' ) );
#30 = DIRECTION ( 'NONE',  ( -1.000000000000000000, -0.0000000000000000000, -0.0000000000000000000 ) ) ;
#31 = ORIENTED_EDGE ( 'NONE', *, *, #172, .T. ) ;
#32 = ORIENTED_EDGE ( 'NONE', *, *, #214, .T. ) ;
#33 = CIRCLE ( 'NONE', #97, 3.750000000000000000 ) ;
#34 = PRODUCT_DEFINITION_FORMATION_WITH_SPECIFIED_SOURCE ( 'ANY', '', #252, .NOT_KNOWN. ) ;
#35 = ORIENTED_EDGE ( 'NONE', *, *, #52, .T. ) ;
#36 = EDGE_CURVE ( 'NONE', #46, #163, #349, .T. ) ;
#37 = ORIENTED_EDGE ( 'NONE', *, *, #103, .F. ) ;
#38 = CARTESIAN_POINT ( 'NONE',  ( 17.25137666704367234, 3.727215255257891463E-16, -2.337004445449780032 ) ) ;
#39 = ORIENTED_EDGE ( 'NONE', *, *, #214, .F. ) ;
#40 = CARTESIAN_POINT ( 'NONE',  ( 16.00000000000000000, 0.0000000000000000000, 0.0000000000000000000 ) ) ;
#41 = CARTESIAN_POINT ( 'NONE',  ( 32.00000000000000000, 0.0000000000000000000, 2.000000000000000000 ) ) ;
#42 = CARTESIAN_POINT ( 'NONE',  ( 3.750000000000000000, 3.750000000000000000, 0.0000000000000000000 ) ) ;
#43 = ORIENTED_EDGE ( 'NONE', *, *, #288, .T. ) ;
#44 = SURFACE_STYLE_USAGE ( .BOTH. , #108 ) ;
#45 = CARTESIAN_POINT ( 'NONE',  ( 18.00000000000000355, 0.0000000000000000000, 2.000000000000000000 ) ) ;
#46 = VERTEX_POINT ( 'NONE', #42 ) ;
#47 = COLOUR_RGB ( '',0.5019607843137254832, 0.5019607843137254832, 1.000000000000000000 ) ;
#48 = PRESENTATION_LAYER_ASSIGNMENT (  '', '', ( #11 ) ) ;
#49 = DIRECTION ( 'NONE',  ( -1.000000000000000000, -0.0000000000000000000, -0.0000000000000000000 ) ) ;
#50 = CARTESIAN_POINT ( 'NONE',  ( 17.25137666704367234, 0.0000000000000000000, 0.0000000000000000000 ) ) ;
#51 = CARTESIAN_POINT ( 'NONE',  ( 0.0000000000000000000, 2.449293598294706414E-16, -2.000000000000000000 ) ) ;
#52 = EDGE_CURVE ( 'NONE', #130, #344, #33, .T. ) ;
#53 = MECHANICAL_DESIGN_GEOMETRIC_PRESENTATION_REPRESENTATION (  '', ( #11 ), #114 ) ;
#54 = DIRECTION ( 'NONE',  ( 0.0000000000000000000, 0.0000000000000000000, 1.000000000000000000 ) ) ;
#55 = CARTESIAN_POINT ( 'NONE',  ( 3.750000000000000000, 4.592425496802573972E-16, -3.750000000000000000 ) ) ;
#56 = AXIS2_PLACEMENT_3D ( 'NONE', #291, #138, #113 ) ;
#57 = PRODUCT_RELATED_PRODUCT_CATEGORY ( 'part', '', ( #252 ) ) ;
#58 = FACE_OUTER_BOUND ( 'NONE', #257, .T. ) ;
#59 = SURFACE_STYLE_USAGE ( .BOTH. , #376 ) ;
#60 = ORIENTED_EDGE ( 'NONE', *, *, #331, .F. ) ;
#61 = DIRECTION ( 'NONE',  ( -1.000000000000000000, -0.0000000000000000000, -0.0000000000000000000 ) ) ;
#62 = ORIENTED_EDGE ( 'NONE', *, *, #361, .F. ) ;
#63 = EDGE_CURVE ( 'NONE', #344, #130, #264, .T. ) ;
#64 = CONICAL_SURFACE ( 'NONE', #185, 2.337004445449780032, 0.8459832027371162466 ) ;
#65 = PRESENTATION_LAYER_ASSIGNMENT (  '', '', ( #148 ) ) ;
#66 = ORIENTED_EDGE ( 'NONE', *, *, #395, .F. ) ;
#67 = EDGE_LOOP ( 'NONE', ( #109, #255, #13, #7 ) ) ;
#68 = FILL_AREA_STYLE_COLOUR ( '', #256 ) ;
#69 = DIRECTION ( 'NONE',  ( -1.000000000000000000, -0.0000000000000000000, -0.0000000000000000000 ) ) ;
#70 = DIRECTION ( 'NONE',  ( 0.0000000000000000000, 0.0000000000000000000, 1.000000000000000000 ) ) ;
#71 = AXIS2_PLACEMENT_3D ( 'NONE', #357, #262, #284 ) ;
#72 = ORIENTED_EDGE ( 'NONE', *, *, #361, .T. ) ;
#73 = CARTESIAN_POINT ( 'NONE',  ( 0.0000000000000000000, 0.0000000000000000000, 2.000000000000000000 ) ) ;
#74 = ADVANCED_FACE ( 'NONE', ( #381 ), #64, .T. ) ;
#75 = FACE_OUTER_BOUND ( 'NONE', #189, .T. ) ;
#76 = CARTESIAN_POINT ( 'NONE',  ( 18.00000000000000355, 0.0000000000000000000, 0.0000000000000000000 ) ) ;
#77 = CIRCLE ( 'NONE', #232, 2.000000000000000000 ) ;
#78 = VECTOR ( 'NONE', #389, 1000.000000000000000 ) ;
#79 = SHAPE_DEFINITION_REPRESENTATION ( #245, #6 ) ;
#80 = LINE ( 'NONE', #367, #301 ) ;
#81 = EDGE_CURVE ( 'NONE', #130, #294, #178, .T. ) ;
#82 = DIRECTION ( 'NONE',  ( -1.000000000000000000, -0.0000000000000000000, -0.0000000000000000000 ) ) ;
#83 = AXIS2_PLACEMENT_3D ( 'NONE', #40, #158, #259 ) ;
#84 = CIRCLE ( 'NONE', #309, 0.9999999999999986677 ) ;
#85 = CARTESIAN_POINT ( 'NONE',  ( 3.750000000000000000, 0.0000000000000000000, 0.0000000000000000000 ) ) ;
#86 = DIRECTION ( 'NONE',  ( 0.0000000000000000000, 0.0000000000000000000, 1.000000000000000000 ) ) ;
#87 = EDGE_CURVE ( 'NONE', #320, #100, #144, .T. ) ;
#88 = DIRECTION ( 'NONE',  ( -0.6629955545502203007, 9.167991684719942788E-17, -0.7486233329563312111 ) ) ;
#89 = PRESENTATION_LAYER_ASSIGNMENT (  '', '', ( #155 ) ) ;
#90 =( GEOMETRIC_REPRESENTATION_CONTEXT ( 3 ) GLOBAL_UNCERTAINTY_ASSIGNED_CONTEXT ( ( #216 ) ) GLOBAL_UNIT_ASSIGNED_CONTEXT ( ( #253, #311, #188 ) ) REPRESENTATION_CONTEXT ( 'NONE', 'WORKASPACE' ) );
#91 = CYLINDRICAL_SURFACE ( 'NONE', #270, 3.750000000000000000 ) ;
#92 = ORIENTED_EDGE ( 'NONE', *, *, #369, .F. ) ;
#93 = ADVANCED_FACE ( 'NONE', ( #362 ), #174, .T. ) ;
#94 = FILL_AREA_STYLE ('',( #1 ) ) ;
#95 = ORIENTED_EDGE ( 'NONE', *, *, #369, .T. ) ;
#96 = CARTESIAN_POINT ( 'NONE',  ( 0.0000000000000000000, 0.0000000000000000000, 0.0000000000000000000 ) ) ;
#97 = AXIS2_PLACEMENT_3D ( 'NONE', #192, #314, #134 ) ;
#98 = AXIS2_PLACEMENT_3D ( 'NONE', #220, #133, #101 ) ;
#99 = SPHERICAL_SURFACE ( 'NONE', #225, 3.750000000000000000 ) ;
#100 = VERTEX_POINT ( 'NONE', #396 ) ;
#101 = DIRECTION ( 'NONE',  ( 0.0000000000000000000, 0.0000000000000000000, 1.000000000000000000 ) ) ;
#102 = ORIENTED_EDGE ( 'NONE', *, *, #36, .T. ) ;
#103 = EDGE_CURVE ( 'NONE', #344, #163, #273, .T. ) ;
#104 = VERTEX_POINT ( 'NONE', #118 ) ;
#105 = SURFACE_STYLE_USAGE ( .BOTH. , #380 ) ;
#106 = DIRECTION ( 'NONE',  ( -1.000000000000000000, -0.0000000000000000000, -0.0000000000000000000 ) ) ;
#107 = CIRCLE ( 'NONE', #370, 3.750000000000000000 ) ;
#108 = SURFACE_SIDE_STYLE ('',( #321 ) ) ;
#109 = ORIENTED_EDGE ( 'NONE', *, *, #208, .F. ) ;
#110 = FILL_AREA_STYLE ('',( #161 ) ) ;
#111 = UNCERTAINTY_MEASURE_WITH_UNIT (LENGTH_MEASURE( 1.000000000000000082E-05 ), #200, 'distance_accuracy_value', 'NONE');
#112 = ORIENTED_EDGE ( 'NONE', *, *, #81, .T. ) ;
#113 = DIRECTION ( 'NONE',  ( 0.0000000000000000000, 0.0000000000000000000, 1.000000000000000000 ) ) ;
#114 =( GEOMETRIC_REPRESENTATION_CONTEXT ( 3 ) GLOBAL_UNCERTAINTY_ASSIGNED_CONTEXT ( ( #197 ) ) GLOBAL_UNIT_ASSIGNED_CONTEXT ( ( #125, #375, #276 ) ) REPRESENTATION_CONTEXT ( 'NONE', 'WORKASPACE' ) );
#115 = DIRECTION ( 'NONE',  ( 0.0000000000000000000, 0.0000000000000000000, 1.000000000000000000 ) ) ;
#116 = DIRECTION ( 'NONE',  ( -0.0000000000000000000, 0.0000000000000000000, -1.000000000000000000 ) ) ;
#117 = AXIS2_PLACEMENT_3D ( 'NONE', #217, #275, #120 ) ;
#118 = CARTESIAN_POINT ( 'NONE',  ( 17.25137666704367234, 0.0000000000000000000, 2.337004445449780032 ) ) ;
#119 = CARTESIAN_POINT ( 'NONE',  ( 18.00000000000000355, 3.673940397442059375E-16, -2.999999999999999556 ) ) ;
#120 = DIRECTION ( 'NONE',  ( 0.0000000000000000000, 0.0000000000000000000, 1.000000000000000000 ) ) ;
#121 = ORIENTED_EDGE ( 'NONE', *, *, #14, .T. ) ;
#122 = STYLED_ITEM ( 'NONE', ( #332 ), #176 ) ;
#123 = DIRECTION ( 'NONE',  ( 0.0000000000000000000, 0.0000000000000000000, 1.000000000000000000 ) ) ;
#124 = VERTEX_POINT ( 'NONE', #207 ) ;
#125 =( LENGTH_UNIT ( ) NAMED_UNIT ( * ) SI_UNIT ( .MILLI., .METRE. ) );
#126 = ORIENTED_EDGE ( 'NONE', *, *, #87, .T. ) ;
#127 = UNCERTAINTY_MEASURE_WITH_UNIT (LENGTH_MEASURE( 1.000000000000000082E-05 ), #15, 'distance_accuracy_value', 'NONE');
#128 = CIRCLE ( 'NONE', #386, 2.337004445449780032 ) ;
#129 = CIRCLE ( 'NONE', #328, 3.750000000000000000 ) ;
#130 = VERTEX_POINT ( 'NONE', #295 ) ;
#131 = ADVANCED_FACE ( 'NONE', ( #398 ), #143, .F. ) ;
#132 = DIRECTION ( 'NONE',  ( 0.0000000000000000000, 0.0000000000000000000, 1.000000000000000000 ) ) ;
#133 = DIRECTION ( 'NONE',  ( -1.000000000000000000, -0.0000000000000000000, -0.0000000000000000000 ) ) ;
#134 = DIRECTION ( 'NONE',  ( 0.0000000000000000000, 0.0000000000000000000, 1.000000000000000000 ) ) ;
#135 = EDGE_CURVE ( 'NONE', #104, #130, #80, .T. ) ;
#136 = FILL_AREA_STYLE ('',( #68 ) ) ;
#137 = ORIENTED_EDGE ( 'NONE', *, *, #345, .F. ) ;
#138 = DIRECTION ( 'NONE',  ( -1.000000000000000000, -0.0000000000000000000, -0.0000000000000000000 ) ) ;
#139 = SURFACE_SIDE_STYLE ('',( #211 ) ) ;
#140 = EDGE_CURVE ( 'NONE', #104, #251, #128, .T. ) ;
#141 = CARTESIAN_POINT ( 'NONE',  ( 0.0000000000000000000, 4.592425496802573972E-16, -3.750000000000000000 ) ) ;
#142 = DIRECTION ( 'NONE',  ( -1.000000000000000000, -0.0000000000000000000, -0.0000000000000000000 ) ) ;
#143 = TOROIDAL_SURFACE ( 'NONE', #377, 2.999999999999999556, 0.9999999999999985567 ) ;
#144 = LINE ( 'NONE', #51, #322 ) ;
#145 = ORIENTED_EDGE ( 'NONE', *, *, #366, .F. ) ;
#146 = FILL_AREA_STYLE ('',( #2 ) ) ;
#147 = ORIENTED_EDGE ( 'NONE', *, *, #81, .F. ) ;
#148 = STYLED_ITEM ( 'NONE', ( #319 ), #385 ) ;
#149 = PRESENTATION_LAYER_ASSIGNMENT (  '', '', ( #249 ) ) ;
#150 = EDGE_LOOP ( 'NONE', ( #145, #348, #121, #66 ) ) ;
#151 = ORIENTED_EDGE ( 'NONE', *, *, #20, .F. ) ;
#152 = EDGE_CURVE ( 'NONE', #294, #46, #392, .T. ) ;
#153 = FACE_OUTER_BOUND ( 'NONE', #4, .T. ) ;
#154 = ORIENTED_EDGE ( 'NONE', *, *, #288, .F. ) ;
#155 = STYLED_ITEM ( 'NONE', ( #21 ), #25 ) ;
#156 = STYLED_ITEM ( 'NONE', ( #8 ), #244 ) ;
#157 = FACE_OUTER_BOUND ( 'NONE', #67, .T. ) ;
#158 = DIRECTION ( 'NONE',  ( -1.000000000000000000, -0.0000000000000000000, -0.0000000000000000000 ) ) ;
#159 = DIRECTION ( 'NONE',  ( 0.0000000000000000000, 0.0000000000000000000, 1.000000000000000000 ) ) ;
#160 =( LENGTH_UNIT ( ) NAMED_UNIT ( * ) SI_UNIT ( .MILLI., .METRE. ) );
#161 = FILL_AREA_STYLE_COLOUR ( '', #371 ) ;
#162 =( NAMED_UNIT ( * ) SI_UNIT ( $, .STERADIAN. ) SOLID_ANGLE_UNIT ( ) );
#163 = VERTEX_POINT ( 'NONE', #55 ) ;
#164 = PRESENTATION_STYLE_ASSIGNMENT (( #44 ) ) ;
#165 = DIRECTION ( 'NONE',  ( -1.000000000000000000, -0.0000000000000000000, -0.0000000000000000000 ) ) ;
#166 = MECHANICAL_DESIGN_GEOMETRIC_PRESENTATION_REPRESENTATION (  '', ( #148 ), #28 ) ;
#167 = SURFACE_SIDE_STYLE ('',( #170 ) ) ;
#168 = AXIS2_PLACEMENT_3D ( 'NONE', #317, #12, #159 ) ;
#169 = CARTESIAN_POINT ( 'NONE',  ( 3.750000000000000000, 0.0000000000000000000, 0.0000000000000000000 ) ) ;
#170 = SURFACE_STYLE_FILL_AREA ( #354 ) ;
#171 =( NAMED_UNIT ( * ) SI_UNIT ( $, .STERADIAN. ) SOLID_ANGLE_UNIT ( ) );
#172 = EDGE_CURVE ( 'NONE', #180, #124, #213, .T. ) ;
#173 = DIRECTION ( 'NONE',  ( -1.000000000000000000, -0.0000000000000000000, -0.0000000000000000000 ) ) ;
#174 = CYLINDRICAL_SURFACE ( 'NONE', #239, 2.000000000000000000 ) ;
#175 = DIRECTION ( 'NONE',  ( -1.000000000000000000, -0.0000000000000000000, -0.0000000000000000000 ) ) ;
#176 = ADVANCED_FACE ( 'NONE', ( #330 ), #272, .T. ) ;
#177 = CARTESIAN_POINT ( 'NONE',  ( 3.750000000000000000, 0.0000000000000000000, 0.0000000000000000000 ) ) ;
#178 = LINE ( 'NONE', #274, #363 ) ;
#179 = CIRCLE ( 'NONE', #248, 3.750000000000000000 ) ;
#180 = VERTEX_POINT ( 'NONE', #329 ) ;
#181 = DIRECTION ( 'NONE',  ( -1.000000000000000000, -0.0000000000000000000, -0.0000000000000000000 ) ) ;
#182 = ORIENTED_EDGE ( 'NONE', *, *, #366, .T. ) ;
#183 = DIRECTION ( 'NONE',  ( 0.0000000000000000000, 0.0000000000000000000, 1.000000000000000000 ) ) ;
#184 = ORIENTED_EDGE ( 'NONE', *, *, #152, .T. ) ;
#185 = AXIS2_PLACEMENT_3D ( 'NONE', #263, #106, #227 ) ;
#186 = MECHANICAL_DESIGN_GEOMETRIC_PRESENTATION_REPRESENTATION (  '', ( #156 ), #90 ) ;
#187 = UNCERTAINTY_MEASURE_WITH_UNIT (LENGTH_MEASURE( 1.000000000000000082E-05 ), #387, 'distance_accuracy_value', 'NONE');
#188 =( NAMED_UNIT ( * ) SI_UNIT ( $, .STERADIAN. ) SOLID_ANGLE_UNIT ( ) );
#189 = EDGE_LOOP ( 'NONE', ( #285, #137 ) ) ;
#190 = DIRECTION ( 'NONE',  ( 0.0000000000000000000, 1.000000000000000000, 0.0000000000000000000 ) ) ;
#191 = SURFACE_STYLE_FILL_AREA ( #136 ) ;
#192 = CARTESIAN_POINT ( 'NONE',  ( 16.00000000000000000, 0.0000000000000000000, 0.0000000000000000000 ) ) ;
#193 = MECHANICAL_DESIGN_GEOMETRIC_PRESENTATION_REPRESENTATION (  '', ( #155 ), #359 ) ;
#194 = CIRCLE ( 'NONE', #168, 2.000000000000000000 ) ;
#195 = DIRECTION ( 'NONE',  ( 0.0000000000000000000, 0.0000000000000000000, 1.000000000000000000 ) ) ;
#196 = PRODUCT_DEFINITION ( 'UNKNOWN', '', #34, #5 ) ;
#197 = UNCERTAINTY_MEASURE_WITH_UNIT (LENGTH_MEASURE( 1.000000000000000082E-05 ), #125, 'distance_accuracy_value', 'NONE');
#198 = LINE ( 'NONE', #73, #78 ) ;
#199 = EDGE_LOOP ( 'NONE', ( #16, #43, #310, #280 ) ) ;
#200 =( LENGTH_UNIT ( ) NAMED_UNIT ( * ) SI_UNIT ( .MILLI., .METRE. ) );
#201 = PLANE ( 'NONE',  #296 ) ;
#202 = CYLINDRICAL_SURFACE ( 'NONE', #56, 3.750000000000000000 ) ;
#203 = DIRECTION ( 'NONE',  ( 0.0000000000000000000, 0.0000000000000000000, 1.000000000000000000 ) ) ;
#204 = CIRCLE ( 'NONE', #393, 0.9999999999999986677 ) ;
#205 = FILL_AREA_STYLE_COLOUR ( '', #209 ) ;
#206 =( NAMED_UNIT ( * ) PLANE_ANGLE_UNIT ( ) SI_UNIT ( $, .RADIAN. ) );
#207 = CARTESIAN_POINT ( 'NONE',  ( 0.0000000000000000000, 2.296212748401286986E-16, 0.0000000000000000000 ) ) ;
#208 = EDGE_CURVE ( 'NONE', #251, #100, #84, .T. ) ;
#209 = COLOUR_RGB ( '',0.5019607843137254832, 0.5019607843137254832, 1.000000000000000000 ) ;
#210 =( LENGTH_UNIT ( ) NAMED_UNIT ( * ) SI_UNIT ( .MILLI., .METRE. ) );
#211 = SURFACE_STYLE_FILL_AREA ( #327 ) ;
#212 = CARTESIAN_POINT ( 'NONE',  ( 3.750000000000000000, 0.0000000000000000000, 0.0000000000000000000 ) ) ;
#213 = CIRCLE ( 'NONE', #289, 3.750000000000000000 ) ;
#214 = EDGE_CURVE ( 'NONE', #180, #294, #179, .T. ) ;
#215 = EDGE_LOOP ( 'NONE', ( #35, #358, #379, #269, #147 ) ) ;
#216 = UNCERTAINTY_MEASURE_WITH_UNIT (LENGTH_MEASURE( 1.000000000000000082E-05 ), #253, 'distance_accuracy_value', 'NONE');
#217 = CARTESIAN_POINT ( 'NONE',  ( 0.0000000000000000000, 0.0000000000000000000, 0.0000000000000000000 ) ) ;
#218 = SURFACE_STYLE_FILL_AREA ( #94 ) ;
#219 = PRESENTATION_STYLE_ASSIGNMENT (( #59 ) ) ;
#220 = CARTESIAN_POINT ( 'NONE',  ( 17.25137666704367234, 0.0000000000000000000, 0.0000000000000000000 ) ) ;
#221 = EDGE_CURVE ( 'NONE', #372, #320, #18, .T. ) ;
#222 = CARTESIAN_POINT ( 'NONE',  ( 18.00000000000000355, 0.0000000000000000000, 2.999999999999999556 ) ) ;
#223 = DIRECTION ( 'NONE',  ( 0.0000000000000000000, 0.0000000000000000000, 1.000000000000000000 ) ) ;
#224 = PRODUCT_CONTEXT ( 'NONE', #299, 'mechanical' ) ;
#225 = AXIS2_PLACEMENT_3D ( 'NONE', #9, #343, #190 ) ;
#226 = CARTESIAN_POINT ( 'NONE',  ( 3.750000000000000000, 0.0000000000000000000, 0.0000000000000000000 ) ) ;
#227 = DIRECTION ( 'NONE',  ( 0.0000000000000000000, 0.0000000000000000000, 1.000000000000000000 ) ) ;
#228 = CARTESIAN_POINT ( 'NONE',  ( 16.00000000000000000, 4.592425496802573972E-16, -3.750000000000000000 ) ) ;
#229 = DIRECTION ( 'NONE',  ( 0.0000000000000000000, 0.0000000000000000000, -1.000000000000000000 ) ) ;
#230 = ORIENTED_EDGE ( 'NONE', *, *, #87, .F. ) ;
#231 = ADVANCED_FACE ( 'NONE', ( #153 ), #306, .T. ) ;
#232 = AXIS2_PLACEMENT_3D ( 'NONE', #326, #49, #223 ) ;
#233 = APPLICATION_PROTOCOL_DEFINITION ( 'draft international standard', 'automotive_design', 1998, #299 ) ;
#234 = AXIS2_PLACEMENT_3D ( 'NONE', #85, #297, #242 ) ;
#235 = CARTESIAN_POINT ( 'NONE',  ( 3.750000000000000000, 0.0000000000000000000, 0.0000000000000000000 ) ) ;
#236 = DIRECTION ( 'NONE',  ( 0.0000000000000000000, 1.224646799147353207E-16, -1.000000000000000000 ) ) ;
#237 = ADVANCED_FACE ( 'NONE', ( #250 ), #91, .T. ) ;
#238 = DIRECTION ( 'NONE',  ( 0.0000000000000000000, 1.000000000000000000, 0.0000000000000000000 ) ) ;
#239 = AXIS2_PLACEMENT_3D ( 'NONE', #302, #82, #54 ) ;
#240 = VECTOR ( 'NONE', #88, 1000.000000000000000 ) ;
#241 =( GEOMETRIC_REPRESENTATION_CONTEXT ( 3 ) GLOBAL_UNCERTAINTY_ASSIGNED_CONTEXT ( ( #127 ) ) GLOBAL_UNIT_ASSIGNED_CONTEXT ( ( #15, #282, #162 ) ) REPRESENTATION_CONTEXT ( 'NONE', 'WORKASPACE' ) );
#242 = DIRECTION ( 'NONE',  ( 0.0000000000000000000, 0.0000000000000000000, 1.000000000000000000 ) ) ;
#243 = LINE ( 'NONE', #368, #240 ) ;
#244 = ADVANCED_FACE ( 'NONE', ( #58 ), #99, .T. ) ;
#245 = PRODUCT_DEFINITION_SHAPE ( 'NONE', 'NONE',  #196 ) ;
#246 = DIRECTION ( 'NONE',  ( -1.000000000000000000, -0.0000000000000000000, -0.0000000000000000000 ) ) ;
#247 = ORIENTED_EDGE ( 'NONE', *, *, #14, .F. ) ;
#248 = AXIS2_PLACEMENT_3D ( 'NONE', #212, #61, #123 ) ;
#249 = STYLED_ITEM ( 'NONE', ( #164 ), #6 ) ;
#250 = FACE_OUTER_BOUND ( 'NONE', #215, .T. ) ;
#251 = VERTEX_POINT ( 'NONE', #38 ) ;
#252 = PRODUCT ( 'AZ-0674004', 'AZ-0674004', '', ( #224 ) ) ;
#253 =( LENGTH_UNIT ( ) NAMED_UNIT ( * ) SI_UNIT ( .MILLI., .METRE. ) );
#254 = EDGE_LOOP ( 'NONE', ( #307, #126, #151, #92 ) ) ;
#255 = ORIENTED_EDGE ( 'NONE', *, *, #140, .F. ) ;
#256 = COLOUR_RGB ( '',0.2509803921568627416, 0.2509803921568627416, 0.2509803921568627416 ) ;
#257 = EDGE_LOOP ( 'NONE', ( #102, #338, #31, #62 ) ) ;
#258 = DIRECTION ( 'NONE',  ( -1.000000000000000000, 0.0000000000000000000, -0.0000000000000000000 ) ) ;
#259 = DIRECTION ( 'NONE',  ( 0.0000000000000000000, 0.0000000000000000000, 1.000000000000000000 ) ) ;
#260 = DIRECTION ( 'NONE',  ( 1.000000000000000000, 0.0000000000000000000, 0.0000000000000000000 ) ) ;
#261 = UNCERTAINTY_MEASURE_WITH_UNIT (LENGTH_MEASURE( 1.000000000000000082E-05 ), #160, 'distance_accuracy_value', 'NONE');
#262 = DIRECTION ( 'NONE',  ( -1.000000000000000000, -0.0000000000000000000, -0.0000000000000000000 ) ) ;
#263 = CARTESIAN_POINT ( 'NONE',  ( 17.25137666704367234, 0.0000000000000000000, 0.0000000000000000000 ) ) ;
#264 = CIRCLE ( 'NONE', #83, 3.750000000000000000 ) ;
#265 = SURFACE_STYLE_USAGE ( .BOTH. , #167 ) ;
#266 = DIRECTION ( 'NONE',  ( 0.0000000000000000000, -1.000000000000000000, 0.0000000000000000000 ) ) ;
#267 =( NAMED_UNIT ( * ) SI_UNIT ( $, .STERADIAN. ) SOLID_ANGLE_UNIT ( ) );
#268 = CARTESIAN_POINT ( 'NONE',  ( 0.0000000000000000000, 0.0000000000000000000, 0.0000000000000000000 ) ) ;
#269 = ORIENTED_EDGE ( 'NONE', *, *, #152, .F. ) ;
#270 = AXIS2_PLACEMENT_3D ( 'NONE', #96, #181, #305 ) ;
#271 =( NAMED_UNIT ( * ) SI_UNIT ( $, .STERADIAN. ) SOLID_ANGLE_UNIT ( ) );
#272 = SPHERICAL_SURFACE ( 'NONE', #315, 3.750000000000000000 ) ;
#273 = LINE ( 'NONE', #141, #340 ) ;
#274 = CARTESIAN_POINT ( 'NONE',  ( 0.0000000000000000000, 0.0000000000000000000, 3.750000000000000000 ) ) ;
#275 = DIRECTION ( 'NONE',  ( -1.000000000000000000, -0.0000000000000000000, -0.0000000000000000000 ) ) ;
#276 =( NAMED_UNIT ( * ) SI_UNIT ( $, .STERADIAN. ) SOLID_ANGLE_UNIT ( ) );
#277 = CLOSED_SHELL ( 'NONE', ( #93, #131, #74, #237, #244, #176, #25, #300, #391, #231, #382 ) ) ;
#278 = PRESENTATION_LAYER_ASSIGNMENT (  '', '', ( #122 ) ) ;
#279 = SURFACE_SIDE_STYLE ('',( #373 ) ) ;
#280 = ORIENTED_EDGE ( 'NONE', *, *, #135, .F. ) ;
#281 = AXIS2_PLACEMENT_3D ( 'NONE', #76, #286, #203 ) ;
#282 =( NAMED_UNIT ( * ) PLANE_ANGLE_UNIT ( ) SI_UNIT ( $, .RADIAN. ) );
#283 = FILL_AREA_STYLE_COLOUR ( '', #47 ) ;
#284 = DIRECTION ( 'NONE',  ( 0.0000000000000000000, 0.0000000000000000000, 1.000000000000000000 ) ) ;
#285 = ORIENTED_EDGE ( 'NONE', *, *, #221, .F. ) ;
#286 = DIRECTION ( 'NONE',  ( -1.000000000000000000, -0.0000000000000000000, -0.0000000000000000000 ) ) ;
#287 =( NAMED_UNIT ( * ) PLANE_ANGLE_UNIT ( ) SI_UNIT ( $, .RADIAN. ) );
#288 = EDGE_CURVE ( 'NONE', #251, #344, #243, .T. ) ;
#289 = AXIS2_PLACEMENT_3D ( 'NONE', #24, #236, #394 ) ;
#290 = DIRECTION ( 'NONE',  ( -0.0000000000000000000, 0.0000000000000000000, 1.000000000000000000 ) ) ;
#291 = CARTESIAN_POINT ( 'NONE',  ( 0.0000000000000000000, 0.0000000000000000000, 0.0000000000000000000 ) ) ;
#292 = APPLICATION_PROTOCOL_DEFINITION ( 'draft international standard', 'automotive_design', 1998, #324 ) ;
#293 = DIRECTION ( 'NONE',  ( -0.0000000000000000000, 0.0000000000000000000, 1.000000000000000000 ) ) ;
#294 = VERTEX_POINT ( 'NONE', #333 ) ;
#295 = CARTESIAN_POINT ( 'NONE',  ( 16.00000000000000000, 0.0000000000000000000, 3.750000000000000000 ) ) ;
#296 = AXIS2_PLACEMENT_3D ( 'NONE', #383, #258, #290 ) ;
#297 = DIRECTION ( 'NONE',  ( -1.000000000000000000, -0.0000000000000000000, -0.0000000000000000000 ) ) ;
#298 = DIRECTION ( 'NONE',  ( 0.0000000000000000000, -1.224646799147353207E-16, 1.000000000000000000 ) ) ;
#299 = APPLICATION_CONTEXT ( 'automotive_design' ) ;
#300 = ADVANCED_FACE ( 'NONE', ( #335 ), #341, .T. ) ;
#301 = VECTOR ( 'NONE', #397, 1000.000000000000000 ) ;
#302 = CARTESIAN_POINT ( 'NONE',  ( 0.0000000000000000000, 0.0000000000000000000, 0.0000000000000000000 ) ) ;
#303 = TOROIDAL_SURFACE ( 'NONE', #316, 2.999999999999999556, 0.9999999999999985567 ) ;
#304 = EDGE_LOOP ( 'NONE', ( #37, #10, #112, #39, #60 ) ) ;
#305 = DIRECTION ( 'NONE',  ( 0.0000000000000000000, 0.0000000000000000000, 1.000000000000000000 ) ) ;
#306 = CYLINDRICAL_SURFACE ( 'NONE', #117, 2.000000000000000000 ) ;
#307 = ORIENTED_EDGE ( 'NONE', *, *, #221, .T. ) ;
#308 = AXIS2_PLACEMENT_3D ( 'NONE', #235, #69, #132 ) ;
#309 = AXIS2_PLACEMENT_3D ( 'NONE', #119, #365, #298 ) ;
#310 = ORIENTED_EDGE ( 'NONE', *, *, #52, .F. ) ;
#311 =( NAMED_UNIT ( * ) PLANE_ANGLE_UNIT ( ) SI_UNIT ( $, .RADIAN. ) );
#312 = EDGE_LOOP ( 'NONE', ( #154, #182, #19, #336 ) ) ;
#313 =( NAMED_UNIT ( * ) PLANE_ANGLE_UNIT ( ) SI_UNIT ( $, .RADIAN. ) );
#314 = DIRECTION ( 'NONE',  ( -1.000000000000000000, -0.0000000000000000000, -0.0000000000000000000 ) ) ;
#315 = AXIS2_PLACEMENT_3D ( 'NONE', #177, #116, #238 ) ;
#316 = AXIS2_PLACEMENT_3D ( 'NONE', #355, #347, #70 ) ;
#317 = CARTESIAN_POINT ( 'NONE',  ( 32.00000000000000000, 0.0000000000000000000, 0.0000000000000000000 ) ) ;
#318 = ORIENTED_EDGE ( 'NONE', *, *, #172, .F. ) ;
#319 = PRESENTATION_STYLE_ASSIGNMENT (( #105 ) ) ;
#320 = VERTEX_POINT ( 'NONE', #346 ) ;
#321 = SURFACE_STYLE_FILL_AREA ( #110 ) ;
#322 = VECTOR ( 'NONE', #27, 1000.000000000000000 ) ;
#323 = COLOUR_RGB ( '',0.5019607843137254832, 0.5019607843137254832, 1.000000000000000000 ) ;
#324 = APPLICATION_CONTEXT ( 'automotive_design' ) ;
#325 = DIRECTION ( 'NONE',  ( 1.000000000000000000, 0.0000000000000000000, 0.0000000000000000000 ) ) ;
#326 = CARTESIAN_POINT ( 'NONE',  ( 18.00000000000000355, 0.0000000000000000000, 0.0000000000000000000 ) ) ;
#327 = FILL_AREA_STYLE ('',( #205 ) ) ;
#328 = AXIS2_PLACEMENT_3D ( 'NONE', #169, #293, #325 ) ;
#329 = CARTESIAN_POINT ( 'NONE',  ( 3.750000000000000000, -3.750000000000000000, -4.592425496802573972E-16 ) ) ;
#330 = FACE_OUTER_BOUND ( 'NONE', #374, .T. ) ;
#331 = EDGE_CURVE ( 'NONE', #163, #180, #107, .T. ) ;
#332 = PRESENTATION_STYLE_ASSIGNMENT (( #26 ) ) ;
#333 = CARTESIAN_POINT ( 'NONE',  ( 3.750000000000000000, 0.0000000000000000000, 3.750000000000000000 ) ) ;
#334 =( GEOMETRIC_REPRESENTATION_CONTEXT ( 3 ) GLOBAL_UNCERTAINTY_ASSIGNED_CONTEXT ( ( #352 ) ) GLOBAL_UNIT_ASSIGNED_CONTEXT ( ( #210, #206, #271 ) ) REPRESENTATION_CONTEXT ( 'NONE', 'WORKASPACE' ) );
#335 = FACE_OUTER_BOUND ( 'NONE', #312, .T. ) ;
#336 = ORIENTED_EDGE ( 'NONE', *, *, #63, .F. ) ;
#337 = CARTESIAN_POINT ( 'NONE',  ( 32.00000000000000000, 0.0000000000000000000, 0.0000000000000000000 ) ) ;
#338 = ORIENTED_EDGE ( 'NONE', *, *, #331, .T. ) ;
#339 = SURFACE_STYLE_USAGE ( .BOTH. , #279 ) ;
#340 = VECTOR ( 'NONE', #175, 1000.000000000000000 ) ;
#341 = CONICAL_SURFACE ( 'NONE', #98, 2.337004445449780032, 0.8459832027371162466 ) ;
#342 = MECHANICAL_DESIGN_GEOMETRIC_PRESENTATION_REPRESENTATION (  '', ( #122 ), #334 ) ;
#343 = DIRECTION ( 'NONE',  ( -0.0000000000000000000, 0.0000000000000000000, -1.000000000000000000 ) ) ;
#344 = VERTEX_POINT ( 'NONE', #228 ) ;
#345 = EDGE_CURVE ( 'NONE', #320, #372, #194, .T. ) ;
#346 = CARTESIAN_POINT ( 'NONE',  ( 32.00000000000000000, 2.449293598294706414E-16, -2.000000000000000000 ) ) ;
#347 = DIRECTION ( 'NONE',  ( -1.000000000000000000, -0.0000000000000000000, -0.0000000000000000000 ) ) ;
#348 = ORIENTED_EDGE ( 'NONE', *, *, #208, .T. ) ;
#349 = CIRCLE ( 'NONE', #308, 3.750000000000000000 ) ;
#350 = AXIS2_PLACEMENT_3D ( 'NONE', #337, #246, #183 ) ;
#351 = MECHANICAL_DESIGN_GEOMETRIC_PRESENTATION_REPRESENTATION (  '', ( #249 ), #29 ) ;
#352 = UNCERTAINTY_MEASURE_WITH_UNIT (LENGTH_MEASURE( 1.000000000000000082E-05 ), #210, 'distance_accuracy_value', 'NONE');
#353 =( NAMED_UNIT ( * ) SI_UNIT ( $, .STERADIAN. ) SOLID_ANGLE_UNIT ( ) );
#354 = FILL_AREA_STYLE ('',( #283 ) ) ;
#355 = CARTESIAN_POINT ( 'NONE',  ( 18.00000000000000355, 0.0000000000000000000, 0.0000000000000000000 ) ) ;
#356 =( NAMED_UNIT ( * ) PLANE_ANGLE_UNIT ( ) SI_UNIT ( $, .RADIAN. ) );
#357 = CARTESIAN_POINT ( 'NONE',  ( 17.25137666704367234, 0.0000000000000000000, 0.0000000000000000000 ) ) ;
#358 = ORIENTED_EDGE ( 'NONE', *, *, #103, .T. ) ;
#359 =( GEOMETRIC_REPRESENTATION_CONTEXT ( 3 ) GLOBAL_UNCERTAINTY_ASSIGNED_CONTEXT ( ( #261 ) ) GLOBAL_UNIT_ASSIGNED_CONTEXT ( ( #160, #356, #267 ) ) REPRESENTATION_CONTEXT ( 'NONE', 'WORKASPACE' ) );
#360 = CARTESIAN_POINT ( 'NONE',  ( 18.00000000000000355, 0.0000000000000000000, 0.0000000000000000000 ) ) ;
#361 = EDGE_CURVE ( 'NONE', #46, #124, #129, .T. ) ;
#362 = FACE_OUTER_BOUND ( 'NONE', #254, .T. ) ;
#363 = VECTOR ( 'NONE', #173, 1000.000000000000000 ) ;
#364 = PRESENTATION_LAYER_ASSIGNMENT (  '', '', ( #156 ) ) ;
#365 = DIRECTION ( 'NONE',  ( -0.0000000000000000000, 1.000000000000000000, 1.224646799147353207E-16 ) ) ;
#366 = EDGE_CURVE ( 'NONE', #251, #104, #22, .T. ) ;
#367 = CARTESIAN_POINT ( 'NONE',  ( 17.25137666704367234, 0.0000000000000000000, 2.337004445449780032 ) ) ;
#368 = CARTESIAN_POINT ( 'NONE',  ( 17.25137666704367234, 2.862005013713208461E-16, -2.337004445449780032 ) ) ;
#369 = EDGE_CURVE ( 'NONE', #372, #378, #198, .T. ) ;
#370 = AXIS2_PLACEMENT_3D ( 'NONE', #226, #165, #195 ) ;
#371 = COLOUR_RGB ( '',0.2509803921568627416, 0.2509803921568627416, 0.2509803921568627416 ) ;
#372 = VERTEX_POINT ( 'NONE', #41 ) ;
#373 = SURFACE_STYLE_FILL_AREA ( #146 ) ;
#374 = EDGE_LOOP ( 'NONE', ( #318, #32, #184, #72 ) ) ;
#375 =( NAMED_UNIT ( * ) PLANE_ANGLE_UNIT ( ) SI_UNIT ( $, .RADIAN. ) );
#376 = SURFACE_SIDE_STYLE ('',( #218 ) ) ;
#377 = AXIS2_PLACEMENT_3D ( 'NONE', #360, #142, #115 ) ;
#378 = VERTEX_POINT ( 'NONE', #45 ) ;
#379 = ORIENTED_EDGE ( 'NONE', *, *, #36, .F. ) ;
#380 = SURFACE_SIDE_STYLE ('',( #191 ) ) ;
#381 = FACE_OUTER_BOUND ( 'NONE', #199, .T. ) ;
#382 = ADVANCED_FACE ( 'NONE', ( #75 ), #201, .F. ) ;
#383 = CARTESIAN_POINT ( 'NONE',  ( 32.00000000000000000, 2.000000000000000000, 0.0000000000000000000 ) ) ;
#384 = CIRCLE ( 'NONE', #281, 2.000000000000000000 ) ;
#385 = MANIFOLD_SOLID_BREP ( 'Revolve1', #277 ) ;
#386 = AXIS2_PLACEMENT_3D ( 'NONE', #50, #30, #86 ) ;
#387 =( LENGTH_UNIT ( ) NAMED_UNIT ( * ) SI_UNIT ( .MILLI., .METRE. ) );
#388 = DIRECTION ( 'NONE',  ( 0.0000000000000000000, 0.0000000000000000000, 1.000000000000000000 ) ) ;
#389 = DIRECTION ( 'NONE',  ( -1.000000000000000000, -0.0000000000000000000, -0.0000000000000000000 ) ) ;
#390 = ORIENTED_EDGE ( 'NONE', *, *, #345, .T. ) ;
#391 = ADVANCED_FACE ( 'NONE', ( #157 ), #303, .F. ) ;
#392 = CIRCLE ( 'NONE', #234, 3.750000000000000000 ) ;
#393 = AXIS2_PLACEMENT_3D ( 'NONE', #222, #266, #229 ) ;
#394 = DIRECTION ( 'NONE',  ( 0.0000000000000000000, 1.000000000000000000, 1.224646799147352961E-16 ) ) ;
#395 = EDGE_CURVE ( 'NONE', #104, #378, #204, .T. ) ;
#396 = CARTESIAN_POINT ( 'NONE',  ( 18.00000000000000355, 2.655649306003957438E-16, -2.000000000000000000 ) ) ;
#397 = DIRECTION ( 'NONE',  ( -0.6629955545502203007, 0.0000000000000000000, 0.7486233329563312111 ) ) ;
#398 = FACE_OUTER_BOUND ( 'NONE', #150, .T. ) ;
ENDSEC;
END-ISO-10303-21;
