ISO-10303-21;
HEADER;
FILE_DESCRIPTION (( 'STEP AP214' ),
    '1' );
FILE_NAME ('0710000004A.STEP',
    '2013-03-01T08:10:19',
    ( '' ),
    ( '' ),
    'SwSTEP 2.0',
    'SolidWorks 2012',
    '' );
FILE_SCHEMA (( 'AUTOMOTIVE_DESIGN' ));
ENDSEC;

DATA;
#1 = PRODUCT_DEFINITION_CONTEXT ( 'detailed design', #297, 'design' ) ;
#2 = PRODUCT_DEFINITION_SHAPE ( 'NONE', 'NONE',  #261 ) ;
#3 = PRODUCT ( '0710000004A', '0710000004A', '', ( #310 ) ) ;
#4 = UNCERTAINTY_MEASURE_WITH_UNIT (LENGTH_MEASURE( 1.000000000000000100E-005 ), #372, 'distance_accuracy_value', 'NONE');
#5 = ADVANCED_BREP_SHAPE_REPRESENTATION ( '0710000004A', ( #6, #260 ), #255 ) ;
#6 = MANIFOLD_SOLID_BREP ( 'Rivoluzione1', #81 ) ;
#7 = UNCERTAINTY_MEASURE_WITH_UNIT (LENGTH_MEASURE( 1.000000000000000100E-005 ), #57, 'distance_accuracy_value', 'NONE');
#8 = UNCERTAINTY_MEASURE_WITH_UNIT (LENGTH_MEASURE( 1.000000000000000100E-005 ), #302, 'distance_accuracy_value', 'NONE');
#9 = PRESENTATION_STYLE_ASSIGNMENT (( #322 ) ) ;
#10 = SHAPE_DEFINITION_REPRESENTATION ( #2, #5 ) ;
#11 = ADVANCED_FACE ( 'NONE', ( #140 ), #147, .T. ) ;
#12 = ADVANCED_FACE ( 'NONE', ( #142 ), #143, .T. ) ;
#13 = ADVANCED_FACE ( 'NONE', ( #146 ), #151, .T. ) ;
#14 = ADVANCED_FACE ( 'NONE', ( #144 ), #29, .F. ) ;
#15 = ADVANCED_FACE ( 'NONE', ( #141 ), #154, .T. ) ;
#16 = ADVANCED_FACE ( 'NONE', ( #149 ), #148, .T. ) ;
#17 = ADVANCED_FACE ( 'NONE', ( #150 ), #156, .T. ) ;
#18 = ADVANCED_FACE ( 'NONE', ( #152, #157 ), #52, .F. ) ;
#19 = ADVANCED_FACE ( 'NONE', ( #145 ), #158, .T. ) ;
#20 = ADVANCED_FACE ( 'NONE', ( #160 ), #162, .T. ) ;
#21 = ADVANCED_FACE ( 'NONE', ( #155 ), #166, .T. ) ;
#22 = ADVANCED_FACE ( 'NONE', ( #161 ), #304, .F. ) ;
#23 = ADVANCED_FACE ( 'NONE', ( #159 ), #167, .T. ) ;
#24 = DIRECTION ( 'NONE',  ( -1.000000000000000000, 0.0000000000000000000, 0.0000000000000000000 ) ) ;
#25 = DIRECTION ( 'NONE',  ( -1.000000000000000000, 1.927470528863118600E-017, 0.0000000000000000000 ) ) ;
#26 = SURFACE_SIDE_STYLE ('',( #122 ) ) ;
#27 = FILL_AREA_STYLE ('',( #30 ) ) ;
#28 =( NAMED_UNIT ( * ) SI_UNIT ( $, .STERADIAN. ) SOLID_ANGLE_UNIT ( ) );
#29 = PLANE ( 'NONE',  #230 ) ;
#30 = FILL_AREA_STYLE_COLOUR ( '', #62 ) ;
#31 = DIRECTION ( 'NONE',  ( 1.927470528863118900E-017, 1.000000000000000000, -0.0000000000000000000 ) ) ;
#32 = CARTESIAN_POINT ( 'NONE',  ( 1.309587780471647100E-033, 6.794333614242506400E-017, 0.0000000000000000000 ) ) ;
#33 = DIRECTION ( 'NONE',  ( 1.927470528863118900E-017, 1.000000000000000000, -0.0000000000000000000 ) ) ;
#34 = CARTESIAN_POINT ( 'NONE',  ( 1.301042606982605300E-015, 67.50000000000000000, 0.0000000000000000000 ) ) ;
#35 = SURFACE_STYLE_USAGE ( .BOTH. , #26 ) ;
#36 = DIRECTION ( 'NONE',  ( 1.927470528863118900E-017, 1.000000000000000000, -0.0000000000000000000 ) ) ;
#37 = DIRECTION ( 'NONE',  ( -1.000000000000000000, 1.927470528863118900E-017, 0.0000000000000000000 ) ) ;
#38 = CARTESIAN_POINT ( 'NONE',  ( 1.301042606982605300E-015, 67.50000000000000000, 0.0000000000000000000 ) ) ;
#39 = CARTESIAN_POINT ( 'NONE',  ( 1.084202172485504400E-015, 59.50000000000000700, 0.0000000000000000000 ) ) ;
#40 = DIRECTION ( 'NONE',  ( 1.927470528863118900E-017, 1.000000000000000000, -0.0000000000000000000 ) ) ;
#41 = DIRECTION ( 'NONE',  ( 1.927470528863118900E-017, 1.000000000000000000, -0.0000000000000000000 ) ) ;
#42 = DIRECTION ( 'NONE',  ( -1.000000000000000000, 1.927470528863118900E-017, 0.0000000000000000000 ) ) ;
#43 = DIRECTION ( 'NONE',  ( -1.000000000000000000, 0.0000000000000000000, 0.0000000000000000000 ) ) ;
#44 = CARTESIAN_POINT ( 'NONE',  ( 2.216591108192584800E-016, 11.49999999999999600, 0.0000000000000000000 ) ) ;
#45 = DIRECTION ( 'NONE',  ( -1.000000000000000000, 0.0000000000000000000, 0.0000000000000000000 ) ) ;
#46 = DIRECTION ( 'NONE',  ( -1.000000000000000000, 0.0000000000000000000, 0.0000000000000000000 ) ) ;
#47 = CARTESIAN_POINT ( 'NONE',  ( 1.084202172485504400E-015, 59.50000000000000700, 0.0000000000000000000 ) ) ;
#48 = DIRECTION ( 'NONE',  ( 1.927470528863118900E-017, 1.000000000000000000, -0.0000000000000000000 ) ) ;
#49 = DIRECTION ( 'NONE',  ( 1.927470528863118900E-017, 1.000000000000000000, -0.0000000000000000000 ) ) ;
#50 = DIRECTION ( 'NONE',  ( 1.927470528863118900E-017, 1.000000000000000000, -0.0000000000000000000 ) ) ;
#51 = DIRECTION ( 'NONE',  ( 1.927470528863118900E-017, 1.000000000000000000, -0.0000000000000000000 ) ) ;
#52 = PLANE ( 'NONE',  #233 ) ;
#53 =( NAMED_UNIT ( * ) PLANE_ANGLE_UNIT ( ) SI_UNIT ( $, .RADIAN. ) );
#54 = CARTESIAN_POINT ( 'NONE',  ( 8.250000000000008900, 11.50000000000000000, 0.0000000000000000000 ) ) ;
#55 = CARTESIAN_POINT ( 'NONE',  ( 2.216591108192584800E-016, 11.49999999999999600, 0.0000000000000000000 ) ) ;
#56 = DIRECTION ( 'NONE',  ( -1.000000000000000000, 1.927470528863118900E-017, 0.0000000000000000000 ) ) ;
#57 =( LENGTH_UNIT ( ) NAMED_UNIT ( * ) SI_UNIT ( .MILLI., .METRE. ) );
#58 = CARTESIAN_POINT ( 'NONE',  ( 0.0000000000000000000, 0.0000000000000000000, 0.0000000000000000000 ) ) ;
#59 = DIRECTION ( 'NONE',  ( -1.000000000000000000, 1.927470528863118900E-017, 0.0000000000000000000 ) ) ;
#60 = ORIENTED_EDGE ( 'NONE', *, *, #221, .F. ) ;
#61 = EDGE_LOOP ( 'NONE', ( #78, #83 ) ) ;
#62 = COLOUR_RGB ( '',0.3960784313725490000, 0.4784313725490195700, 0.8039215686274510100 ) ;
#63 = ORIENTED_EDGE ( 'NONE', *, *, #216, .F. ) ;
#64 = ORIENTED_EDGE ( 'NONE', *, *, #208, .T. ) ;
#65 = ORIENTED_EDGE ( 'NONE', *, *, #211, .F. ) ;
#66 = VERTEX_POINT ( 'NONE', #280 ) ;
#67 = PRESENTATION_STYLE_ASSIGNMENT (( #35 ) ) ;
#68 = ORIENTED_EDGE ( 'NONE', *, *, #199, .T. ) ;
#69 = ORIENTED_EDGE ( 'NONE', *, *, #201, .T. ) ;
#70 = VERTEX_POINT ( 'NONE', #333 ) ;
#71 = EDGE_LOOP ( 'NONE', ( #64, #108, #134, #133 ) ) ;
#72 = VERTEX_POINT ( 'NONE', #351 ) ;
#73 = EDGE_LOOP ( 'NONE', ( #98, #125, #106, #88 ) ) ;
#74 = EDGE_LOOP ( 'NONE', ( #105, #94, #107, #87 ) ) ;
#75 = EDGE_LOOP ( 'NONE', ( #127, #118 ) ) ;
#76 = ORIENTED_EDGE ( 'NONE', *, *, #217, .T. ) ;
#77 = ORIENTED_EDGE ( 'NONE', *, *, #199, .F. ) ;
#78 = ORIENTED_EDGE ( 'NONE', *, *, #210, .T. ) ;
#79 = ORIENTED_EDGE ( 'NONE', *, *, #220, .F. ) ;
#80 = VERTEX_POINT ( 'NONE', #358 ) ;
#81 = CLOSED_SHELL ( 'NONE', ( #19, #20, #11, #12, #21, #14, #15, #17, #18, #13, #23, #16, #22 ) ) ;
#82 = ORIENTED_EDGE ( 'NONE', *, *, #216, .T. ) ;
#83 = ORIENTED_EDGE ( 'NONE', *, *, #206, .T. ) ;
#84 = ORIENTED_EDGE ( 'NONE', *, *, #220, .T. ) ;
#85 = ORIENTED_EDGE ( 'NONE', *, *, #218, .T. ) ;
#86 = VERTEX_POINT ( 'NONE', #313 ) ;
#87 = ORIENTED_EDGE ( 'NONE', *, *, #219, .F. ) ;
#88 = ORIENTED_EDGE ( 'NONE', *, *, #204, .F. ) ;
#89 = VERTEX_POINT ( 'NONE', #265 ) ;
#90 = ORIENTED_EDGE ( 'NONE', *, *, #207, .T. ) ;
#91 = VERTEX_POINT ( 'NONE', #277 ) ;
#92 = VERTEX_POINT ( 'NONE', #336 ) ;
#93 = ORIENTED_EDGE ( 'NONE', *, *, #211, .T. ) ;
#94 = ORIENTED_EDGE ( 'NONE', *, *, #203, .T. ) ;
#95 = ORIENTED_EDGE ( 'NONE', *, *, #214, .F. ) ;
#96 = ORIENTED_EDGE ( 'NONE', *, *, #204, .T. ) ;
#97 = EDGE_LOOP ( 'NONE', ( #69, #112, #124, #110 ) ) ;
#98 = ORIENTED_EDGE ( 'NONE', *, *, #213, .F. ) ;
#99 = EDGE_LOOP ( 'NONE', ( #123, #96 ) ) ;
#100 = ORIENTED_EDGE ( 'NONE', *, *, #202, .F. ) ;
#101 = VERTEX_POINT ( 'NONE', #300 ) ;
#102 = ORIENTED_EDGE ( 'NONE', *, *, #217, .F. ) ;
#103 = VERTEX_POINT ( 'NONE', #362 ) ;
#104 = EDGE_LOOP ( 'NONE', ( #117, #82, #77, #113 ) ) ;
#105 = ORIENTED_EDGE ( 'NONE', *, *, #200, .F. ) ;
#106 = ORIENTED_EDGE ( 'NONE', *, *, #198, .T. ) ;
#107 = ORIENTED_EDGE ( 'NONE', *, *, #222, .T. ) ;
#108 = ORIENTED_EDGE ( 'NONE', *, *, #213, .T. ) ;
#109 = ORIENTED_EDGE ( 'NONE', *, *, #205, .F. ) ;
#110 = ORIENTED_EDGE ( 'NONE', *, *, #222, .F. ) ;
#111 = ORIENTED_EDGE ( 'NONE', *, *, #210, .F. ) ;
#112 = ORIENTED_EDGE ( 'NONE', *, *, #200, .T. ) ;
#113 = ORIENTED_EDGE ( 'NONE', *, *, #215, .F. ) ;
#114 = ORIENTED_EDGE ( 'NONE', *, *, #207, .F. ) ;
#115 = ORIENTED_EDGE ( 'NONE', *, *, #206, .F. ) ;
#116 = ORIENTED_EDGE ( 'NONE', *, *, #202, .T. ) ;
#117 = ORIENTED_EDGE ( 'NONE', *, *, #214, .T. ) ;
#118 = ORIENTED_EDGE ( 'NONE', *, *, #203, .F. ) ;
#119 = VERTEX_POINT ( 'NONE', #271 ) ;
#120 = EDGE_LOOP ( 'NONE', ( #95, #114 ) ) ;
#121 = EDGE_LOOP ( 'NONE', ( #116, #126, #111, #60 ) ) ;
#122 = SURFACE_STYLE_FILL_AREA ( #27 ) ;
#123 = ORIENTED_EDGE ( 'NONE', *, *, #212, .T. ) ;
#124 = ORIENTED_EDGE ( 'NONE', *, *, #208, .F. ) ;
#125 = ORIENTED_EDGE ( 'NONE', *, *, #219, .T. ) ;
#126 = ORIENTED_EDGE ( 'NONE', *, *, #205, .T. ) ;
#127 = ORIENTED_EDGE ( 'NONE', *, *, #201, .F. ) ;
#128 = VERTEX_POINT ( 'NONE', #309 ) ;
#129 = EDGE_LOOP ( 'NONE', ( #63, #90, #132, #79 ) ) ;
#130 = EDGE_LOOP ( 'NONE', ( #109, #76, #131, #115 ) ) ;
#131 = ORIENTED_EDGE ( 'NONE', *, *, #221, .T. ) ;
#132 = ORIENTED_EDGE ( 'NONE', *, *, #215, .T. ) ;
#133 = ORIENTED_EDGE ( 'NONE', *, *, #198, .F. ) ;
#134 = ORIENTED_EDGE ( 'NONE', *, *, #212, .F. ) ;
#135 = ORIENTED_EDGE ( 'NONE', *, *, #218, .F. ) ;
#136 = VERTEX_POINT ( 'NONE', #369 ) ;
#137 = VERTEX_POINT ( 'NONE', #335 ) ;
#138 = EDGE_LOOP ( 'NONE', ( #68, #93, #100, #135 ) ) ;
#139 = EDGE_LOOP ( 'NONE', ( #65, #84, #85, #102 ) ) ;
#140 = FACE_OUTER_BOUND ( 'NONE', #104, .T. ) ;
#141 = FACE_OUTER_BOUND ( 'NONE', #74, .T. ) ;
#142 = FACE_OUTER_BOUND ( 'NONE', #71, .T. ) ;
#143 = CYLINDRICAL_SURFACE ( 'NONE', #228, 8.250000000000008900 ) ;
#144 = FACE_OUTER_BOUND ( 'NONE', #75, .T. ) ;
#145 = FACE_OUTER_BOUND ( 'NONE', #121, .T. ) ;
#146 = FACE_OUTER_BOUND ( 'NONE', #129, .T. ) ;
#147 = CONICAL_SURFACE ( 'NONE', #227, 8.550000000000011400, 0.7853981633974408400 ) ;
#148 = TOROIDAL_SURFACE ( 'NONE', #231, 1.250000000000006900, 8.000000000000000000 ) ;
#149 = FACE_OUTER_BOUND ( 'NONE', #130, .T. ) ;
#150 = FACE_OUTER_BOUND ( 'NONE', #73, .T. ) ;
#151 = CONICAL_SURFACE ( 'NONE', #209, 8.550000000000011400, 0.7853981633974408400 ) ;
#152 = FACE_OUTER_BOUND ( 'NONE', #120, .T. ) ;
#153 = CIRCLE ( 'NONE', #239, 9.250000000000007100 ) ;
#154 = CONICAL_SURFACE ( 'NONE', #229, 7.050000000000014000, 0.7853981633974437300 ) ;
#155 = FACE_OUTER_BOUND ( 'NONE', #97, .T. ) ;
#156 = CYLINDRICAL_SURFACE ( 'NONE', #232, 8.250000000000008900 ) ;
#157 = FACE_BOUND ( 'NONE', #99, .T. ) ;
#158 = TOROIDAL_SURFACE ( 'NONE', #234, 1.250000000000006900, 8.000000000000000000 ) ;
#159 = FACE_OUTER_BOUND ( 'NONE', #139, .T. ) ;
#160 = FACE_OUTER_BOUND ( 'NONE', #138, .T. ) ;
#161 = FACE_OUTER_BOUND ( 'NONE', #61, .T. ) ;
#162 = CYLINDRICAL_SURFACE ( 'NONE', #236, 9.250000000000007100 ) ;
#163 = VECTOR ( 'NONE', #345, 1000.000000000000100 ) ;
#164 = CIRCLE ( 'NONE', #242, 7.050000000000014900 ) ;
#165 = LINE ( 'NONE', #349, #163 ) ;
#166 = CONICAL_SURFACE ( 'NONE', #235, 7.050000000000014000, 0.7853981633974437300 ) ;
#167 = CYLINDRICAL_SURFACE ( 'NONE', #240, 9.250000000000007100 ) ;
#168 = LINE ( 'NONE', #283, #169 ) ;
#169 = VECTOR ( 'NONE', #331, 1000.000000000000000 ) ;
#170 = CIRCLE ( 'NONE', #237, 7.050000000000014900 ) ;
#171 = CIRCLE ( 'NONE', #241, 9.250000000000007100 ) ;
#172 = CIRCLE ( 'NONE', #243, 8.250000000000008900 ) ;
#173 = CIRCLE ( 'NONE', #244, 8.000000000000000000 ) ;
#174 = CIRCLE ( 'NONE', #246, 8.550000000000011400 ) ;
#175 = CIRCLE ( 'NONE', #245, 1.250000000000005600 ) ;
#176 = CIRCLE ( 'NONE', #247, 8.250000000000008900 ) ;
#177 = CIRCLE ( 'NONE', #248, 1.250000000000005600 ) ;
#178 = LINE ( 'NONE', #338, #187 ) ;
#179 = LINE ( 'NONE', #317, #181 ) ;
#180 = CIRCLE ( 'NONE', #249, 8.250000000000008900 ) ;
#181 = VECTOR ( 'NONE', #332, 1000.000000000000000 ) ;
#182 = LINE ( 'NONE', #288, #184 ) ;
#183 = CIRCLE ( 'NONE', #250, 8.550000000000011400 ) ;
#184 = VECTOR ( 'NONE', #311, 1000.000000000000000 ) ;
#185 = LINE ( 'NONE', #367, #191 ) ;
#186 = LINE ( 'NONE', #289, #189 ) ;
#187 = VECTOR ( 'NONE', #320, 1000.000000000000000 ) ;
#188 = CIRCLE ( 'NONE', #251, 9.250000000000007100 ) ;
#189 = VECTOR ( 'NONE', #274, 1000.000000000000000 ) ;
#190 = CIRCLE ( 'NONE', #252, 8.250000000000008900 ) ;
#191 = VECTOR ( 'NONE', #339, 1000.000000000000000 ) ;
#192 = CIRCLE ( 'NONE', #253, 9.250000000000007100 ) ;
#193 = CIRCLE ( 'NONE', #254, 8.000000000000000000 ) ;
#194 = LINE ( 'NONE', #357, #196 ) ;
#195 = COLOUR_RGB ( '',0.3960784313725490000, 0.4784313725490195700, 0.8039215686274510100 ) ;
#196 = VECTOR ( 'NONE', #364, 1000.000000000000100 ) ;
#197 = SURFACE_STYLE_FILL_AREA ( #287 ) ;
#198 = EDGE_CURVE ( 'NONE', #72, #136, #168, .T. ) ;
#199 = EDGE_CURVE ( 'NONE', #101, #119, #153, .T. ) ;
#200 = EDGE_CURVE ( 'NONE', #86, #128, #165, .T. ) ;
#201 = EDGE_CURVE ( 'NONE', #137, #86, #170, .T. ) ;
#202 = EDGE_CURVE ( 'NONE', #92, #80, #171, .T. ) ;
#203 = EDGE_CURVE ( 'NONE', #86, #137, #164, .T. ) ;
#204 = EDGE_CURVE ( 'NONE', #70, #136, #172, .T. ) ;
#205 = EDGE_CURVE ( 'NONE', #80, #91, #173, .T. ) ;
#206 = EDGE_CURVE ( 'NONE', #91, #89, #175, .T. ) ;
#207 = EDGE_CURVE ( 'NONE', #103, #66, #174, .T. ) ;
#208 = EDGE_CURVE ( 'NONE', #72, #128, #176, .T. ) ;
#209 = AXIS2_PLACEMENT_3D ( 'NONE', #44, #33, #45 ) ;
#210 = EDGE_CURVE ( 'NONE', #89, #91, #177, .T. ) ;
#211 = EDGE_CURVE ( 'NONE', #119, #80, #179, .T. ) ;
#212 = EDGE_CURVE ( 'NONE', #136, #70, #180, .T. ) ;
#213 = EDGE_CURVE ( 'NONE', #128, #70, #182, .T. ) ;
#214 = EDGE_CURVE ( 'NONE', #66, #103, #183, .T. ) ;
#215 = EDGE_CURVE ( 'NONE', #66, #101, #178, .T. ) ;
#216 = EDGE_CURVE ( 'NONE', #103, #119, #186, .T. ) ;
#217 = EDGE_CURVE ( 'NONE', #80, #92, #188, .T. ) ;
#218 = EDGE_CURVE ( 'NONE', #101, #92, #185, .T. ) ;
#219 = EDGE_CURVE ( 'NONE', #128, #72, #190, .T. ) ;
#220 = EDGE_CURVE ( 'NONE', #119, #101, #192, .T. ) ;
#221 = EDGE_CURVE ( 'NONE', #92, #89, #193, .T. ) ;
#222 = EDGE_CURVE ( 'NONE', #137, #72, #194, .T. ) ;
#223 = STYLED_ITEM ( 'NONE', ( #67 ), #6 ) ;
#224 = PRESENTATION_LAYER_ASSIGNMENT (  '', '', ( #223 ) ) ;
#225 =( GEOMETRIC_REPRESENTATION_CONTEXT ( 3 ) GLOBAL_UNCERTAINTY_ASSIGNED_CONTEXT ( ( #7 ) ) GLOBAL_UNIT_ASSIGNED_CONTEXT ( ( #57, #53, #28 ) ) REPRESENTATION_CONTEXT ( 'NONE', 'WORKASPACE' ) );
#226 = MECHANICAL_DESIGN_GEOMETRIC_PRESENTATION_REPRESENTATION (  '', ( #223 ), #225 ) ;
#227 = AXIS2_PLACEMENT_3D ( 'NONE', #55, #36, #24 ) ;
#228 = AXIS2_PLACEMENT_3D ( 'NONE', #34, #49, #43 ) ;
#229 = AXIS2_PLACEMENT_3D ( 'NONE', #58, #31, #25 ) ;
#230 = AXIS2_PLACEMENT_3D ( 'NONE', #32, #41, #59 ) ;
#231 = AXIS2_PLACEMENT_3D ( 'NONE', #47, #48, #37 ) ;
#232 = AXIS2_PLACEMENT_3D ( 'NONE', #38, #50, #46 ) ;
#233 = AXIS2_PLACEMENT_3D ( 'NONE', #54, #51, #42 ) ;
#234 = AXIS2_PLACEMENT_3D ( 'NONE', #39, #40, #56 ) ;
#235 = AXIS2_PLACEMENT_3D ( 'NONE', #316, #272, #286 ) ;
#236 = AXIS2_PLACEMENT_3D ( 'NONE', #267, #327, #264 ) ;
#237 = AXIS2_PLACEMENT_3D ( 'NONE', #279, #290, #326 ) ;
#238 = AXIS2_PLACEMENT_3D ( 'NONE', #285, #294, #348 ) ;
#239 = AXIS2_PLACEMENT_3D ( 'NONE', #350, #354, #330 ) ;
#240 = AXIS2_PLACEMENT_3D ( 'NONE', #282, #296, #328 ) ;
#241 = AXIS2_PLACEMENT_3D ( 'NONE', #347, #308, #307 ) ;
#242 = AXIS2_PLACEMENT_3D ( 'NONE', #275, #323, #312 ) ;
#243 = AXIS2_PLACEMENT_3D ( 'NONE', #293, #281, #303 ) ;
#244 = AXIS2_PLACEMENT_3D ( 'NONE', #299, #305, #370 ) ;
#245 = AXIS2_PLACEMENT_3D ( 'NONE', #315, #314, #268 ) ;
#246 = AXIS2_PLACEMENT_3D ( 'NONE', #337, #334, #318 ) ;
#247 = AXIS2_PLACEMENT_3D ( 'NONE', #319, #324, #292 ) ;
#248 = AXIS2_PLACEMENT_3D ( 'NONE', #306, #266, #325 ) ;
#249 = AXIS2_PLACEMENT_3D ( 'NONE', #329, #346, #269 ) ;
#250 = AXIS2_PLACEMENT_3D ( 'NONE', #284, #344, #343 ) ;
#251 = AXIS2_PLACEMENT_3D ( 'NONE', #360, #355, #371 ) ;
#252 = AXIS2_PLACEMENT_3D ( 'NONE', #342, #341, #340 ) ;
#253 = AXIS2_PLACEMENT_3D ( 'NONE', #366, #295, #301 ) ;
#254 = AXIS2_PLACEMENT_3D ( 'NONE', #361, #365, #368 ) ;
#255 =( GEOMETRIC_REPRESENTATION_CONTEXT ( 3 ) GLOBAL_UNCERTAINTY_ASSIGNED_CONTEXT ( ( #4 ) ) GLOBAL_UNIT_ASSIGNED_CONTEXT ( ( #372, #356, #359 ) ) REPRESENTATION_CONTEXT ( 'NONE', 'WORKASPACE' ) );
#256 = STYLED_ITEM ( 'NONE', ( #9 ), #5 ) ;
#257 = PRESENTATION_LAYER_ASSIGNMENT (  '', '', ( #256 ) ) ;
#258 = MECHANICAL_DESIGN_GEOMETRIC_PRESENTATION_REPRESENTATION (  '', ( #256 ), #259 ) ;
#259 =( GEOMETRIC_REPRESENTATION_CONTEXT ( 3 ) GLOBAL_UNCERTAINTY_ASSIGNED_CONTEXT ( ( #8 ) ) GLOBAL_UNIT_ASSIGNED_CONTEXT ( ( #302, #278, #321 ) ) REPRESENTATION_CONTEXT ( 'NONE', 'WORKASPACE' ) );
#260 = AXIS2_PLACEMENT_3D ( 'NONE', #363, #291, #276 ) ;
#261 = PRODUCT_DEFINITION ( 'NON CONOSCIUTO', '', #262, #1 ) ;
#262 = PRODUCT_DEFINITION_FORMATION_WITH_SPECIFIED_SOURCE ( 'TUTTO', '', #3, .NOT_KNOWN. ) ;
#263 = PRODUCT_RELATED_PRODUCT_CATEGORY ( 'part', '', ( #3 ) ) ;
#264 = DIRECTION ( 'NONE',  ( -1.000000000000000000, 0.0000000000000000000, 0.0000000000000000000 ) ) ;
#265 = CARTESIAN_POINT ( 'NONE',  ( -1.250000000000004200, 67.50000000000000000, 0.0000000000000000000 ) ) ;
#266 = DIRECTION ( 'NONE',  ( 1.927470528863118900E-017, 1.000000000000000000, -0.0000000000000000000 ) ) ;
#267 = CARTESIAN_POINT ( 'NONE',  ( 1.301042606982605300E-015, 67.50000000000000000, 0.0000000000000000000 ) ) ;
#268 = DIRECTION ( 'NONE',  ( -1.000000000000000000, 0.0000000000000000000, 0.0000000000000000000 ) ) ;
#269 = DIRECTION ( 'NONE',  ( -1.000000000000000000, 0.0000000000000000000, 0.0000000000000000000 ) ) ;
#270 = SURFACE_SIDE_STYLE ('',( #197 ) ) ;
#271 = CARTESIAN_POINT ( 'NONE',  ( 9.250000000000007100, 12.20000000000000300, 1.132798289211302500E-015 ) ) ;
#272 = DIRECTION ( 'NONE',  ( 1.927470528863118900E-017, 1.000000000000000000, -0.0000000000000000000 ) ) ;
#273 = FILL_AREA_STYLE_COLOUR ( '', #195 ) ;
#274 = DIRECTION ( 'NONE',  ( 0.7071067811865422400, 0.7071067811865527900, 8.659560562354868800E-017 ) ) ;
#275 = CARTESIAN_POINT ( 'NONE',  ( 0.0000000000000000000, 0.0000000000000000000, 0.0000000000000000000 ) ) ;
#276 = DIRECTION ( 'NONE',  ( 1.000000000000000000, 0.0000000000000000000, 0.0000000000000000000 ) ) ;
#277 = CARTESIAN_POINT ( 'NONE',  ( 1.250000000000006700, 67.50000000000000000, 6.429395695523611100E-016 ) ) ;
#278 =( NAMED_UNIT ( * ) PLANE_ANGLE_UNIT ( ) SI_UNIT ( $, .RADIAN. ) );
#279 = CARTESIAN_POINT ( 'NONE',  ( 0.0000000000000000000, 0.0000000000000000000, 0.0000000000000000000 ) ) ;
#280 = CARTESIAN_POINT ( 'NONE',  ( -8.550000000000011400, 11.49999999999999600, 0.0000000000000000000 ) ) ;
#281 = DIRECTION ( 'NONE',  ( 1.927470528863118900E-017, 1.000000000000000000, -0.0000000000000000000 ) ) ;
#282 = CARTESIAN_POINT ( 'NONE',  ( 1.301042606982605300E-015, 67.50000000000000000, 0.0000000000000000000 ) ) ;
#283 = CARTESIAN_POINT ( 'NONE',  ( -8.250000000000007100, 67.50000000000000000, 0.0000000000000000000 ) ) ;
#284 = CARTESIAN_POINT ( 'NONE',  ( 2.216591108192584800E-016, 11.49999999999999600, 0.0000000000000000000 ) ) ;
#285 = CARTESIAN_POINT ( 'NONE',  ( 1.250000000000006900, 67.50000000000000000, 0.0000000000000000000 ) ) ;
#286 = DIRECTION ( 'NONE',  ( -1.000000000000000000, 1.927470528863118600E-017, 0.0000000000000000000 ) ) ;
#287 = FILL_AREA_STYLE ('',( #273 ) ) ;
#288 = CARTESIAN_POINT ( 'NONE',  ( 8.250000000000010700, 67.50000000000000000, 1.010333609296567300E-015 ) ) ;
#289 = CARTESIAN_POINT ( 'NONE',  ( 8.550000000000011400, 11.49999999999999600, 1.047073013270988200E-015 ) ) ;
#290 = DIRECTION ( 'NONE',  ( 1.927470528863118900E-017, 1.000000000000000000, -0.0000000000000000000 ) ) ;
#291 = DIRECTION ( 'NONE',  ( 0.0000000000000000000, 0.0000000000000000000, 1.000000000000000000 ) ) ;
#292 = DIRECTION ( 'NONE',  ( -1.000000000000000000, 2.628368902995159300E-017, 0.0000000000000000000 ) ) ;
#293 = CARTESIAN_POINT ( 'NONE',  ( 2.216591108192584800E-016, 11.49999999999999600, 0.0000000000000000000 ) ) ;
#294 = DIRECTION ( 'NONE',  ( -1.927470528863118900E-017, -1.000000000000000000, 0.0000000000000000000 ) ) ;
#295 = DIRECTION ( 'NONE',  ( 1.927470528863118900E-017, 1.000000000000000000, -0.0000000000000000000 ) ) ;
#296 = DIRECTION ( 'NONE',  ( 1.927470528863118900E-017, 1.000000000000000000, -0.0000000000000000000 ) ) ;
#297 = APPLICATION_CONTEXT ( 'automotive_design' ) ;
#298 = APPLICATION_PROTOCOL_DEFINITION ( 'draft international standard', 'automotive_design', 1998, #297 ) ;
#299 = CARTESIAN_POINT ( 'NONE',  ( 1.250000000000008000, 59.50000000000000700, 1.530808498934200200E-016 ) ) ;
#300 = CARTESIAN_POINT ( 'NONE',  ( -9.250000000000007100, 12.20000000000000300, 0.0000000000000000000 ) ) ;
#301 = DIRECTION ( 'NONE',  ( -1.000000000000000000, 0.0000000000000000000, 0.0000000000000000000 ) ) ;
#302 =( LENGTH_UNIT ( ) NAMED_UNIT ( * ) SI_UNIT ( .MILLI., .METRE. ) );
#303 = DIRECTION ( 'NONE',  ( -1.000000000000000000, 0.0000000000000000000, 0.0000000000000000000 ) ) ;
#304 = PLANE ( 'NONE',  #238 ) ;
#305 = DIRECTION ( 'NONE',  ( -1.224646799147353200E-016, 2.360470613623074500E-033, 1.000000000000000000 ) ) ;
#306 = CARTESIAN_POINT ( 'NONE',  ( 1.301042606982605300E-015, 67.50000000000000000, 0.0000000000000000000 ) ) ;
#307 = DIRECTION ( 'NONE',  ( -1.000000000000000000, 0.0000000000000000000, 0.0000000000000000000 ) ) ;
#308 = DIRECTION ( 'NONE',  ( 1.927470528863118900E-017, 1.000000000000000000, -0.0000000000000000000 ) ) ;
#309 = CARTESIAN_POINT ( 'NONE',  ( 8.250000000000008900, 1.200000000000006400, 1.010333609296567500E-015 ) ) ;
#310 = PRODUCT_CONTEXT ( 'NONE', #353, 'mechanical' ) ;
#311 = DIRECTION ( 'NONE',  ( 1.927470528863118900E-017, 1.000000000000000000, -0.0000000000000000000 ) ) ;
#312 = DIRECTION ( 'NONE',  ( -1.000000000000000000, 1.927470528863118600E-017, 0.0000000000000000000 ) ) ;
#313 = CARTESIAN_POINT ( 'NONE',  ( 7.050000000000014900, -1.358866722848501500E-016, 9.368548013477266000E-016 ) ) ;
#314 = DIRECTION ( 'NONE',  ( 1.927470528863118900E-017, 1.000000000000000000, -0.0000000000000000000 ) ) ;
#315 = CARTESIAN_POINT ( 'NONE',  ( 1.301042606982605300E-015, 67.50000000000000000, 0.0000000000000000000 ) ) ;
#316 = CARTESIAN_POINT ( 'NONE',  ( 0.0000000000000000000, 0.0000000000000000000, 0.0000000000000000000 ) ) ;
#317 = CARTESIAN_POINT ( 'NONE',  ( 9.250000000000008900, 67.50000000000000000, 1.132798289211302500E-015 ) ) ;
#318 = DIRECTION ( 'NONE',  ( -1.000000000000000000, 0.0000000000000000000, 0.0000000000000000000 ) ) ;
#319 = CARTESIAN_POINT ( 'NONE',  ( 2.312964634635757700E-017, 1.200000000000006600, 0.0000000000000000000 ) ) ;
#320 = DIRECTION ( 'NONE',  ( -0.7071067811865422400, 0.7071067811865527900, 0.0000000000000000000 ) ) ;
#321 =( NAMED_UNIT ( * ) SI_UNIT ( $, .STERADIAN. ) SOLID_ANGLE_UNIT ( ) );
#322 = SURFACE_STYLE_USAGE ( .BOTH. , #270 ) ;
#323 = DIRECTION ( 'NONE',  ( 1.927470528863118900E-017, 1.000000000000000000, -0.0000000000000000000 ) ) ;
#324 = DIRECTION ( 'NONE',  ( 1.927470528863118900E-017, 1.000000000000000000, -0.0000000000000000000 ) ) ;
#325 = DIRECTION ( 'NONE',  ( -1.000000000000000000, 0.0000000000000000000, 0.0000000000000000000 ) ) ;
#326 = DIRECTION ( 'NONE',  ( -1.000000000000000000, 1.927470528863118600E-017, 0.0000000000000000000 ) ) ;
#327 = DIRECTION ( 'NONE',  ( 1.927470528863118900E-017, 1.000000000000000000, -0.0000000000000000000 ) ) ;
#328 = DIRECTION ( 'NONE',  ( -1.000000000000000000, 0.0000000000000000000, 0.0000000000000000000 ) ) ;
#329 = CARTESIAN_POINT ( 'NONE',  ( 2.216591108192584800E-016, 11.49999999999999600, 0.0000000000000000000 ) ) ;
#330 = DIRECTION ( 'NONE',  ( -1.000000000000000000, 0.0000000000000000000, 0.0000000000000000000 ) ) ;
#331 = DIRECTION ( 'NONE',  ( 1.927470528863118900E-017, 1.000000000000000000, -0.0000000000000000000 ) ) ;
#332 = DIRECTION ( 'NONE',  ( 1.927470528863118900E-017, 1.000000000000000000, -0.0000000000000000000 ) ) ;
#333 = CARTESIAN_POINT ( 'NONE',  ( 8.250000000000008900, 11.49999999999999600, 1.010333609296567300E-015 ) ) ;
#334 = DIRECTION ( 'NONE',  ( 1.927470528863118900E-017, 1.000000000000000000, -0.0000000000000000000 ) ) ;
#335 = CARTESIAN_POINT ( 'NONE',  ( -7.050000000000014900, 1.358866722848501500E-016, 0.0000000000000000000 ) ) ;
#336 = CARTESIAN_POINT ( 'NONE',  ( -9.250000000000005300, 59.50000000000000700, 0.0000000000000000000 ) ) ;
#337 = CARTESIAN_POINT ( 'NONE',  ( 2.216591108192584800E-016, 11.49999999999999600, 0.0000000000000000000 ) ) ;
#338 = CARTESIAN_POINT ( 'NONE',  ( -8.550000000000011400, 11.49999999999999600, 0.0000000000000000000 ) ) ;
#339 = DIRECTION ( 'NONE',  ( 1.927470528863118900E-017, 1.000000000000000000, -0.0000000000000000000 ) ) ;
#340 = DIRECTION ( 'NONE',  ( -1.000000000000000000, 2.628368902995159300E-017, 0.0000000000000000000 ) ) ;
#341 = DIRECTION ( 'NONE',  ( 1.927470528863118900E-017, 1.000000000000000000, -0.0000000000000000000 ) ) ;
#342 = CARTESIAN_POINT ( 'NONE',  ( 2.312964634635757700E-017, 1.200000000000006600, 0.0000000000000000000 ) ) ;
#343 = DIRECTION ( 'NONE',  ( -1.000000000000000000, 0.0000000000000000000, 0.0000000000000000000 ) ) ;
#344 = DIRECTION ( 'NONE',  ( 1.927470528863118900E-017, 1.000000000000000000, -0.0000000000000000000 ) ) ;
#345 = DIRECTION ( 'NONE',  ( 0.7071067811865441300, 0.7071067811865507900, 8.659560562354892200E-017 ) ) ;
#346 = DIRECTION ( 'NONE',  ( 1.927470528863118900E-017, 1.000000000000000000, -0.0000000000000000000 ) ) ;
#347 = CARTESIAN_POINT ( 'NONE',  ( 1.146844964673555800E-015, 59.50000000000000700, 0.0000000000000000000 ) ) ;
#348 = DIRECTION ( 'NONE',  ( 1.000000000000000000, -1.927470528863118900E-017, 0.0000000000000000000 ) ) ;
#349 = CARTESIAN_POINT ( 'NONE',  ( 7.050000000000014000, -1.358866722848501300E-016, 8.633759933988857700E-016 ) ) ;
#350 = CARTESIAN_POINT ( 'NONE',  ( 2.351514045213005000E-016, 12.20000000000000300, 0.0000000000000000000 ) ) ;
#351 = CARTESIAN_POINT ( 'NONE',  ( -8.250000000000008900, 1.200000000000006800, 0.0000000000000000000 ) ) ;
#352 = APPLICATION_PROTOCOL_DEFINITION ( 'draft international standard', 'automotive_design', 1998, #353 ) ;
#353 = APPLICATION_CONTEXT ( 'automotive_design' ) ;
#354 = DIRECTION ( 'NONE',  ( 1.927470528863118900E-017, 1.000000000000000000, -0.0000000000000000000 ) ) ;
#355 = DIRECTION ( 'NONE',  ( 1.927470528863118900E-017, 1.000000000000000000, -0.0000000000000000000 ) ) ;
#356 =( NAMED_UNIT ( * ) PLANE_ANGLE_UNIT ( ) SI_UNIT ( $, .RADIAN. ) );
#357 = CARTESIAN_POINT ( 'NONE',  ( -7.050000000000014000, 1.358866722848501300E-016, 0.0000000000000000000 ) ) ;
#358 = CARTESIAN_POINT ( 'NONE',  ( 9.250000000000008900, 59.50000000000000700, 1.132798289211302500E-015 ) ) ;
#359 =( NAMED_UNIT ( * ) SI_UNIT ( $, .STERADIAN. ) SOLID_ANGLE_UNIT ( ) );
#360 = CARTESIAN_POINT ( 'NONE',  ( 1.146844964673555800E-015, 59.50000000000000700, 0.0000000000000000000 ) ) ;
#361 = CARTESIAN_POINT ( 'NONE',  ( -1.250000000000005800, 59.50000000000000700, 0.0000000000000000000 ) ) ;
#362 = CARTESIAN_POINT ( 'NONE',  ( 8.550000000000011400, 11.49999999999999600, 1.089935651241145300E-015 ) ) ;
#363 = CARTESIAN_POINT ( 'NONE',  ( 0.0000000000000000000, 0.0000000000000000000, 0.0000000000000000000 ) ) ;
#364 = DIRECTION ( 'NONE',  ( -0.7071067811865441300, 0.7071067811865507900, 0.0000000000000000000 ) ) ;
#365 = DIRECTION ( 'NONE',  ( -0.0000000000000000000, 0.0000000000000000000, -1.000000000000000000 ) ) ;
#366 = CARTESIAN_POINT ( 'NONE',  ( 2.351514045213005000E-016, 12.20000000000000300, 0.0000000000000000000 ) ) ;
#367 = CARTESIAN_POINT ( 'NONE',  ( -9.250000000000005300, 67.50000000000000000, 0.0000000000000000000 ) ) ;
#368 = DIRECTION ( 'NONE',  ( -1.000000000000000000, 0.0000000000000000000, 0.0000000000000000000 ) ) ;
#369 = CARTESIAN_POINT ( 'NONE',  ( -8.250000000000008900, 11.49999999999999600, 0.0000000000000000000 ) ) ;
#370 = DIRECTION ( 'NONE',  ( 1.000000000000000000, 0.0000000000000000000, 1.224646799147353200E-016 ) ) ;
#371 = DIRECTION ( 'NONE',  ( -1.000000000000000000, 0.0000000000000000000, 0.0000000000000000000 ) ) ;
#372 =( LENGTH_UNIT ( ) NAMED_UNIT ( * ) SI_UNIT ( .MILLI., .METRE. ) );
ENDSEC;
END-ISO-10303-21;
