ISO-10303-21;
HEADER;
FILE_DESCRIPTION (( 'STEP AP214' ),
    '1' );
FILE_NAME ('AZ-067406.STEP',
    '2020-03-31T13:12:17',
    ( '' ),
    ( '' ),
    'SwSTEP 2.0',
    'SolidWorks 2020',
    '' );
FILE_SCHEMA (( 'AUTOMOTIVE_DESIGN' ));
ENDSEC;

DATA;
#1 = VERTEX_POINT ( 'NONE', #236 ) ;
#2 = CARTESIAN_POINT ( 'NONE',  ( 27.99999999999999645, 0.0000000000000000000, 0.0000000000000000000 ) ) ;
#3 = CARTESIAN_POINT ( 'NONE',  ( 27.99999999999999645, 0.0000000000000000000, 4.000000000000000000 ) ) ;
#4 = MECHANICAL_DESIGN_GEOMETRIC_PRESENTATION_REPRESENTATION (  '', ( #104 ), #323 ) ;
#5 = AXIS2_PLACEMENT_3D ( 'NONE', #25, #32, #371 ) ;
#6 = FACE_OUTER_BOUND ( 'NONE', #218, .T. ) ;
#7 = EDGE_CURVE ( 'NONE', #107, #159, #120, .T. ) ;
#8 = SPHERICAL_SURFACE ( 'NONE', #155, 6.499999999999999112 ) ;
#9 = DIRECTION ( 'NONE',  ( 0.0000000000000000000, 0.0000000000000000000, 1.000000000000000000 ) ) ;
#10 = AXIS2_PLACEMENT_3D ( 'NONE', #328, #392, #231 ) ;
#11 = EDGE_CURVE ( 'NONE', #1, #225, #187, .T. ) ;
#12 = FILL_AREA_STYLE_COLOUR ( '', #78 ) ;
#13 = COLOUR_RGB ( '',0.2509803921568627416, 0.2509803921568627416, 0.2509803921568627416 ) ;
#14 = DIRECTION ( 'NONE',  ( 0.0000000000000000000, 0.0000000000000000000, 1.000000000000000000 ) ) ;
#15 = VERTEX_POINT ( 'NONE', #146 ) ;
#16 = EDGE_CURVE ( 'NONE', #284, #360, #373, .T. ) ;
#17 = ADVANCED_FACE ( 'NONE', ( #178 ), #251, .T. ) ;
#18 = ORIENTED_EDGE ( 'NONE', *, *, #63, .T. ) ;
#19 = AXIS2_PLACEMENT_3D ( 'NONE', #294, #364, #228 ) ;
#20 = FILL_AREA_STYLE_COLOUR ( '', #275 ) ;
#21 = ORIENTED_EDGE ( 'NONE', *, *, #95, .T. ) ;
#22 = DIRECTION ( 'NONE',  ( -0.0000000000000000000, 0.0000000000000000000, -1.000000000000000000 ) ) ;
#23 =( NAMED_UNIT ( * ) PLANE_ANGLE_UNIT ( ) SI_UNIT ( $, .RADIAN. ) );
#24 = CARTESIAN_POINT ( 'NONE',  ( 27.99999999999999645, 4.898587196589412829E-16, -4.000000000000000000 ) ) ;
#25 = CARTESIAN_POINT ( 'NONE',  ( 0.0000000000000000000, 0.0000000000000000000, 0.0000000000000000000 ) ) ;
#26 = ADVANCED_FACE ( 'NONE', ( #267 ), #265, .T. ) ;
#27 = CARTESIAN_POINT ( 'NONE',  ( 27.99999999999999645, 0.0000000000000000000, 0.0000000000000000000 ) ) ;
#28 = PRESENTATION_LAYER_ASSIGNMENT (  '', '', ( #156 ) ) ;
#29 = VERTEX_POINT ( 'NONE', #50 ) ;
#30 = EDGE_CURVE ( 'NONE', #85, #356, #46, .T. ) ;
#31 = CARTESIAN_POINT ( 'NONE',  ( 26.00000000000000000, 0.0000000000000000000, 0.0000000000000000000 ) ) ;
#32 = DIRECTION ( 'NONE',  ( -1.000000000000000000, -0.0000000000000000000, -0.0000000000000000000 ) ) ;
#33 = PRESENTATION_STYLE_ASSIGNMENT (( #246 ) ) ;
#34 = ORIENTED_EDGE ( 'NONE', *, *, #30, .F. ) ;
#35 =( LENGTH_UNIT ( ) NAMED_UNIT ( * ) SI_UNIT ( .MILLI., .METRE. ) );
#36 = FACE_OUTER_BOUND ( 'NONE', #222, .T. ) ;
#37 = PRESENTATION_LAYER_ASSIGNMENT (  '', '', ( #254 ) ) ;
#38 = SURFACE_STYLE_FILL_AREA ( #309 ) ;
#39 =( LENGTH_UNIT ( ) NAMED_UNIT ( * ) SI_UNIT ( .MILLI., .METRE. ) );
#40 = ORIENTED_EDGE ( 'NONE', *, *, #11, .F. ) ;
#41 = ORIENTED_EDGE ( 'NONE', *, *, #108, .F. ) ;
#42 = ORIENTED_EDGE ( 'NONE', *, *, #142, .T. ) ;
#43 = ORIENTED_EDGE ( 'NONE', *, *, #95, .F. ) ;
#44 = CIRCLE ( 'NONE', #98, 3.000000000000000000 ) ;
#45 = ORIENTED_EDGE ( 'NONE', *, *, #305, .F. ) ;
#46 = CIRCLE ( 'NONE', #327, 1.000000000000001332 ) ;
#47 = DIRECTION ( 'NONE',  ( -1.000000000000000000, -0.0000000000000000000, -0.0000000000000000000 ) ) ;
#48 = CARTESIAN_POINT ( 'NONE',  ( 45.00000000000000000, 3.000000000000000000, 0.0000000000000000000 ) ) ;
#49 = EDGE_CURVE ( 'NONE', #107, #29, #256, .T. ) ;
#50 = CARTESIAN_POINT ( 'NONE',  ( 26.00000000000000000, 7.960204194457796463E-16, -6.500000000000000888 ) ) ;
#51 = AXIS2_PLACEMENT_3D ( 'NONE', #31, #143, #363 ) ;
#52 = CARTESIAN_POINT ( 'NONE',  ( 6.500000000000000000, 7.960204194457794491E-16, -6.499999999999999112 ) ) ;
#53 = EDGE_LOOP ( 'NONE', ( #353, #312, #257, #316 ) ) ;
#54 = SURFACE_STYLE_FILL_AREA ( #165 ) ;
#55 = CYLINDRICAL_SURFACE ( 'NONE', #237, 3.000000000000000000 ) ;
#56 = ADVANCED_FACE ( 'NONE', ( #374 ), #55, .T. ) ;
#57 = FILL_AREA_STYLE ('',( #12 ) ) ;
#58 = LINE ( 'NONE', #273, #66 ) ;
#59 =( NAMED_UNIT ( * ) SI_UNIT ( $, .STERADIAN. ) SOLID_ANGLE_UNIT ( ) );
#60 = DIRECTION ( 'NONE',  ( -0.3495378078339713701, 0.0000000000000000000, 0.9369222597924662388 ) ) ;
#61 =( GEOMETRIC_REPRESENTATION_CONTEXT ( 3 ) GLOBAL_UNCERTAINTY_ASSIGNED_CONTEXT ( ( #129 ) ) GLOBAL_UNIT_ASSIGNED_CONTEXT ( ( #116, #121, #233 ) ) REPRESENTATION_CONTEXT ( 'NONE', 'WORKASPACE' ) );
#62 = DIRECTION ( 'NONE',  ( -1.000000000000000000, -0.0000000000000000000, -0.0000000000000000000 ) ) ;
#63 = EDGE_CURVE ( 'NONE', #384, #15, #88, .T. ) ;
#64 = CARTESIAN_POINT ( 'NONE',  ( 8.673617379884035472E-16, 3.980102097228897245E-16, 0.0000000000000000000 ) ) ;
#65 = SURFACE_STYLE_USAGE ( .BOTH. , #377 ) ;
#66 = VECTOR ( 'NONE', #80, 1000.000000000000000 ) ;
#67 = SURFACE_STYLE_USAGE ( .BOTH. , #215 ) ;
#68 = EDGE_LOOP ( 'NONE', ( #43, #296, #130, #122, #105 ) ) ;
#69 = PRESENTATION_LAYER_ASSIGNMENT (  '', '', ( #91 ) ) ;
#70 = AXIS2_PLACEMENT_3D ( 'NONE', #48, #263, #82 ) ;
#71 = STYLED_ITEM ( 'NONE', ( #188 ), #321 ) ;
#72 = ORIENTED_EDGE ( 'NONE', *, *, #387, .T. ) ;
#73 = ORIENTED_EDGE ( 'NONE', *, *, #315, .F. ) ;
#74 = CARTESIAN_POINT ( 'NONE',  ( 27.99999999999999645, 0.0000000000000000000, 0.0000000000000000000 ) ) ;
#75 = FACE_OUTER_BOUND ( 'NONE', #115, .T. ) ;
#76 = ORIENTED_EDGE ( 'NONE', *, *, #249, .F. ) ;
#77 = CARTESIAN_POINT ( 'NONE',  ( 45.00000000000000000, 3.673940397442059868E-16, -3.000000000000000000 ) ) ;
#78 = COLOUR_RGB ( '',0.5019607843137254832, 0.5019607843137254832, 1.000000000000000000 ) ;
#79 = DIRECTION ( 'NONE',  ( 0.0000000000000000000, 0.0000000000000000000, 1.000000000000000000 ) ) ;
#80 = DIRECTION ( 'NONE',  ( -1.000000000000000000, -0.0000000000000000000, -0.0000000000000000000 ) ) ;
#81 = DIRECTION ( 'NONE',  ( 0.0000000000000000000, 0.0000000000000000000, 1.000000000000000000 ) ) ;
#82 = DIRECTION ( 'NONE',  ( -0.0000000000000000000, 0.0000000000000000000, 1.000000000000000000 ) ) ;
#83 = CARTESIAN_POINT ( 'NONE',  ( 27.06307774020752888, 0.0000000000000000000, 0.0000000000000000000 ) ) ;
#84 = FILL_AREA_STYLE_COLOUR ( '', #202 ) ;
#85 = VERTEX_POINT ( 'NONE', #207 ) ;
#86 = EDGE_CURVE ( 'NONE', #385, #356, #395, .T. ) ;
#87 = CARTESIAN_POINT ( 'NONE',  ( 0.0000000000000000000, 0.0000000000000000000, 0.0000000000000000000 ) ) ;
#88 = CIRCLE ( 'NONE', #123, 1.000000000000001332 ) ;
#89 = CARTESIAN_POINT ( 'NONE',  ( 6.500000000000000000, 0.0000000000000000000, 0.0000000000000000000 ) ) ;
#90 = DIRECTION ( 'NONE',  ( 0.0000000000000000000, -1.000000000000000000, 0.0000000000000000000 ) ) ;
#91 = STYLED_ITEM ( 'NONE', ( #266 ), #297 ) ;
#92 = LINE ( 'NONE', #209, #369 ) ;
#93 = AXIS2_PLACEMENT_3D ( 'NONE', #274, #62, #9 ) ;
#94 = DIRECTION ( 'NONE',  ( -0.3495378078339713701, 1.147398846504748754E-16, -0.9369222597924662388 ) ) ;
#95 = EDGE_CURVE ( 'NONE', #29, #225, #58, .T. ) ;
#96 = DIRECTION ( 'NONE',  ( -1.000000000000000000, -0.0000000000000000000, -0.0000000000000000000 ) ) ;
#97 =( NAMED_UNIT ( * ) SI_UNIT ( $, .STERADIAN. ) SOLID_ANGLE_UNIT ( ) );
#98 = AXIS2_PLACEMENT_3D ( 'NONE', #128, #194, #223 ) ;
#99 = SPHERICAL_SURFACE ( 'NONE', #181, 6.499999999999999112 ) ;
#100 = ORIENTED_EDGE ( 'NONE', *, *, #11, .T. ) ;
#101 = ADVANCED_FACE ( 'NONE', ( #6 ), #329, .F. ) ;
#102 = AXIS2_PLACEMENT_3D ( 'NONE', #2, #330, #81 ) ;
#103 = EDGE_LOOP ( 'NONE', ( #131, #21, #40, #398, #393 ) ) ;
#104 = STYLED_ITEM ( 'NONE', ( #33 ), #365 ) ;
#105 = ORIENTED_EDGE ( 'NONE', *, *, #142, .F. ) ;
#106 = SURFACE_SIDE_STYLE ('',( #250 ) ) ;
#107 = VERTEX_POINT ( 'NONE', #367 ) ;
#108 = EDGE_CURVE ( 'NONE', #85, #384, #285, .T. ) ;
#109 = CIRCLE ( 'NONE', #340, 3.000000000000000000 ) ;
#110 = SURFACE_SIDE_STYLE ('',( #54 ) ) ;
#111 = EDGE_LOOP ( 'NONE', ( #41, #357, #290, #388 ) ) ;
#112 = MECHANICAL_DESIGN_GEOMETRIC_PRESENTATION_REPRESENTATION (  '', ( #156 ), #248 ) ;
#113 = EDGE_CURVE ( 'NONE', #220, #15, #92, .T. ) ;
#114 = DIRECTION ( 'NONE',  ( -1.000000000000000000, -0.0000000000000000000, -0.0000000000000000000 ) ) ;
#115 = EDGE_LOOP ( 'NONE', ( #34, #45, #18, #287 ) ) ;
#116 =( LENGTH_UNIT ( ) NAMED_UNIT ( * ) SI_UNIT ( .MILLI., .METRE. ) );
#117 = DIRECTION ( 'NONE',  ( 0.0000000000000000000, 0.0000000000000000000, 1.000000000000000000 ) ) ;
#118 = DIRECTION ( 'NONE',  ( -1.000000000000000000, -0.0000000000000000000, -0.0000000000000000000 ) ) ;
#119 = CARTESIAN_POINT ( 'NONE',  ( 27.06307774020752888, 0.0000000000000000000, 0.0000000000000000000 ) ) ;
#120 = LINE ( 'NONE', #337, #350 ) ;
#121 =( NAMED_UNIT ( * ) PLANE_ANGLE_UNIT ( ) SI_UNIT ( $, .RADIAN. ) );
#122 = ORIENTED_EDGE ( 'NONE', *, *, #389, .F. ) ;
#123 = AXIS2_PLACEMENT_3D ( 'NONE', #3, #90, #141 ) ;
#124 = ORIENTED_EDGE ( 'NONE', *, *, #86, .T. ) ;
#125 = EDGE_CURVE ( 'NONE', #384, #107, #375, .T. ) ;
#126 = SURFACE_STYLE_FILL_AREA ( #302 ) ;
#127 = AXIS2_PLACEMENT_3D ( 'NONE', #83, #203, #333 ) ;
#128 = CARTESIAN_POINT ( 'NONE',  ( 45.00000000000000000, 0.0000000000000000000, 0.0000000000000000000 ) ) ;
#129 = UNCERTAINTY_MEASURE_WITH_UNIT (LENGTH_MEASURE( 1.000000000000000082E-05 ), #116, 'distance_accuracy_value', 'NONE');
#130 = ORIENTED_EDGE ( 'NONE', *, *, #7, .T. ) ;
#131 = ORIENTED_EDGE ( 'NONE', *, *, #49, .T. ) ;
#132 = EDGE_CURVE ( 'NONE', #29, #107, #169, .T. ) ;
#133 = CONICAL_SURFACE ( 'NONE', #386, 3.650462192166027631, 1.213718577553605904 ) ;
#134 = ORIENTED_EDGE ( 'NONE', *, *, #334, .F. ) ;
#135 = AXIS2_PLACEMENT_3D ( 'NONE', #200, #170, #140 ) ;
#136 = FILL_AREA_STYLE ('',( #20 ) ) ;
#137 = ORIENTED_EDGE ( 'NONE', *, *, #16, .T. ) ;
#138 = SURFACE_STYLE_USAGE ( .BOTH. , #106 ) ;
#139 = CIRCLE ( 'NONE', #241, 3.650462192166027631 ) ;
#140 = DIRECTION ( 'NONE',  ( 0.0000000000000000000, 0.0000000000000000000, 1.000000000000000000 ) ) ;
#141 = DIRECTION ( 'NONE',  ( 0.0000000000000000000, 0.0000000000000000000, -1.000000000000000000 ) ) ;
#142 = EDGE_CURVE ( 'NONE', #225, #284, #276, .T. ) ;
#143 = DIRECTION ( 'NONE',  ( -1.000000000000000000, -0.0000000000000000000, -0.0000000000000000000 ) ) ;
#144 = ORIENTED_EDGE ( 'NONE', *, *, #125, .T. ) ;
#145 = DIRECTION ( 'NONE',  ( 0.0000000000000000000, 0.0000000000000000000, 1.000000000000000000 ) ) ;
#146 = CARTESIAN_POINT ( 'NONE',  ( 27.99999999999999645, 0.0000000000000000000, 3.000000000000000000 ) ) ;
#147 = AXIS2_PLACEMENT_3D ( 'NONE', #198, #227, #382 ) ;
#148 = UNCERTAINTY_MEASURE_WITH_UNIT (LENGTH_MEASURE( 1.000000000000000082E-05 ), #167, 'distance_accuracy_value', 'NONE');
#149 = DIRECTION ( 'NONE',  ( 0.0000000000000000000, -1.224646799147353207E-16, 1.000000000000000000 ) ) ;
#150 = FILL_AREA_STYLE_COLOUR ( '', #313 ) ;
#151 = PRODUCT_RELATED_PRODUCT_CATEGORY ( 'part', '', ( #243 ) ) ;
#152 =( NAMED_UNIT ( * ) PLANE_ANGLE_UNIT ( ) SI_UNIT ( $, .RADIAN. ) );
#153 = EDGE_CURVE ( 'NONE', #356, #15, #332, .T. ) ;
#154 = AXIS2_PLACEMENT_3D ( 'NONE', #27, #47, #322 ) ;
#155 = AXIS2_PLACEMENT_3D ( 'NONE', #208, #372, #206 ) ;
#156 = STYLED_ITEM ( 'NONE', ( #338 ), #358 ) ;
#157 = CARTESIAN_POINT ( 'NONE',  ( 6.500000000000000000, 0.0000000000000000000, 0.0000000000000000000 ) ) ;
#158 = VECTOR ( 'NONE', #94, 1000.000000000000114 ) ;
#159 = VERTEX_POINT ( 'NONE', #370 ) ;
#160 = EDGE_LOOP ( 'NONE', ( #193, #162, #192, #255 ) ) ;
#161 = DIRECTION ( 'NONE',  ( -1.000000000000000000, -0.0000000000000000000, -0.0000000000000000000 ) ) ;
#162 = ORIENTED_EDGE ( 'NONE', *, *, #249, .T. ) ;
#163 = AXIS2_PLACEMENT_3D ( 'NONE', #362, #205, #292 ) ;
#164 = CARTESIAN_POINT ( 'NONE',  ( 27.06307774020752888, 0.0000000000000000000, 3.650462192166027631 ) ) ;
#165 = FILL_AREA_STYLE ('',( #84 ) ) ;
#166 = ORIENTED_EDGE ( 'NONE', *, *, #389, .T. ) ;
#167 =( LENGTH_UNIT ( ) NAMED_UNIT ( * ) SI_UNIT ( .MILLI., .METRE. ) );
#168 = CIRCLE ( 'NONE', #342, 3.000000000000000000 ) ;
#169 = CIRCLE ( 'NONE', #51, 6.500000000000000000 ) ;
#170 = DIRECTION ( 'NONE',  ( -1.000000000000000000, -0.0000000000000000000, -0.0000000000000000000 ) ) ;
#171 = DIRECTION ( 'NONE',  ( 0.0000000000000000000, 0.0000000000000000000, 1.000000000000000000 ) ) ;
#172 = SURFACE_STYLE_USAGE ( .BOTH. , #269 ) ;
#173 = ORIENTED_EDGE ( 'NONE', *, *, #108, .T. ) ;
#174 = APPLICATION_PROTOCOL_DEFINITION ( 'draft international standard', 'automotive_design', 1998, #396 ) ;
#175 =( NAMED_UNIT ( * ) SI_UNIT ( $, .STERADIAN. ) SOLID_ANGLE_UNIT ( ) );
#176 = DIRECTION ( 'NONE',  ( -1.000000000000000000, -0.0000000000000000000, -0.0000000000000000000 ) ) ;
#177 = SURFACE_STYLE_FILL_AREA ( #57 ) ;
#178 = FACE_OUTER_BOUND ( 'NONE', #252, .T. ) ;
#179 = ADVANCED_FACE ( 'NONE', ( #199 ), #133, .T. ) ;
#180 =( NAMED_UNIT ( * ) PLANE_ANGLE_UNIT ( ) SI_UNIT ( $, .RADIAN. ) );
#181 = AXIS2_PLACEMENT_3D ( 'NONE', #157, #22, #351 ) ;
#182 = DIRECTION ( 'NONE',  ( 0.0000000000000000000, 0.0000000000000000000, 1.000000000000000000 ) ) ;
#183 = ADVANCED_FACE ( 'NONE', ( #75 ), #185, .F. ) ;
#184 = CARTESIAN_POINT ( 'NONE',  ( 27.99999999999999645, 0.0000000000000000000, 0.0000000000000000000 ) ) ;
#185 = TOROIDAL_SURFACE ( 'NONE', #154, 4.000000000000000000, 1.000000000000001332 ) ;
#186 = PRESENTATION_LAYER_ASSIGNMENT (  '', '', ( #71 ) ) ;
#187 = CIRCLE ( 'NONE', #163, 6.499999999999999112 ) ;
#188 = PRESENTATION_STYLE_ASSIGNMENT (( #67 ) ) ;
#189 = UNCERTAINTY_MEASURE_WITH_UNIT (LENGTH_MEASURE( 1.000000000000000082E-05 ), #238, 'distance_accuracy_value', 'NONE');
#190 = PRODUCT_DEFINITION ( 'UNKNOWN', '', #335, #383 ) ;
#191 = ORIENTED_EDGE ( 'NONE', *, *, #387, .F. ) ;
#192 = ORIENTED_EDGE ( 'NONE', *, *, #113, .T. ) ;
#193 = ORIENTED_EDGE ( 'NONE', *, *, #86, .F. ) ;
#194 = DIRECTION ( 'NONE',  ( -1.000000000000000000, -0.0000000000000000000, -0.0000000000000000000 ) ) ;
#195 = ORIENTED_EDGE ( 'NONE', *, *, #132, .F. ) ;
#196 = PRESENTATION_STYLE_ASSIGNMENT (( #138 ) ) ;
#197 = DIRECTION ( 'NONE',  ( 0.0000000000000000000, 0.0000000000000000000, 1.000000000000000000 ) ) ;
#198 = CARTESIAN_POINT ( 'NONE',  ( 6.500000000000000000, 0.0000000000000000000, 0.0000000000000000000 ) ) ;
#199 = FACE_OUTER_BOUND ( 'NONE', #53, .T. ) ;
#200 = CARTESIAN_POINT ( 'NONE',  ( 26.00000000000000000, 0.0000000000000000000, 0.0000000000000000000 ) ) ;
#201 = CYLINDRICAL_SURFACE ( 'NONE', #376, 6.499999999999999112 ) ;
#202 = COLOUR_RGB ( '',0.5019607843137254832, 0.5019607843137254832, 1.000000000000000000 ) ;
#203 = DIRECTION ( 'NONE',  ( -1.000000000000000000, -0.0000000000000000000, -0.0000000000000000000 ) ) ;
#204 = PRESENTATION_STYLE_ASSIGNMENT (( #295 ) ) ;
#205 = DIRECTION ( 'NONE',  ( -1.000000000000000000, -0.0000000000000000000, -0.0000000000000000000 ) ) ;
#206 = DIRECTION ( 'NONE',  ( 0.0000000000000000000, 1.000000000000000000, 0.0000000000000000000 ) ) ;
#207 = CARTESIAN_POINT ( 'NONE',  ( 27.06307774020752888, 6.215365516751177018E-16, -3.650462192166027631 ) ) ;
#208 = CARTESIAN_POINT ( 'NONE',  ( 6.500000000000000000, 0.0000000000000000000, 0.0000000000000000000 ) ) ;
#209 = CARTESIAN_POINT ( 'NONE',  ( 0.0000000000000000000, 0.0000000000000000000, 3.000000000000000000 ) ) ;
#210 = AXIS2_PLACEMENT_3D ( 'NONE', #89, #245, #380 ) ;
#211 = CARTESIAN_POINT ( 'NONE',  ( 0.0000000000000000000, 0.0000000000000000000, 0.0000000000000000000 ) ) ;
#212 = PRODUCT_DEFINITION_SHAPE ( 'NONE', 'NONE',  #190 ) ;
#213 = DIRECTION ( 'NONE',  ( 0.0000000000000000000, 0.0000000000000000000, 1.000000000000000000 ) ) ;
#214 =( GEOMETRIC_REPRESENTATION_CONTEXT ( 3 ) GLOBAL_UNCERTAINTY_ASSIGNED_CONTEXT ( ( #282 ) ) GLOBAL_UNIT_ASSIGNED_CONTEXT ( ( #39, #261, #221 ) ) REPRESENTATION_CONTEXT ( 'NONE', 'WORKASPACE' ) );
#215 = SURFACE_SIDE_STYLE ('',( #38 ) ) ;
#216 = CLOSED_SHELL ( 'NONE', ( #26, #379, #179, #297, #365, #358, #217, #17, #183, #56, #101 ) ) ;
#217 = ADVANCED_FACE ( 'NONE', ( #291 ), #201, .T. ) ;
#218 = EDGE_LOOP ( 'NONE', ( #191, #76 ) ) ;
#219 = VECTOR ( 'NONE', #118, 1000.000000000000000 ) ;
#220 = VERTEX_POINT ( 'NONE', #336 ) ;
#221 =( NAMED_UNIT ( * ) SI_UNIT ( $, .STERADIAN. ) SOLID_ANGLE_UNIT ( ) );
#222 = EDGE_LOOP ( 'NONE', ( #100, #42, #137, #134 ) ) ;
#223 = DIRECTION ( 'NONE',  ( 0.0000000000000000000, 0.0000000000000000000, 1.000000000000000000 ) ) ;
#224 = SURFACE_STYLE_FILL_AREA ( #136 ) ;
#225 = VERTEX_POINT ( 'NONE', #52 ) ;
#226 = MECHANICAL_DESIGN_GEOMETRIC_PRESENTATION_REPRESENTATION (  '', ( #71 ), #61 ) ;
#227 = DIRECTION ( 'NONE',  ( -1.000000000000000000, -0.0000000000000000000, -0.0000000000000000000 ) ) ;
#228 = DIRECTION ( 'NONE',  ( 0.0000000000000000000, 1.000000000000000000, 1.224646799147353207E-16 ) ) ;
#229 = FACE_OUTER_BOUND ( 'NONE', #103, .T. ) ;
#230 = CARTESIAN_POINT ( 'NONE',  ( 0.0000000000000000000, 0.0000000000000000000, 0.0000000000000000000 ) ) ;
#231 = DIRECTION ( 'NONE',  ( 0.0000000000000000000, 0.0000000000000000000, 1.000000000000000000 ) ) ;
#232 = DIRECTION ( 'NONE',  ( -0.0000000000000000000, 1.000000000000000000, 1.224646799147353207E-16 ) ) ;
#233 =( NAMED_UNIT ( * ) SI_UNIT ( $, .STERADIAN. ) SOLID_ANGLE_UNIT ( ) );
#234 = PRESENTATION_LAYER_ASSIGNMENT (  '', '', ( #306 ) ) ;
#235 = DIRECTION ( 'NONE',  ( -1.000000000000000000, -0.0000000000000000000, -0.0000000000000000000 ) ) ;
#236 = CARTESIAN_POINT ( 'NONE',  ( 6.500000000000000000, 6.499999999999999112, 0.0000000000000000000 ) ) ;
#237 = AXIS2_PLACEMENT_3D ( 'NONE', #230, #176, #270 ) ;
#238 =( LENGTH_UNIT ( ) NAMED_UNIT ( * ) SI_UNIT ( .MILLI., .METRE. ) );
#239 = UNCERTAINTY_MEASURE_WITH_UNIT (LENGTH_MEASURE( 1.000000000000000082E-05 ), #258, 'distance_accuracy_value', 'NONE');
#240 = DIRECTION ( 'NONE',  ( -1.000000000000000000, -0.0000000000000000000, -0.0000000000000000000 ) ) ;
#241 = AXIS2_PLACEMENT_3D ( 'NONE', #341, #235, #242 ) ;
#242 = DIRECTION ( 'NONE',  ( 0.0000000000000000000, 0.0000000000000000000, 1.000000000000000000 ) ) ;
#243 = PRODUCT ( 'AZ-067406', 'AZ-067406', '', ( #301 ) ) ;
#244 = TOROIDAL_SURFACE ( 'NONE', #271, 4.000000000000000000, 1.000000000000001332 ) ;
#245 = DIRECTION ( 'NONE',  ( -0.0000000000000000000, 0.0000000000000000000, 1.000000000000000000 ) ) ;
#246 = SURFACE_STYLE_USAGE ( .BOTH. , #278 ) ;
#247 =( NAMED_UNIT ( * ) SI_UNIT ( $, .STERADIAN. ) SOLID_ANGLE_UNIT ( ) );
#248 =( GEOMETRIC_REPRESENTATION_CONTEXT ( 3 ) GLOBAL_UNCERTAINTY_ASSIGNED_CONTEXT ( ( #343 ) ) GLOBAL_UNIT_ASSIGNED_CONTEXT ( ( #35, #152, #59 ) ) REPRESENTATION_CONTEXT ( 'NONE', 'WORKASPACE' ) );
#249 = EDGE_CURVE ( 'NONE', #385, #220, #109, .T. ) ;
#250 = SURFACE_STYLE_FILL_AREA ( #280 ) ;
#251 = CONICAL_SURFACE ( 'NONE', #308, 3.650462192166027631, 1.213718577553605904 ) ;
#252 = EDGE_LOOP ( 'NONE', ( #253, #173, #144, #195 ) ) ;
#253 = ORIENTED_EDGE ( 'NONE', *, *, #326, .F. ) ;
#254 = STYLED_ITEM ( 'NONE', ( #204 ), #217 ) ;
#255 = ORIENTED_EDGE ( 'NONE', *, *, #153, .F. ) ;
#256 = CIRCLE ( 'NONE', #135, 6.500000000000000000 ) ;
#257 = ORIENTED_EDGE ( 'NONE', *, *, #49, .F. ) ;
#258 =( LENGTH_UNIT ( ) NAMED_UNIT ( * ) SI_UNIT ( .MILLI., .METRE. ) );
#259 =( GEOMETRIC_REPRESENTATION_CONTEXT ( 3 ) GLOBAL_UNCERTAINTY_ASSIGNED_CONTEXT ( ( #148 ) ) GLOBAL_UNIT_ASSIGNED_CONTEXT ( ( #167, #293, #175 ) ) REPRESENTATION_CONTEXT ( 'NONE', 'WORKASPACE' ) );
#260 = EDGE_LOOP ( 'NONE', ( #72, #124, #73, #324 ) ) ;
#261 =( NAMED_UNIT ( * ) PLANE_ANGLE_UNIT ( ) SI_UNIT ( $, .RADIAN. ) );
#262 = CIRCLE ( 'NONE', #93, 6.499999999999999112 ) ;
#263 = DIRECTION ( 'NONE',  ( -1.000000000000000000, 0.0000000000000000000, -0.0000000000000000000 ) ) ;
#264 = CARTESIAN_POINT ( 'NONE',  ( 0.0000000000000000000, 0.0000000000000000000, 0.0000000000000000000 ) ) ;
#265 = CYLINDRICAL_SURFACE ( 'NONE', #5, 3.000000000000000000 ) ;
#266 = PRESENTATION_STYLE_ASSIGNMENT (( #172 ) ) ;
#267 = FACE_OUTER_BOUND ( 'NONE', #260, .T. ) ;
#268 = SHAPE_DEFINITION_REPRESENTATION ( #212, #321 ) ;
#269 = SURFACE_SIDE_STYLE ('',( #224 ) ) ;
#270 = DIRECTION ( 'NONE',  ( 0.0000000000000000000, 0.0000000000000000000, 1.000000000000000000 ) ) ;
#271 = AXIS2_PLACEMENT_3D ( 'NONE', #74, #114, #14 ) ;
#272 = LINE ( 'NONE', #345, #158 ) ;
#273 = CARTESIAN_POINT ( 'NONE',  ( 0.0000000000000000000, 7.960204194457794491E-16, -6.499999999999999112 ) ) ;
#274 = CARTESIAN_POINT ( 'NONE',  ( 6.500000000000000000, 0.0000000000000000000, 0.0000000000000000000 ) ) ;
#275 = COLOUR_RGB ( '',0.5019607843137254832, 0.5019607843137254832, 1.000000000000000000 ) ;
#276 = CIRCLE ( 'NONE', #10, 6.499999999999999112 ) ;
#277 =( GEOMETRIC_REPRESENTATION_CONTEXT ( 3 ) GLOBAL_UNCERTAINTY_ASSIGNED_CONTEXT ( ( #314 ) ) GLOBAL_UNIT_ASSIGNED_CONTEXT ( ( #288, #311, #97 ) ) REPRESENTATION_CONTEXT ( 'NONE', 'WORKASPACE' ) );
#278 = SURFACE_SIDE_STYLE ('',( #177 ) ) ;
#279 = FILL_AREA_STYLE_COLOUR ( '', #349 ) ;
#280 = FILL_AREA_STYLE ('',( #279 ) ) ;
#281 = AXIS2_PLACEMENT_3D ( 'NONE', #87, #171, #368 ) ;
#282 = UNCERTAINTY_MEASURE_WITH_UNIT (LENGTH_MEASURE( 1.000000000000000082E-05 ), #39, 'distance_accuracy_value', 'NONE');
#283 = EDGE_LOOP ( 'NONE', ( #317, #166, #318, #390 ) ) ;
#284 = VERTEX_POINT ( 'NONE', #289 ) ;
#285 = CIRCLE ( 'NONE', #127, 3.650462192166027631 ) ;
#286 = PRESENTATION_LAYER_ASSIGNMENT (  '', '', ( #104 ) ) ;
#287 = ORIENTED_EDGE ( 'NONE', *, *, #315, .T. ) ;
#288 =( LENGTH_UNIT ( ) NAMED_UNIT ( * ) SI_UNIT ( .MILLI., .METRE. ) );
#289 = CARTESIAN_POINT ( 'NONE',  ( 6.500000000000000000, -6.499999999999999112, -7.960204194457795477E-16 ) ) ;
#290 = ORIENTED_EDGE ( 'NONE', *, *, #153, .T. ) ;
#291 = FACE_OUTER_BOUND ( 'NONE', #68, .T. ) ;
#292 = DIRECTION ( 'NONE',  ( 0.0000000000000000000, 0.0000000000000000000, 1.000000000000000000 ) ) ;
#293 =( NAMED_UNIT ( * ) PLANE_ANGLE_UNIT ( ) SI_UNIT ( $, .RADIAN. ) );
#294 = CARTESIAN_POINT ( 'NONE',  ( 6.500000000000000000, 0.0000000000000000000, 0.0000000000000000000 ) ) ;
#295 = SURFACE_STYLE_USAGE ( .BOTH. , #110 ) ;
#296 = ORIENTED_EDGE ( 'NONE', *, *, #132, .T. ) ;
#297 = ADVANCED_FACE ( 'NONE', ( #229 ), #298, .T. ) ;
#298 = CYLINDRICAL_SURFACE ( 'NONE', #391, 6.499999999999999112 ) ;
#299 = DIRECTION ( 'NONE',  ( -1.000000000000000000, -0.0000000000000000000, -0.0000000000000000000 ) ) ;
#300 = DIRECTION ( 'NONE',  ( -1.000000000000000000, -0.0000000000000000000, -0.0000000000000000000 ) ) ;
#301 = PRODUCT_CONTEXT ( 'NONE', #319, 'mechanical' ) ;
#302 = FILL_AREA_STYLE ('',( #150 ) ) ;
#303 = CARTESIAN_POINT ( 'NONE',  ( 27.99999999999999645, 4.072233618243308474E-16, -3.000000000000000000 ) ) ;
#304 = MECHANICAL_DESIGN_GEOMETRIC_PRESENTATION_REPRESENTATION (  '', ( #254 ), #259 ) ;
#305 = EDGE_CURVE ( 'NONE', #384, #85, #139, .T. ) ;
#306 = STYLED_ITEM ( 'NONE', ( #196 ), #378 ) ;
#307 =( NAMED_UNIT ( * ) SI_UNIT ( $, .STERADIAN. ) SOLID_ANGLE_UNIT ( ) );
#308 = AXIS2_PLACEMENT_3D ( 'NONE', #331, #300, #197 ) ;
#309 = FILL_AREA_STYLE ('',( #325 ) ) ;
#310 =( GEOMETRIC_REPRESENTATION_CONTEXT ( 3 ) GLOBAL_UNCERTAINTY_ASSIGNED_CONTEXT ( ( #239 ) ) GLOBAL_UNIT_ASSIGNED_CONTEXT ( ( #258, #23, #307 ) ) REPRESENTATION_CONTEXT ( 'NONE', 'WORKASPACE' ) );
#311 =( NAMED_UNIT ( * ) PLANE_ANGLE_UNIT ( ) SI_UNIT ( $, .RADIAN. ) );
#312 = ORIENTED_EDGE ( 'NONE', *, *, #326, .T. ) ;
#313 = COLOUR_RGB ( '',0.5019607843137254832, 0.5019607843137254832, 1.000000000000000000 ) ;
#314 = UNCERTAINTY_MEASURE_WITH_UNIT (LENGTH_MEASURE( 1.000000000000000082E-05 ), #288, 'distance_accuracy_value', 'NONE');
#315 = EDGE_CURVE ( 'NONE', #15, #356, #168, .T. ) ;
#316 = ORIENTED_EDGE ( 'NONE', *, *, #125, .F. ) ;
#317 = ORIENTED_EDGE ( 'NONE', *, *, #16, .F. ) ;
#318 = ORIENTED_EDGE ( 'NONE', *, *, #348, .T. ) ;
#319 = APPLICATION_CONTEXT ( 'automotive_design' ) ;
#320 = APPLICATION_PROTOCOL_DEFINITION ( 'draft international standard', 'automotive_design', 1998, #319 ) ;
#321 = ADVANCED_BREP_SHAPE_REPRESENTATION ( 'AZ-067406', ( #378, #281 ), #277 ) ;
#322 = DIRECTION ( 'NONE',  ( 0.0000000000000000000, 0.0000000000000000000, 1.000000000000000000 ) ) ;
#323 =( GEOMETRIC_REPRESENTATION_CONTEXT ( 3 ) GLOBAL_UNCERTAINTY_ASSIGNED_CONTEXT ( ( #189 ) ) GLOBAL_UNIT_ASSIGNED_CONTEXT ( ( #238, #180, #247 ) ) REPRESENTATION_CONTEXT ( 'NONE', 'WORKASPACE' ) );
#324 = ORIENTED_EDGE ( 'NONE', *, *, #113, .F. ) ;
#325 = FILL_AREA_STYLE_COLOUR ( '', #13 ) ;
#326 = EDGE_CURVE ( 'NONE', #85, #29, #272, .T. ) ;
#327 = AXIS2_PLACEMENT_3D ( 'NONE', #24, #232, #149 ) ;
#328 = CARTESIAN_POINT ( 'NONE',  ( 6.500000000000000000, 0.0000000000000000000, 0.0000000000000000000 ) ) ;
#329 = PLANE ( 'NONE',  #70 ) ;
#330 = DIRECTION ( 'NONE',  ( -1.000000000000000000, -0.0000000000000000000, -0.0000000000000000000 ) ) ;
#331 = CARTESIAN_POINT ( 'NONE',  ( 27.06307774020752888, 0.0000000000000000000, 0.0000000000000000000 ) ) ;
#332 = CIRCLE ( 'NONE', #102, 3.000000000000000000 ) ;
#333 = DIRECTION ( 'NONE',  ( 0.0000000000000000000, 0.0000000000000000000, 1.000000000000000000 ) ) ;
#334 = EDGE_CURVE ( 'NONE', #1, #360, #394, .T. ) ;
#335 = PRODUCT_DEFINITION_FORMATION_WITH_SPECIFIED_SOURCE ( 'ANY', '', #243, .NOT_KNOWN. ) ;
#336 = CARTESIAN_POINT ( 'NONE',  ( 45.00000000000000000, 0.0000000000000000000, 3.000000000000000000 ) ) ;
#337 = CARTESIAN_POINT ( 'NONE',  ( 0.0000000000000000000, 0.0000000000000000000, 6.499999999999999112 ) ) ;
#338 = PRESENTATION_STYLE_ASSIGNMENT (( #65 ) ) ;
#339 = CARTESIAN_POINT ( 'NONE',  ( 0.0000000000000000000, 3.673940397442059868E-16, -3.000000000000000000 ) ) ;
#340 = AXIS2_PLACEMENT_3D ( 'NONE', #366, #161, #117 ) ;
#341 = CARTESIAN_POINT ( 'NONE',  ( 27.06307774020752888, 0.0000000000000000000, 0.0000000000000000000 ) ) ;
#342 = AXIS2_PLACEMENT_3D ( 'NONE', #184, #96, #213 ) ;
#343 = UNCERTAINTY_MEASURE_WITH_UNIT (LENGTH_MEASURE( 1.000000000000000082E-05 ), #35, 'distance_accuracy_value', 'NONE');
#344 = CARTESIAN_POINT ( 'NONE',  ( 27.06307774020752888, 0.0000000000000000000, 3.650462192166027631 ) ) ;
#345 = CARTESIAN_POINT ( 'NONE',  ( 27.06307774020752888, 4.470526839044555602E-16, -3.650462192166027631 ) ) ;
#346 = DIRECTION ( 'NONE',  ( -1.000000000000000000, -0.0000000000000000000, -0.0000000000000000000 ) ) ;
#347 = FACE_OUTER_BOUND ( 'NONE', #283, .T. ) ;
#348 = EDGE_CURVE ( 'NONE', #159, #1, #262, .T. ) ;
#349 = COLOUR_RGB ( '',0.2509803921568627416, 0.2509803921568627416, 0.2509803921568627416 ) ;
#350 = VECTOR ( 'NONE', #299, 1000.000000000000000 ) ;
#351 = DIRECTION ( 'NONE',  ( 0.0000000000000000000, 1.000000000000000000, 0.0000000000000000000 ) ) ;
#352 = MECHANICAL_DESIGN_GEOMETRIC_PRESENTATION_REPRESENTATION (  '', ( #91 ), #310 ) ;
#353 = ORIENTED_EDGE ( 'NONE', *, *, #305, .T. ) ;
#354 = VECTOR ( 'NONE', #60, 1000.000000000000114 ) ;
#355 = MECHANICAL_DESIGN_GEOMETRIC_PRESENTATION_REPRESENTATION (  '', ( #306 ), #214 ) ;
#356 = VERTEX_POINT ( 'NONE', #303 ) ;
#357 = ORIENTED_EDGE ( 'NONE', *, *, #30, .T. ) ;
#358 = ADVANCED_FACE ( 'NONE', ( #347 ), #8, .T. ) ;
#359 = DIRECTION ( 'NONE',  ( -1.000000000000000000, -0.0000000000000000000, -0.0000000000000000000 ) ) ;
#360 = VERTEX_POINT ( 'NONE', #64 ) ;
#361 = CIRCLE ( 'NONE', #147, 6.499999999999999112 ) ;
#362 = CARTESIAN_POINT ( 'NONE',  ( 6.500000000000000000, 0.0000000000000000000, 0.0000000000000000000 ) ) ;
#363 = DIRECTION ( 'NONE',  ( 0.0000000000000000000, 0.0000000000000000000, 1.000000000000000000 ) ) ;
#364 = DIRECTION ( 'NONE',  ( 0.0000000000000000000, 1.224646799147353207E-16, -1.000000000000000000 ) ) ;
#365 = ADVANCED_FACE ( 'NONE', ( #36 ), #99, .T. ) ;
#366 = CARTESIAN_POINT ( 'NONE',  ( 45.00000000000000000, 0.0000000000000000000, 0.0000000000000000000 ) ) ;
#367 = CARTESIAN_POINT ( 'NONE',  ( 26.00000000000000000, 0.0000000000000000000, 6.500000000000000000 ) ) ;
#368 = DIRECTION ( 'NONE',  ( 1.000000000000000000, 0.0000000000000000000, 0.0000000000000000000 ) ) ;
#369 = VECTOR ( 'NONE', #240, 1000.000000000000000 ) ;
#370 = CARTESIAN_POINT ( 'NONE',  ( 6.500000000000000000, 0.0000000000000000000, 6.499999999999999112 ) ) ;
#371 = DIRECTION ( 'NONE',  ( 0.0000000000000000000, 0.0000000000000000000, 1.000000000000000000 ) ) ;
#372 = DIRECTION ( 'NONE',  ( -0.0000000000000000000, 0.0000000000000000000, -1.000000000000000000 ) ) ;
#373 = CIRCLE ( 'NONE', #19, 6.499999999999999112 ) ;
#374 = FACE_OUTER_BOUND ( 'NONE', #160, .T. ) ;
#375 = LINE ( 'NONE', #344, #354 ) ;
#376 = AXIS2_PLACEMENT_3D ( 'NONE', #264, #397, #145 ) ;
#377 = SURFACE_SIDE_STYLE ('',( #126 ) ) ;
#378 = MANIFOLD_SOLID_BREP ( 'Revolve1', #216 ) ;
#379 = ADVANCED_FACE ( 'NONE', ( #381 ), #244, .F. ) ;
#380 = DIRECTION ( 'NONE',  ( 1.000000000000000000, 0.0000000000000000000, 0.0000000000000000000 ) ) ;
#381 = FACE_OUTER_BOUND ( 'NONE', #111, .T. ) ;
#382 = DIRECTION ( 'NONE',  ( 0.0000000000000000000, 0.0000000000000000000, 1.000000000000000000 ) ) ;
#383 = PRODUCT_DEFINITION_CONTEXT ( 'detailed design', #396, 'design' ) ;
#384 = VERTEX_POINT ( 'NONE', #164 ) ;
#385 = VERTEX_POINT ( 'NONE', #77 ) ;
#386 = AXIS2_PLACEMENT_3D ( 'NONE', #119, #359, #79 ) ;
#387 = EDGE_CURVE ( 'NONE', #220, #385, #44, .T. ) ;
#388 = ORIENTED_EDGE ( 'NONE', *, *, #63, .F. ) ;
#389 = EDGE_CURVE ( 'NONE', #284, #159, #361, .T. ) ;
#390 = ORIENTED_EDGE ( 'NONE', *, *, #334, .T. ) ;
#391 = AXIS2_PLACEMENT_3D ( 'NONE', #211, #346, #182 ) ;
#392 = DIRECTION ( 'NONE',  ( -1.000000000000000000, -0.0000000000000000000, -0.0000000000000000000 ) ) ;
#393 = ORIENTED_EDGE ( 'NONE', *, *, #7, .F. ) ;
#394 = CIRCLE ( 'NONE', #210, 6.499999999999998224 ) ;
#395 = LINE ( 'NONE', #339, #219 ) ;
#396 = APPLICATION_CONTEXT ( 'automotive_design' ) ;
#397 = DIRECTION ( 'NONE',  ( -1.000000000000000000, -0.0000000000000000000, -0.0000000000000000000 ) ) ;
#398 = ORIENTED_EDGE ( 'NONE', *, *, #348, .F. ) ;
ENDSEC;
END-ISO-10303-21;
