ISO-10303-21;
HEADER;
FILE_DESCRIPTION (( 'STEP AP214' ),
    '1' );
FILE_NAME ('AZ-067408.STEP',
    '2020-03-31T13:12:52',
    ( '' ),
    ( '' ),
    'SwSTEP 2.0',
    'SolidWorks 2020',
    '' );
FILE_SCHEMA (( 'AUTOMOTIVE_DESIGN' ));
ENDSEC;

DATA;
#1 = SURFACE_STYLE_FILL_AREA ( #327 ) ;
#2 = FILL_AREA_STYLE_COLOUR ( '', #265 ) ;
#3 = DIRECTION ( 'NONE',  ( 1.000000000000000000, 0.0000000000000000000, 0.0000000000000000000 ) ) ;
#4 = EDGE_CURVE ( 'NONE', #158, #85, #72, .T. ) ;
#5 = PRESENTATION_LAYER_ASSIGNMENT (  '', '', ( #304 ) ) ;
#6 = PRESENTATION_STYLE_ASSIGNMENT (( #253 ) ) ;
#7 = EDGE_LOOP ( 'NONE', ( #78, #214, #26, #169 ) ) ;
#8 = PRESENTATION_STYLE_ASSIGNMENT (( #36 ) ) ;
#9 = MECHANICAL_DESIGN_GEOMETRIC_PRESENTATION_REPRESENTATION (  '', ( #27 ), #258 ) ;
#10 =( NAMED_UNIT ( * ) SI_UNIT ( $, .STERADIAN. ) SOLID_ANGLE_UNIT ( ) );
#11 = EDGE_CURVE ( 'NONE', #158, #378, #216, .T. ) ;
#12 = AXIS2_PLACEMENT_3D ( 'NONE', #342, #220, #3 ) ;
#13 = CIRCLE ( 'NONE', #260, 6.499999999999999112 ) ;
#14 = CARTESIAN_POINT ( 'NONE',  ( 23.49999999999999645, 0.0000000000000000000, 0.0000000000000000000 ) ) ;
#15 = DIRECTION ( 'NONE',  ( 0.0000000000000000000, 0.0000000000000000000, 1.000000000000000000 ) ) ;
#16 = AXIS2_PLACEMENT_3D ( 'NONE', #339, #131, #184 ) ;
#17 = DIRECTION ( 'NONE',  ( 0.0000000000000000000, 0.0000000000000000000, -1.000000000000000000 ) ) ;
#18 = MECHANICAL_DESIGN_GEOMETRIC_PRESENTATION_REPRESENTATION (  '', ( #109 ), #206 ) ;
#19 = UNCERTAINTY_MEASURE_WITH_UNIT (LENGTH_MEASURE( 1.000000000000000082E-05 ), #364, 'distance_accuracy_value', 'NONE');
#20 = SURFACE_STYLE_FILL_AREA ( #24 ) ;
#21 = STYLED_ITEM ( 'NONE', ( #221 ), #360 ) ;
#22 = CARTESIAN_POINT ( 'NONE',  ( 25.50000000000000000, 0.0000000000000000000, 0.0000000000000000000 ) ) ;
#23 = EDGE_LOOP ( 'NONE', ( #257, #244, #87, #277 ) ) ;
#24 = FILL_AREA_STYLE ('',( #269 ) ) ;
#25 = FACE_OUTER_BOUND ( 'NONE', #7, .T. ) ;
#26 = ORIENTED_EDGE ( 'NONE', *, *, #4, .T. ) ;
#27 = STYLED_ITEM ( 'NONE', ( #171 ), #353 ) ;
#28 = DIRECTION ( 'NONE',  ( -1.000000000000000000, -0.0000000000000000000, -0.0000000000000000000 ) ) ;
#29 = PRODUCT_CONTEXT ( 'NONE', #183, 'mechanical' ) ;
#30 = COLOUR_RGB ( '',0.2509803921568627416, 0.2509803921568627416, 0.2509803921568627416 ) ;
#31 = DIRECTION ( 'NONE',  ( 0.0000000000000000000, 0.0000000000000000000, 1.000000000000000000 ) ) ;
#32 = CONICAL_SURFACE ( 'NONE', #232, 4.588562172233853431, 1.146765287304154501 ) ;
#33 = SURFACE_STYLE_FILL_AREA ( #313 ) ;
#34 = FILL_AREA_STYLE_COLOUR ( '', #321 ) ;
#35 = DIRECTION ( 'NONE',  ( 0.0000000000000000000, -1.000000000000000000, 0.0000000000000000000 ) ) ;
#36 = SURFACE_STYLE_USAGE ( .BOTH. , #115 ) ;
#37 = DIRECTION ( 'NONE',  ( 0.0000000000000000000, 0.0000000000000000000, 1.000000000000000000 ) ) ;
#38 =( NAMED_UNIT ( * ) SI_UNIT ( $, .STERADIAN. ) SOLID_ANGLE_UNIT ( ) );
#39 = DIRECTION ( 'NONE',  ( -1.000000000000000000, -0.0000000000000000000, -0.0000000000000000000 ) ) ;
#40 = ORIENTED_EDGE ( 'NONE', *, *, #120, .F. ) ;
#41 = EDGE_CURVE ( 'NONE', #110, #190, #192, .T. ) ;
#42 = MANIFOLD_SOLID_BREP ( 'Revolve1', #230 ) ;
#43 = ADVANCED_BREP_SHAPE_REPRESENTATION ( 'AZ-067408', ( #42, #12 ), #182 ) ;
#44 = DIRECTION ( 'NONE',  ( -1.000000000000000000, -0.0000000000000000000, -0.0000000000000000000 ) ) ;
#45 = EDGE_CURVE ( 'NONE', #250, #85, #322, .T. ) ;
#46 = CARTESIAN_POINT ( 'NONE',  ( 24.58856217223385343, 0.0000000000000000000, 4.588562172233853431 ) ) ;
#47 =( GEOMETRIC_REPRESENTATION_CONTEXT ( 3 ) GLOBAL_UNCERTAINTY_ASSIGNED_CONTEXT ( ( #261 ) ) GLOBAL_UNIT_ASSIGNED_CONTEXT ( ( #52, #241, #272 ) ) REPRESENTATION_CONTEXT ( 'NONE', 'WORKASPACE' ) );
#48 = ADVANCED_FACE ( 'NONE', ( #172 ), #80, .T. ) ;
#49 =( NAMED_UNIT ( * ) SI_UNIT ( $, .STERADIAN. ) SOLID_ANGLE_UNIT ( ) );
#50 = ORIENTED_EDGE ( 'NONE', *, *, #144, .T. ) ;
#51 = CARTESIAN_POINT ( 'NONE',  ( 24.58856217223385343, 0.0000000000000000000, 0.0000000000000000000 ) ) ;
#52 =( LENGTH_UNIT ( ) NAMED_UNIT ( * ) SI_UNIT ( .MILLI., .METRE. ) );
#53 = VERTEX_POINT ( 'NONE', #167 ) ;
#54 = SURFACE_STYLE_USAGE ( .BOTH. , #268 ) ;
#55 = ORIENTED_EDGE ( 'NONE', *, *, #251, .T. ) ;
#56 = FACE_OUTER_BOUND ( 'NONE', #344, .T. ) ;
#57 = ORIENTED_EDGE ( 'NONE', *, *, #92, .F. ) ;
#58 = ORIENTED_EDGE ( 'NONE', *, *, #138, .T. ) ;
#59 = CIRCLE ( 'NONE', #16, 7.000000000000000000 ) ;
#60 = SURFACE_STYLE_USAGE ( .BOTH. , #345 ) ;
#61 = CARTESIAN_POINT ( 'NONE',  ( 0.0000000000000000000, 0.0000000000000000000, 4.000000000000000000 ) ) ;
#62 = CARTESIAN_POINT ( 'NONE',  ( 43.50000000000000000, 0.0000000000000000000, 0.0000000000000000000 ) ) ;
#63 = CIRCLE ( 'NONE', #287, 4.000000000000000000 ) ;
#64 = EDGE_LOOP ( 'NONE', ( #281, #372, #200 ) ) ;
#65 = DIRECTION ( 'NONE',  ( -1.000000000000000000, -0.0000000000000000000, -0.0000000000000000000 ) ) ;
#66 = MECHANICAL_DESIGN_GEOMETRIC_PRESENTATION_REPRESENTATION (  '', ( #21 ), #162 ) ;
#67 = EDGE_CURVE ( 'NONE', #375, #250, #63, .T. ) ;
#68 = DIRECTION ( 'NONE',  ( 0.0000000000000000000, 0.0000000000000000000, 1.000000000000000000 ) ) ;
#69 = DIRECTION ( 'NONE',  ( 0.0000000000000000000, -1.000000000000000000, 0.0000000000000000000 ) ) ;
#70 = AXIS2_PLACEMENT_3D ( 'NONE', #217, #368, #303 ) ;
#71 = DIRECTION ( 'NONE',  ( 0.0000000000000000000, 0.0000000000000000000, 1.000000000000000000 ) ) ;
#72 = CIRCLE ( 'NONE', #152, 0.9999999999999983347 ) ;
#73 = CARTESIAN_POINT ( 'NONE',  ( 0.0000000000000000000, 0.0000000000000000000, 0.0000000000000000000 ) ) ;
#74 = DIRECTION ( 'NONE',  ( -1.000000000000000000, -0.0000000000000000000, -0.0000000000000000000 ) ) ;
#75 = EDGE_LOOP ( 'NONE', ( #247, #222 ) ) ;
#76 = DIRECTION ( 'NONE',  ( 0.0000000000000000000, 0.0000000000000000000, 1.000000000000000000 ) ) ;
#77 = CARTESIAN_POINT ( 'NONE',  ( 25.50000000000000000, 0.0000000000000000000, 0.0000000000000000000 ) ) ;
#78 = ORIENTED_EDGE ( 'NONE', *, *, #84, .F. ) ;
#79 = DIRECTION ( 'NONE',  ( -1.000000000000000000, -0.0000000000000000000, -0.0000000000000000000 ) ) ;
#80 = CONICAL_SURFACE ( 'NONE', #355, 4.588562172233853431, 1.146765287304154501 ) ;
#81 = ORIENTED_EDGE ( 'NONE', *, *, #104, .T. ) ;
#82 = CARTESIAN_POINT ( 'NONE',  ( 43.50000000000000000, 0.0000000000000000000, 4.000000000000000000 ) ) ;
#83 = ORIENTED_EDGE ( 'NONE', *, *, #144, .F. ) ;
#84 = EDGE_CURVE ( 'NONE', #378, #271, #376, .T. ) ;
#85 = VERTEX_POINT ( 'NONE', #94 ) ;
#86 =( NAMED_UNIT ( * ) PLANE_ANGLE_UNIT ( ) SI_UNIT ( $, .RADIAN. ) );
#87 = ORIENTED_EDGE ( 'NONE', *, *, #45, .T. ) ;
#88 = CARTESIAN_POINT ( 'NONE',  ( 0.0000000000000000000, 4.898587196589412829E-16, -4.000000000000000000 ) ) ;
#89 = VECTOR ( 'NONE', #320, 1000.000000000000000 ) ;
#90 = CYLINDRICAL_SURFACE ( 'NONE', #294, 7.000000000000000000 ) ;
#91 = CARTESIAN_POINT ( 'NONE',  ( 24.58856217223385343, 0.0000000000000000000, 0.0000000000000000000 ) ) ;
#92 = EDGE_CURVE ( 'NONE', #188, #53, #125, .T. ) ;
#93 = SURFACE_SIDE_STYLE ('',( #33 ) ) ;
#94 = CARTESIAN_POINT ( 'NONE',  ( 25.50000000000000000, 0.0000000000000000000, 4.000000000000000000 ) ) ;
#95 =( NAMED_UNIT ( * ) PLANE_ANGLE_UNIT ( ) SI_UNIT ( $, .RADIAN. ) );
#96 = DIRECTION ( 'NONE',  ( -0.0000000000000000000, 0.0000000000000000000, 1.000000000000000000 ) ) ;
#97 = CIRCLE ( 'NONE', #341, 7.000000000000000000 ) ;
#98 = AXIS2_PLACEMENT_3D ( 'NONE', #107, #161, #139 ) ;
#99 = EDGE_CURVE ( 'NONE', #110, #319, #97, .T. ) ;
#100 = CARTESIAN_POINT ( 'NONE',  ( 0.0000000000000000000, 0.0000000000000000000, 7.000000000000000000 ) ) ;
#101 = AXIS2_PLACEMENT_3D ( 'NONE', #233, #205, #68 ) ;
#102 = DIRECTION ( 'NONE',  ( -1.000000000000000000, -0.0000000000000000000, -0.0000000000000000000 ) ) ;
#103 =( NAMED_UNIT ( * ) PLANE_ANGLE_UNIT ( ) SI_UNIT ( $, .RADIAN. ) );
#104 = EDGE_CURVE ( 'NONE', #158, #53, #149, .T. ) ;
#105 = ORIENTED_EDGE ( 'NONE', *, *, #45, .F. ) ;
#106 = VECTOR ( 'NONE', #210, 1000.000000000000114 ) ;
#107 = CARTESIAN_POINT ( 'NONE',  ( 6.480740698407859490, 0.0000000000000000000, 0.0000000000000000000 ) ) ;
#108 = APPLICATION_PROTOCOL_DEFINITION ( 'draft international standard', 'automotive_design', 1998, #259 ) ;
#109 = STYLED_ITEM ( 'NONE', ( #6 ), #42 ) ;
#110 = VERTEX_POINT ( 'NONE', #181 ) ;
#111 = SURFACE_STYLE_USAGE ( .BOTH. , #93 ) ;
#112 = SURFACE_STYLE_FILL_AREA ( #324 ) ;
#113 = CARTESIAN_POINT ( 'NONE',  ( 6.480740698407859490, 6.123233995736772199E-17, -0.5000000000000004441 ) ) ;
#114 = PRESENTATION_LAYER_ASSIGNMENT (  '', '', ( #27 ) ) ;
#115 = SURFACE_SIDE_STYLE ('',( #351 ) ) ;
#116 = DIRECTION ( 'NONE',  ( -1.000000000000000000, -0.0000000000000000000, -0.0000000000000000000 ) ) ;
#117 = EDGE_LOOP ( 'NONE', ( #142, #130, #197 ) ) ;
#118 = AXIS2_PLACEMENT_3D ( 'NONE', #113, #176, #290 ) ;
#119 = AXIS2_PLACEMENT_3D ( 'NONE', #358, #356, #96 ) ;
#120 = EDGE_CURVE ( 'NONE', #188, #110, #295, .T. ) ;
#121 = DIRECTION ( 'NONE',  ( -1.000000000000000000, -0.0000000000000000000, -0.0000000000000000000 ) ) ;
#122 = PRODUCT_DEFINITION ( 'UNKNOWN', '', #124, #329 ) ;
#123 = FACE_OUTER_BOUND ( 'NONE', #146, .T. ) ;
#124 = PRODUCT_DEFINITION_FORMATION_WITH_SPECIFIED_SOURCE ( 'ANY', '', #284, .NOT_KNOWN. ) ;
#125 = CIRCLE ( 'NONE', #224, 7.000000000000000000 ) ;
#126 = ADVANCED_FACE ( 'NONE', ( #128 ), #154, .F. ) ;
#127 = SURFACE_SIDE_STYLE ('',( #20 ) ) ;
#128 = FACE_OUTER_BOUND ( 'NONE', #75, .T. ) ;
#129 = SURFACE_STYLE_USAGE ( .BOTH. , #127 ) ;
#130 = ORIENTED_EDGE ( 'NONE', *, *, #99, .T. ) ;
#131 = DIRECTION ( 'NONE',  ( -1.000000000000000000, -0.0000000000000000000, -0.0000000000000000000 ) ) ;
#132 = EDGE_LOOP ( 'NONE', ( #40, #312, #242, #164 ) ) ;
#133 = LINE ( 'NONE', #100, #211 ) ;
#134 = UNCERTAINTY_MEASURE_WITH_UNIT (LENGTH_MEASURE( 1.000000000000000082E-05 ), #225, 'distance_accuracy_value', 'NONE');
#135 = FACE_OUTER_BOUND ( 'NONE', #132, .T. ) ;
#136 = TOROIDAL_SURFACE ( 'NONE', #359, 4.999999999999999112, 0.9999999999999981126 ) ;
#137 =( NAMED_UNIT ( * ) PLANE_ANGLE_UNIT ( ) SI_UNIT ( $, .RADIAN. ) );
#138 = EDGE_CURVE ( 'NONE', #53, #188, #333, .T. ) ;
#139 = DIRECTION ( 'NONE',  ( 0.0000000000000000000, 0.0000000000000000000, 1.000000000000000000 ) ) ;
#140 = CARTESIAN_POINT ( 'NONE',  ( 25.50000000000000000, 0.0000000000000000000, 4.999999999999999112 ) ) ;
#141 = FILL_AREA_STYLE ('',( #34 ) ) ;
#142 = ORIENTED_EDGE ( 'NONE', *, *, #41, .F. ) ;
#143 =( LENGTH_UNIT ( ) NAMED_UNIT ( * ) SI_UNIT ( .MILLI., .METRE. ) );
#144 = EDGE_CURVE ( 'NONE', #378, #158, #308, .T. ) ;
#145 = CARTESIAN_POINT ( 'NONE',  ( 25.50000000000000000, 6.123233995736765296E-16, -4.999999999999999112 ) ) ;
#146 = EDGE_LOOP ( 'NONE', ( #252, #255, #195, #105 ) ) ;
#147 = DIRECTION ( 'NONE',  ( 0.0000000000000000000, 0.0000000000000000000, 1.000000000000000000 ) ) ;
#148 = TOROIDAL_SURFACE ( 'NONE', #316, 4.999999999999999112, 0.9999999999999981126 ) ;
#149 = LINE ( 'NONE', #46, #249 ) ;
#150 = AXIS2_PLACEMENT_3D ( 'NONE', #318, #346, #198 ) ;
#151 = COLOUR_RGB ( '',0.5019607843137254832, 0.5019607843137254832, 1.000000000000000000 ) ;
#152 = AXIS2_PLACEMENT_3D ( 'NONE', #140, #35, #314 ) ;
#153 = CARTESIAN_POINT ( 'NONE',  ( 0.0000000000000000000, 0.0000000000000000000, 0.0000000000000000000 ) ) ;
#154 = PLANE ( 'NONE',  #119 ) ;
#155 =( NAMED_UNIT ( * ) SI_UNIT ( $, .STERADIAN. ) SOLID_ANGLE_UNIT ( ) );
#156 = DIRECTION ( 'NONE',  ( -1.000000000000000000, -0.0000000000000000000, -0.0000000000000000000 ) ) ;
#157 = UNCERTAINTY_MEASURE_WITH_UNIT (LENGTH_MEASURE( 1.000000000000000082E-05 ), #280, 'distance_accuracy_value', 'NONE');
#158 = VERTEX_POINT ( 'NONE', #179 ) ;
#159 = DIRECTION ( 'NONE',  ( 0.0000000000000000000, 0.0000000000000000000, 1.000000000000000000 ) ) ;
#160 = EDGE_LOOP ( 'NONE', ( #58, #275, #337, #305 ) ) ;
#161 = DIRECTION ( 'NONE',  ( -1.000000000000000000, -0.0000000000000000000, -0.0000000000000000000 ) ) ;
#162 =( GEOMETRIC_REPRESENTATION_CONTEXT ( 3 ) GLOBAL_UNCERTAINTY_ASSIGNED_CONTEXT ( ( #291 ) ) GLOBAL_UNIT_ASSIGNED_CONTEXT ( ( #143, #103, #49 ) ) REPRESENTATION_CONTEXT ( 'NONE', 'WORKASPACE' ) );
#163 = FACE_OUTER_BOUND ( 'NONE', #335, .T. ) ;
#164 = ORIENTED_EDGE ( 'NONE', *, *, #99, .F. ) ;
#165 =( GEOMETRIC_REPRESENTATION_CONTEXT ( 3 ) GLOBAL_UNCERTAINTY_ASSIGNED_CONTEXT ( ( #19 ) ) GLOBAL_UNIT_ASSIGNED_CONTEXT ( ( #364, #137, #282 ) ) REPRESENTATION_CONTEXT ( 'NONE', 'WORKASPACE' ) );
#166 = AXIS2_PLACEMENT_3D ( 'NONE', #145, #229, #352 ) ;
#167 = CARTESIAN_POINT ( 'NONE',  ( 23.49999999999999645, 0.0000000000000000000, 7.000000000000000000 ) ) ;
#168 =( NAMED_UNIT ( * ) SI_UNIT ( $, .STERADIAN. ) SOLID_ANGLE_UNIT ( ) );
#169 = ORIENTED_EDGE ( 'NONE', *, *, #207, .T. ) ;
#170 = TOROIDAL_SURFACE ( 'NONE', #150, 0.5000000000000004441, 6.499999999999999112 ) ;
#171 = PRESENTATION_STYLE_ASSIGNMENT (( #60 ) ) ;
#172 = FACE_OUTER_BOUND ( 'NONE', #369, .T. ) ;
#173 = DIRECTION ( 'NONE',  ( 0.0000000000000000000, 0.0000000000000000000, 1.000000000000000000 ) ) ;
#174 = PRESENTATION_LAYER_ASSIGNMENT (  '', '', ( #109 ) ) ;
#175 = ORIENTED_EDGE ( 'NONE', *, *, #104, .F. ) ;
#176 = DIRECTION ( 'NONE',  ( -0.0000000000000000000, 1.000000000000000000, 1.224646799147353207E-16 ) ) ;
#177 = EDGE_CURVE ( 'NONE', #319, #190, #13, .T. ) ;
#178 = CIRCLE ( 'NONE', #193, 4.000000000000000000 ) ;
#179 = CARTESIAN_POINT ( 'NONE',  ( 24.58856217223385343, 0.0000000000000000000, 4.588562172233853431 ) ) ;
#180 = CARTESIAN_POINT ( 'NONE',  ( 43.50000000000000000, 4.898587196589412829E-16, -4.000000000000000000 ) ) ;
#181 = CARTESIAN_POINT ( 'NONE',  ( 6.480740698407859490, 8.572527594031473190E-16, -6.999999999999999112 ) ) ;
#182 =( GEOMETRIC_REPRESENTATION_CONTEXT ( 3 ) GLOBAL_UNCERTAINTY_ASSIGNED_CONTEXT ( ( #325 ) ) GLOBAL_UNIT_ASSIGNED_CONTEXT ( ( #299, #95, #155 ) ) REPRESENTATION_CONTEXT ( 'NONE', 'WORKASPACE' ) );
#183 = APPLICATION_CONTEXT ( 'automotive_design' ) ;
#184 = DIRECTION ( 'NONE',  ( 0.0000000000000000000, 0.0000000000000000000, 1.000000000000000000 ) ) ;
#185 = ADVANCED_FACE ( 'NONE', ( #123 ), #235, .T. ) ;
#186 = ORIENTED_EDGE ( 'NONE', *, *, #11, .T. ) ;
#187 = DIRECTION ( 'NONE',  ( 0.0000000000000000000, 0.0000000000000000000, 1.000000000000000000 ) ) ;
#188 = VERTEX_POINT ( 'NONE', #300 ) ;
#189 = CARTESIAN_POINT ( 'NONE',  ( 6.480740698407859490, 0.0000000000000000000, 6.999999999999999112 ) ) ;
#190 = VERTEX_POINT ( 'NONE', #334 ) ;
#191 = AXIS2_PLACEMENT_3D ( 'NONE', #336, #65, #76 ) ;
#192 = CIRCLE ( 'NONE', #118, 6.499999999999999112 ) ;
#193 = AXIS2_PLACEMENT_3D ( 'NONE', #22, #270, #31 ) ;
#194 = PRESENTATION_STYLE_ASSIGNMENT (( #54 ) ) ;
#195 = ORIENTED_EDGE ( 'NONE', *, *, #207, .F. ) ;
#196 = ADVANCED_FACE ( 'NONE', ( #163 ), #136, .F. ) ;
#197 = ORIENTED_EDGE ( 'NONE', *, *, #177, .T. ) ;
#198 = DIRECTION ( 'NONE',  ( 0.0000000000000000000, 0.0000000000000000000, 1.000000000000000000 ) ) ;
#199 = DIRECTION ( 'NONE',  ( 0.0000000000000000000, 0.0000000000000000000, 1.000000000000000000 ) ) ;
#200 = ORIENTED_EDGE ( 'NONE', *, *, #177, .F. ) ;
#201 = FILL_AREA_STYLE_COLOUR ( '', #238 ) ;
#202 = DIRECTION ( 'NONE',  ( -1.000000000000000000, -0.0000000000000000000, -0.0000000000000000000 ) ) ;
#203 = DIRECTION ( 'NONE',  ( -1.000000000000000000, -0.0000000000000000000, -0.0000000000000000000 ) ) ;
#204 = CARTESIAN_POINT ( 'NONE',  ( 23.49999999999999645, 0.0000000000000000000, 0.0000000000000000000 ) ) ;
#205 = DIRECTION ( 'NONE',  ( -1.000000000000000000, -0.0000000000000000000, -0.0000000000000000000 ) ) ;
#206 =( GEOMETRIC_REPRESENTATION_CONTEXT ( 3 ) GLOBAL_UNCERTAINTY_ASSIGNED_CONTEXT ( ( #134 ) ) GLOBAL_UNIT_ASSIGNED_CONTEXT ( ( #225, #350, #10 ) ) REPRESENTATION_CONTEXT ( 'NONE', 'WORKASPACE' ) );
#207 = EDGE_CURVE ( 'NONE', #85, #271, #178, .T. ) ;
#208 =( GEOMETRIC_REPRESENTATION_CONTEXT ( 3 ) GLOBAL_UNCERTAINTY_ASSIGNED_CONTEXT ( ( #157 ) ) GLOBAL_UNIT_ASSIGNED_CONTEXT ( ( #280, #86, #168 ) ) REPRESENTATION_CONTEXT ( 'NONE', 'WORKASPACE' ) );
#209 = ADVANCED_FACE ( 'NONE', ( #56 ), #32, .T. ) ;
#210 = DIRECTION ( 'NONE',  ( -0.4114378277661490668, 1.116189418395628353E-16, -0.9114378277661469019 ) ) ;
#211 = VECTOR ( 'NONE', #79, 1000.000000000000000 ) ;
#212 = CARTESIAN_POINT ( 'NONE',  ( 25.50000000000000000, 0.0000000000000000000, 0.0000000000000000000 ) ) ;
#213 = LINE ( 'NONE', #215, #106 ) ;
#214 = ORIENTED_EDGE ( 'NONE', *, *, #11, .F. ) ;
#215 = CARTESIAN_POINT ( 'NONE',  ( 24.58856217223385343, 5.619367976914813916E-16, -4.588562172233853431 ) ) ;
#216 = CIRCLE ( 'NONE', #306, 4.588562172233853431 ) ;
#217 = CARTESIAN_POINT ( 'NONE',  ( 0.0000000000000000000, 0.0000000000000000000, 0.0000000000000000000 ) ) ;
#218 = PRODUCT_DEFINITION_SHAPE ( 'NONE', 'NONE',  #122 ) ;
#219 = LINE ( 'NONE', #88, #89 ) ;
#220 = DIRECTION ( 'NONE',  ( 0.0000000000000000000, 0.0000000000000000000, 1.000000000000000000 ) ) ;
#221 = PRESENTATION_STYLE_ASSIGNMENT (( #111 ) ) ;
#222 = ORIENTED_EDGE ( 'NONE', *, *, #67, .F. ) ;
#223 = FACE_OUTER_BOUND ( 'NONE', #160, .T. ) ;
#224 = AXIS2_PLACEMENT_3D ( 'NONE', #14, #44, #71 ) ;
#225 =( LENGTH_UNIT ( ) NAMED_UNIT ( * ) SI_UNIT ( .MILLI., .METRE. ) );
#226 = FILL_AREA_STYLE_COLOUR ( '', #274 ) ;
#227 = PRESENTATION_LAYER_ASSIGNMENT (  '', '', ( #239 ) ) ;
#228 = CARTESIAN_POINT ( 'NONE',  ( 0.0000000000000000000, 0.0000000000000000000, 0.0000000000000000000 ) ) ;
#229 = DIRECTION ( 'NONE',  ( -0.0000000000000000000, 1.000000000000000000, 1.224646799147353207E-16 ) ) ;
#230 = CLOSED_SHELL ( 'NONE', ( #185, #196, #48, #360, #353, #302, #348, #209, #246, #278, #126 ) ) ;
#231 = DIRECTION ( 'NONE',  ( 0.0000000000000000000, 0.0000000000000000000, 1.000000000000000000 ) ) ;
#232 = AXIS2_PLACEMENT_3D ( 'NONE', #51, #74, #311 ) ;
#233 = CARTESIAN_POINT ( 'NONE',  ( 24.58856217223385343, 0.0000000000000000000, 0.0000000000000000000 ) ) ;
#234 = EDGE_CURVE ( 'NONE', #271, #85, #296, .T. ) ;
#235 = CYLINDRICAL_SURFACE ( 'NONE', #317, 4.000000000000000000 ) ;
#236 = PRESENTATION_STYLE_ASSIGNMENT (( #129 ) ) ;
#237 = EDGE_CURVE ( 'NONE', #53, #319, #133, .T. ) ;
#238 = COLOUR_RGB ( '',0.5019607843137254832, 0.5019607843137254832, 1.000000000000000000 ) ;
#239 = STYLED_ITEM ( 'NONE', ( #8 ), #348 ) ;
#240 = DIRECTION ( 'NONE',  ( -1.000000000000000000, -0.0000000000000000000, -0.0000000000000000000 ) ) ;
#241 =( NAMED_UNIT ( * ) PLANE_ANGLE_UNIT ( ) SI_UNIT ( $, .RADIAN. ) );
#242 = ORIENTED_EDGE ( 'NONE', *, *, #237, .T. ) ;
#243 = SURFACE_STYLE_FILL_AREA ( #309 ) ;
#244 = ORIENTED_EDGE ( 'NONE', *, *, #67, .T. ) ;
#245 = TOROIDAL_SURFACE ( 'NONE', #98, 0.5000000000000004441, 6.499999999999999112 ) ;
#246 = ADVANCED_FACE ( 'NONE', ( #25 ), #148, .F. ) ;
#247 = ORIENTED_EDGE ( 'NONE', *, *, #365, .F. ) ;
#248 = CYLINDRICAL_SURFACE ( 'NONE', #70, 4.000000000000000000 ) ;
#249 = VECTOR ( 'NONE', #331, 1000.000000000000114 ) ;
#250 = VERTEX_POINT ( 'NONE', #82 ) ;
#251 = EDGE_CURVE ( 'NONE', #378, #188, #213, .T. ) ;
#252 = ORIENTED_EDGE ( 'NONE', *, *, #365, .T. ) ;
#253 = SURFACE_STYLE_USAGE ( .BOTH. , #347 ) ;
#254 = VECTOR ( 'NONE', #292, 1000.000000000000000 ) ;
#255 = ORIENTED_EDGE ( 'NONE', *, *, #326, .T. ) ;
#256 = CYLINDRICAL_SURFACE ( 'NONE', #276, 7.000000000000000000 ) ;
#257 = ORIENTED_EDGE ( 'NONE', *, *, #326, .F. ) ;
#258 =( GEOMETRIC_REPRESENTATION_CONTEXT ( 3 ) GLOBAL_UNCERTAINTY_ASSIGNED_CONTEXT ( ( #363 ) ) GLOBAL_UNIT_ASSIGNED_CONTEXT ( ( #289, #377, #38 ) ) REPRESENTATION_CONTEXT ( 'NONE', 'WORKASPACE' ) );
#259 = APPLICATION_CONTEXT ( 'automotive_design' ) ;
#260 = AXIS2_PLACEMENT_3D ( 'NONE', #264, #69, #17 ) ;
#261 = UNCERTAINTY_MEASURE_WITH_UNIT (LENGTH_MEASURE( 1.000000000000000082E-05 ), #52, 'distance_accuracy_value', 'NONE');
#262 = DIRECTION ( 'NONE',  ( -1.000000000000000000, -0.0000000000000000000, -0.0000000000000000000 ) ) ;
#263 = MECHANICAL_DESIGN_GEOMETRIC_PRESENTATION_REPRESENTATION (  '', ( #361 ), #47 ) ;
#264 = CARTESIAN_POINT ( 'NONE',  ( 6.480740698407859490, 0.0000000000000000000, 0.5000000000000004441 ) ) ;
#265 = COLOUR_RGB ( '',0.2509803921568627416, 0.2509803921568627416, 0.2509803921568627416 ) ;
#266 = EDGE_CURVE ( 'NONE', #319, #110, #59, .T. ) ;
#267 = APPLICATION_PROTOCOL_DEFINITION ( 'draft international standard', 'automotive_design', 1998, #183 ) ;
#268 = SURFACE_SIDE_STYLE ('',( #243 ) ) ;
#269 = FILL_AREA_STYLE_COLOUR ( '', #30 ) ;
#270 = DIRECTION ( 'NONE',  ( -1.000000000000000000, -0.0000000000000000000, -0.0000000000000000000 ) ) ;
#271 = VERTEX_POINT ( 'NONE', #373 ) ;
#272 =( NAMED_UNIT ( * ) SI_UNIT ( $, .STERADIAN. ) SOLID_ANGLE_UNIT ( ) );
#273 = FACE_OUTER_BOUND ( 'NONE', #23, .T. ) ;
#274 = COLOUR_RGB ( '',0.5019607843137254832, 0.5019607843137254832, 1.000000000000000000 ) ;
#275 = ORIENTED_EDGE ( 'NONE', *, *, #120, .T. ) ;
#276 = AXIS2_PLACEMENT_3D ( 'NONE', #153, #354, #147 ) ;
#277 = ORIENTED_EDGE ( 'NONE', *, *, #234, .F. ) ;
#278 = ADVANCED_FACE ( 'NONE', ( #273 ), #248, .T. ) ;
#279 = AXIS2_PLACEMENT_3D ( 'NONE', #212, #240, #332 ) ;
#280 =( LENGTH_UNIT ( ) NAMED_UNIT ( * ) SI_UNIT ( .MILLI., .METRE. ) );
#281 = ORIENTED_EDGE ( 'NONE', *, *, #266, .T. ) ;
#282 =( NAMED_UNIT ( * ) SI_UNIT ( $, .STERADIAN. ) SOLID_ANGLE_UNIT ( ) );
#283 = ORIENTED_EDGE ( 'NONE', *, *, #4, .F. ) ;
#284 = PRODUCT ( 'AZ-067408', 'AZ-067408', '', ( #29 ) ) ;
#285 = DIRECTION ( 'NONE',  ( -1.000000000000000000, -0.0000000000000000000, -0.0000000000000000000 ) ) ;
#286 = CIRCLE ( 'NONE', #191, 4.000000000000000000 ) ;
#287 = AXIS2_PLACEMENT_3D ( 'NONE', #62, #116, #199 ) ;
#288 = CARTESIAN_POINT ( 'NONE',  ( 24.58856217223385343, 0.0000000000000000000, 0.0000000000000000000 ) ) ;
#289 =( LENGTH_UNIT ( ) NAMED_UNIT ( * ) SI_UNIT ( .MILLI., .METRE. ) );
#290 = DIRECTION ( 'NONE',  ( 0.0000000000000000000, -1.224646799147353207E-16, 1.000000000000000000 ) ) ;
#291 = UNCERTAINTY_MEASURE_WITH_UNIT (LENGTH_MEASURE( 1.000000000000000082E-05 ), #143, 'distance_accuracy_value', 'NONE');
#292 = DIRECTION ( 'NONE',  ( -1.000000000000000000, -0.0000000000000000000, -0.0000000000000000000 ) ) ;
#293 = AXIS2_PLACEMENT_3D ( 'NONE', #204, #262, #15 ) ;
#294 = AXIS2_PLACEMENT_3D ( 'NONE', #228, #203, #173 ) ;
#295 = LINE ( 'NONE', #330, #254 ) ;
#296 = CIRCLE ( 'NONE', #279, 4.000000000000000000 ) ;
#297 = CARTESIAN_POINT ( 'NONE',  ( 24.58856217223385343, 7.095947785473143060E-16, -4.588562172233853431 ) ) ;
#298 = FILL_AREA_STYLE_COLOUR ( '', #151 ) ;
#299 =( LENGTH_UNIT ( ) NAMED_UNIT ( * ) SI_UNIT ( .MILLI., .METRE. ) );
#300 = CARTESIAN_POINT ( 'NONE',  ( 23.49999999999999645, 8.572527594031473190E-16, -7.000000000000000000 ) ) ;
#301 = ORIENTED_EDGE ( 'NONE', *, *, #138, .F. ) ;
#302 = ADVANCED_FACE ( 'NONE', ( #366 ), #245, .T. ) ;
#303 = DIRECTION ( 'NONE',  ( 0.0000000000000000000, 0.0000000000000000000, 1.000000000000000000 ) ) ;
#304 = STYLED_ITEM ( 'NONE', ( #236 ), #43 ) ;
#305 = ORIENTED_EDGE ( 'NONE', *, *, #237, .F. ) ;
#306 = AXIS2_PLACEMENT_3D ( 'NONE', #288, #39, #37 ) ;
#307 = VECTOR ( 'NONE', #285, 1000.000000000000000 ) ;
#308 = CIRCLE ( 'NONE', #101, 4.588562172233853431 ) ;
#309 = FILL_AREA_STYLE ('',( #298 ) ) ;
#310 = ORIENTED_EDGE ( 'NONE', *, *, #234, .T. ) ;
#311 = DIRECTION ( 'NONE',  ( 0.0000000000000000000, 0.0000000000000000000, 1.000000000000000000 ) ) ;
#312 = ORIENTED_EDGE ( 'NONE', *, *, #92, .T. ) ;
#313 = FILL_AREA_STYLE ('',( #201 ) ) ;
#314 = DIRECTION ( 'NONE',  ( 0.0000000000000000000, 0.0000000000000000000, -1.000000000000000000 ) ) ;
#315 = SHAPE_DEFINITION_REPRESENTATION ( #218, #43 ) ;
#316 = AXIS2_PLACEMENT_3D ( 'NONE', #77, #28, #159 ) ;
#317 = AXIS2_PLACEMENT_3D ( 'NONE', #73, #156, #187 ) ;
#318 = CARTESIAN_POINT ( 'NONE',  ( 6.480740698407859490, 0.0000000000000000000, 0.0000000000000000000 ) ) ;
#319 = VERTEX_POINT ( 'NONE', #189 ) ;
#320 = DIRECTION ( 'NONE',  ( -1.000000000000000000, -0.0000000000000000000, -0.0000000000000000000 ) ) ;
#321 = COLOUR_RGB ( '',0.5019607843137254832, 0.5019607843137254832, 1.000000000000000000 ) ;
#322 = LINE ( 'NONE', #61, #307 ) ;
#323 = FACE_OUTER_BOUND ( 'NONE', #64, .T. ) ;
#324 = FILL_AREA_STYLE ('',( #2 ) ) ;
#325 = UNCERTAINTY_MEASURE_WITH_UNIT (LENGTH_MEASURE( 1.000000000000000082E-05 ), #299, 'distance_accuracy_value', 'NONE');
#326 = EDGE_CURVE ( 'NONE', #375, #271, #219, .T. ) ;
#327 = FILL_AREA_STYLE ('',( #226 ) ) ;
#328 = CARTESIAN_POINT ( 'NONE',  ( 6.480740698407859490, 0.0000000000000000000, 0.0000000000000000000 ) ) ;
#329 = PRODUCT_DEFINITION_CONTEXT ( 'detailed design', #259, 'design' ) ;
#330 = CARTESIAN_POINT ( 'NONE',  ( 0.0000000000000000000, 8.572527594031473190E-16, -7.000000000000000000 ) ) ;
#331 = DIRECTION ( 'NONE',  ( -0.4114378277661490668, 0.0000000000000000000, 0.9114378277661469019 ) ) ;
#332 = DIRECTION ( 'NONE',  ( 0.0000000000000000000, 0.0000000000000000000, 1.000000000000000000 ) ) ;
#333 = CIRCLE ( 'NONE', #293, 7.000000000000000000 ) ;
#334 = CARTESIAN_POINT ( 'NONE',  ( 0.0000000000000000000, 0.0000000000000000000, 0.0000000000000000000 ) ) ;
#335 = EDGE_LOOP ( 'NONE', ( #83, #367, #310, #283 ) ) ;
#336 = CARTESIAN_POINT ( 'NONE',  ( 43.50000000000000000, 0.0000000000000000000, 0.0000000000000000000 ) ) ;
#337 = ORIENTED_EDGE ( 'NONE', *, *, #266, .F. ) ;
#338 = PRODUCT_RELATED_PRODUCT_CATEGORY ( 'part', '', ( #284 ) ) ;
#339 = CARTESIAN_POINT ( 'NONE',  ( 6.480740698407859490, 0.0000000000000000000, 0.0000000000000000000 ) ) ;
#340 = ORIENTED_EDGE ( 'NONE', *, *, #251, .F. ) ;
#341 = AXIS2_PLACEMENT_3D ( 'NONE', #328, #121, #357 ) ;
#342 = CARTESIAN_POINT ( 'NONE',  ( 0.0000000000000000000, 0.0000000000000000000, 0.0000000000000000000 ) ) ;
#343 = CARTESIAN_POINT ( 'NONE',  ( 25.50000000000000000, 0.0000000000000000000, 0.0000000000000000000 ) ) ;
#344 = EDGE_LOOP ( 'NONE', ( #340, #50, #81, #57 ) ) ;
#345 = SURFACE_SIDE_STYLE ('',( #1 ) ) ;
#346 = DIRECTION ( 'NONE',  ( -1.000000000000000000, -0.0000000000000000000, -0.0000000000000000000 ) ) ;
#347 = SURFACE_SIDE_STYLE ('',( #112 ) ) ;
#348 = ADVANCED_FACE ( 'NONE', ( #135 ), #90, .T. ) ;
#349 = PRESENTATION_LAYER_ASSIGNMENT (  '', '', ( #361 ) ) ;
#350 =( NAMED_UNIT ( * ) PLANE_ANGLE_UNIT ( ) SI_UNIT ( $, .RADIAN. ) );
#351 = SURFACE_STYLE_FILL_AREA ( #141 ) ;
#352 = DIRECTION ( 'NONE',  ( 0.0000000000000000000, -1.224646799147352468E-16, 1.000000000000000000 ) ) ;
#353 = ADVANCED_FACE ( 'NONE', ( #323 ), #170, .T. ) ;
#354 = DIRECTION ( 'NONE',  ( -1.000000000000000000, -0.0000000000000000000, -0.0000000000000000000 ) ) ;
#355 = AXIS2_PLACEMENT_3D ( 'NONE', #91, #202, #231 ) ;
#356 = DIRECTION ( 'NONE',  ( -1.000000000000000000, 0.0000000000000000000, -0.0000000000000000000 ) ) ;
#357 = DIRECTION ( 'NONE',  ( 0.0000000000000000000, 0.0000000000000000000, 1.000000000000000000 ) ) ;
#358 = CARTESIAN_POINT ( 'NONE',  ( 43.50000000000000000, 4.000000000000000000, 0.0000000000000000000 ) ) ;
#359 = AXIS2_PLACEMENT_3D ( 'NONE', #343, #102, #362 ) ;
#360 = ADVANCED_FACE ( 'NONE', ( #223 ), #256, .T. ) ;
#361 = STYLED_ITEM ( 'NONE', ( #194 ), #302 ) ;
#362 = DIRECTION ( 'NONE',  ( 0.0000000000000000000, 0.0000000000000000000, 1.000000000000000000 ) ) ;
#363 = UNCERTAINTY_MEASURE_WITH_UNIT (LENGTH_MEASURE( 1.000000000000000082E-05 ), #289, 'distance_accuracy_value', 'NONE');
#364 =( LENGTH_UNIT ( ) NAMED_UNIT ( * ) SI_UNIT ( .MILLI., .METRE. ) );
#365 = EDGE_CURVE ( 'NONE', #250, #375, #286, .T. ) ;
#366 = FACE_OUTER_BOUND ( 'NONE', #117, .T. ) ;
#367 = ORIENTED_EDGE ( 'NONE', *, *, #84, .T. ) ;
#368 = DIRECTION ( 'NONE',  ( -1.000000000000000000, -0.0000000000000000000, -0.0000000000000000000 ) ) ;
#369 = EDGE_LOOP ( 'NONE', ( #186, #55, #301, #175 ) ) ;
#370 = PRESENTATION_LAYER_ASSIGNMENT (  '', '', ( #21 ) ) ;
#371 = MECHANICAL_DESIGN_GEOMETRIC_PRESENTATION_REPRESENTATION (  '', ( #239 ), #208 ) ;
#372 = ORIENTED_EDGE ( 'NONE', *, *, #41, .T. ) ;
#373 = CARTESIAN_POINT ( 'NONE',  ( 25.50000000000000000, 5.258977586752113866E-16, -4.000000000000000000 ) ) ;
#374 = MECHANICAL_DESIGN_GEOMETRIC_PRESENTATION_REPRESENTATION (  '', ( #304 ), #165 ) ;
#375 = VERTEX_POINT ( 'NONE', #180 ) ;
#376 = CIRCLE ( 'NONE', #166, 0.9999999999999983347 ) ;
#377 =( NAMED_UNIT ( * ) PLANE_ANGLE_UNIT ( ) SI_UNIT ( $, .RADIAN. ) );
#378 = VERTEX_POINT ( 'NONE', #297 ) ;
ENDSEC;
END-ISO-10303-21;
