ISO-10303-21;
HEADER;
FILE_DESCRIPTION (( 'STEP AP214' ),
    '1' );
FILE_NAME ('AZ-067410.STEP',
    '2020-03-31T13:13:31',
    ( '' ),
    ( '' ),
    'SwSTEP 2.0',
    'SolidWorks 2020',
    '' );
FILE_SCHEMA (( 'AUTOMOTIVE_DESIGN' ));
ENDSEC;

DATA;
#1 = ORIENTED_EDGE ( 'NONE', *, *, #57, .T. ) ;
#2 = FILL_AREA_STYLE ('',( #219 ) ) ;
#3 = PRODUCT_DEFINITION ( 'UNKNOWN', '', #84, #91 ) ;
#4 = EDGE_LOOP ( 'NONE', ( #124, #181, #345, #192 ) ) ;
#5 =( NAMED_UNIT ( * ) PLANE_ANGLE_UNIT ( ) SI_UNIT ( $, .RADIAN. ) );
#6 = ORIENTED_EDGE ( 'NONE', *, *, #336, .F. ) ;
#7 = EDGE_CURVE ( 'NONE', #162, #156, #176, .T. ) ;
#8 = ORIENTED_EDGE ( 'NONE', *, *, #197, .T. ) ;
#9 = DIRECTION ( 'NONE',  ( -1.000000000000000000, -0.0000000000000000000, -0.0000000000000000000 ) ) ;
#10 = CIRCLE ( 'NONE', #145, 5.502449642358613779 ) ;
#11 = VERTEX_POINT ( 'NONE', #188 ) ;
#12 = DIRECTION ( 'NONE',  ( -0.0000000000000000000, 0.0000000000000000000, 1.000000000000000000 ) ) ;
#13 = CARTESIAN_POINT ( 'NONE',  ( 57.49999999999999289, 0.0000000000000000000, 0.0000000000000000000 ) ) ;
#14 = AXIS2_PLACEMENT_3D ( 'NONE', #13, #202, #108 ) ;
#15 = AXIS2_PLACEMENT_3D ( 'NONE', #378, #349, #221 ) ;
#16 = CARTESIAN_POINT ( 'NONE',  ( 8.000000000000000000, 0.0000000000000000000, 0.0000000000000000000 ) ) ;
#17 = DIRECTION ( 'NONE',  ( 0.0000000000000000000, -1.224646799147353700E-16, 1.000000000000000000 ) ) ;
#18 = DIRECTION ( 'NONE',  ( 0.0000000000000000000, 0.0000000000000000000, 1.000000000000000000 ) ) ;
#19 = PRESENTATION_STYLE_ASSIGNMENT (( #169 ) ) ;
#20 = TOROIDAL_SURFACE ( 'NONE', #170, 6.000000000000000888, 1.000000000000003997 ) ;
#21 = UNCERTAINTY_MEASURE_WITH_UNIT (LENGTH_MEASURE( 1.000000000000000082E-05 ), #95, 'distance_accuracy_value', 'NONE');
#22 = DIRECTION ( 'NONE',  ( -1.000000000000000000, -0.0000000000000000000, -0.0000000000000000000 ) ) ;
#23 =( LENGTH_UNIT ( ) NAMED_UNIT ( * ) SI_UNIT ( .MILLI., .METRE. ) );
#24 =( GEOMETRIC_REPRESENTATION_CONTEXT ( 3 ) GLOBAL_UNCERTAINTY_ASSIGNED_CONTEXT ( ( #363 ) ) GLOBAL_UNIT_ASSIGNED_CONTEXT ( ( #373, #183, #55 ) ) REPRESENTATION_CONTEXT ( 'NONE', 'WORKASPACE' ) );
#25 = CARTESIAN_POINT ( 'NONE',  ( 34.80000000000000426, 0.0000000000000000000, 5.000000000000000000 ) ) ;
#26 = ORIENTED_EDGE ( 'NONE', *, *, #81, .T. ) ;
#27 = PRESENTATION_LAYER_ASSIGNMENT (  '', '', ( #151 ) ) ;
#28 = SURFACE_STYLE_USAGE ( .BOTH. , #37 ) ;
#29 = MECHANICAL_DESIGN_GEOMETRIC_PRESENTATION_REPRESENTATION (  '', ( #191 ), #86 ) ;
#30 = EDGE_LOOP ( 'NONE', ( #339, #184, #286, #129 ) ) ;
#31 = COLOUR_RGB ( '',0.5019607843137254832, 0.5019607843137254832, 1.000000000000000000 ) ;
#32 = ORIENTED_EDGE ( 'NONE', *, *, #140, .T. ) ;
#33 = DIRECTION ( 'NONE',  ( 1.000000000000000000, 0.0000000000000000000, 0.0000000000000000000 ) ) ;
#34 = EDGE_LOOP ( 'NONE', ( #123, #372, #215, #121 ) ) ;
#35 = PRESENTATION_STYLE_ASSIGNMENT (( #211 ) ) ;
#36 = DIRECTION ( 'NONE',  ( 0.0000000000000000000, 1.000000000000000000, 0.0000000000000000000 ) ) ;
#37 = SURFACE_SIDE_STYLE ('',( #319 ) ) ;
#38 = VERTEX_POINT ( 'NONE', #329 ) ;
#39 =( LENGTH_UNIT ( ) NAMED_UNIT ( * ) SI_UNIT ( .MILLI., .METRE. ) );
#40 = SURFACE_SIDE_STYLE ('',( #320 ) ) ;
#41 = AXIS2_PLACEMENT_3D ( 'NONE', #249, #100, #36 ) ;
#42 = SURFACE_STYLE_FILL_AREA ( #227 ) ;
#43 = DIRECTION ( 'NONE',  ( 0.0000000000000000000, 0.0000000000000000000, 1.000000000000000000 ) ) ;
#44 = STYLED_ITEM ( 'NONE', ( #238 ), #220 ) ;
#45 = FACE_OUTER_BOUND ( 'NONE', #334, .T. ) ;
#46 = COLOUR_RGB ( '',0.5019607843137254832, 0.5019607843137254832, 1.000000000000000000 ) ;
#47 = CARTESIAN_POINT ( 'NONE',  ( 34.80000000000000426, 0.0000000000000000000, 6.000000000000000888 ) ) ;
#48 = EDGE_CURVE ( 'NONE', #223, #276, #371, .T. ) ;
#49 = CARTESIAN_POINT ( 'NONE',  ( 33.93256490639879530, 0.0000000000000000000, 5.502449642358613779 ) ) ;
#50 = CARTESIAN_POINT ( 'NONE',  ( 34.80000000000000426, 0.0000000000000000000, 0.0000000000000000000 ) ) ;
#51 = SURFACE_STYLE_USAGE ( .BOTH. , #331 ) ;
#52 = DIRECTION ( 'NONE',  ( 0.0000000000000000000, 0.0000000000000000000, 1.000000000000000000 ) ) ;
#53 = APPLICATION_CONTEXT ( 'automotive_design' ) ;
#54 =( GEOMETRIC_REPRESENTATION_CONTEXT ( 3 ) GLOBAL_UNCERTAINTY_ASSIGNED_CONTEXT ( ( #306 ) ) GLOBAL_UNIT_ASSIGNED_CONTEXT ( ( #23, #389, #114 ) ) REPRESENTATION_CONTEXT ( 'NONE', 'WORKASPACE' ) );
#55 =( NAMED_UNIT ( * ) SI_UNIT ( $, .STERADIAN. ) SOLID_ANGLE_UNIT ( ) );
#56 = FILL_AREA_STYLE ('',( #134 ) ) ;
#57 = EDGE_CURVE ( 'NONE', #156, #38, #335, .T. ) ;
#58 = EDGE_LOOP ( 'NONE', ( #364, #8, #317, #240 ) ) ;
#59 = TOROIDAL_SURFACE ( 'NONE', #296, 6.000000000000000888, 1.000000000000003997 ) ;
#60 = ORIENTED_EDGE ( 'NONE', *, *, #263, .F. ) ;
#61 = PRODUCT_CONTEXT ( 'NONE', #70, 'mechanical' ) ;
#62 = CIRCLE ( 'NONE', #118, 8.000000000000000000 ) ;
#63 = DIRECTION ( 'NONE',  ( -1.000000000000000000, -0.0000000000000000000, -0.0000000000000000000 ) ) ;
#64 = APPLICATION_PROTOCOL_DEFINITION ( 'draft international standard', 'automotive_design', 1998, #53 ) ;
#65 = EDGE_CURVE ( 'NONE', #11, #243, #225, .T. ) ;
#66 = ORIENTED_EDGE ( 'NONE', *, *, #312, .T. ) ;
#67 =( LENGTH_UNIT ( ) NAMED_UNIT ( * ) SI_UNIT ( .MILLI., .METRE. ) );
#68 = PLANE ( 'NONE',  #241 ) ;
#69 = ORIENTED_EDGE ( 'NONE', *, *, #146, .F. ) ;
#70 = APPLICATION_CONTEXT ( 'automotive_design' ) ;
#71 = AXIS2_PLACEMENT_3D ( 'NONE', #195, #172, #85 ) ;
#72 = CARTESIAN_POINT ( 'NONE',  ( 32.50000000000000000, 0.0000000000000000000, 0.0000000000000000000 ) ) ;
#73 = MECHANICAL_DESIGN_GEOMETRIC_PRESENTATION_REPRESENTATION (  '', ( #44 ), #101 ) ;
#74 = DIRECTION ( 'NONE',  ( -0.0000000000000000000, 1.000000000000000000, 1.224646799147353207E-16 ) ) ;
#75 = EDGE_CURVE ( 'NONE', #38, #126, #98, .T. ) ;
#76 = LINE ( 'NONE', #109, #236 ) ;
#77 = DIRECTION ( 'NONE',  ( 0.0000000000000000000, 0.0000000000000000000, 1.000000000000000000 ) ) ;
#78 = FACE_OUTER_BOUND ( 'NONE', #4, .T. ) ;
#79 = MECHANICAL_DESIGN_GEOMETRIC_PRESENTATION_REPRESENTATION (  '', ( #147 ), #54 ) ;
#80 =( NAMED_UNIT ( * ) SI_UNIT ( $, .STERADIAN. ) SOLID_ANGLE_UNIT ( ) );
#81 = EDGE_CURVE ( 'NONE', #276, #243, #137, .T. ) ;
#82 =( LENGTH_UNIT ( ) NAMED_UNIT ( * ) SI_UNIT ( .MILLI., .METRE. ) );
#83 = UNCERTAINTY_MEASURE_WITH_UNIT (LENGTH_MEASURE( 1.000000000000000082E-05 ), #111, 'distance_accuracy_value', 'NONE');
#84 = PRODUCT_DEFINITION_FORMATION_WITH_SPECIFIED_SOURCE ( 'ANY', '', #194, .NOT_KNOWN. ) ;
#85 = DIRECTION ( 'NONE',  ( 0.0000000000000000000, 0.0000000000000000000, 1.000000000000000000 ) ) ;
#86 =( GEOMETRIC_REPRESENTATION_CONTEXT ( 3 ) GLOBAL_UNCERTAINTY_ASSIGNED_CONTEXT ( ( #83 ) ) GLOBAL_UNIT_ASSIGNED_CONTEXT ( ( #111, #350, #80 ) ) REPRESENTATION_CONTEXT ( 'NONE', 'WORKASPACE' ) );
#87 = FILL_AREA_STYLE ('',( #205 ) ) ;
#88 = PRESENTATION_LAYER_ASSIGNMENT (  '', '', ( #398 ) ) ;
#89 = EDGE_CURVE ( 'NONE', #126, #395, #93, .T. ) ;
#90 = DIRECTION ( 'NONE',  ( -1.000000000000000000, -0.0000000000000000000, -0.0000000000000000000 ) ) ;
#91 = PRODUCT_DEFINITION_CONTEXT ( 'detailed design', #53, 'design' ) ;
#92 = CARTESIAN_POINT ( 'NONE',  ( 0.0000000000000000000, 0.0000000000000000000, 8.000000000000000000 ) ) ;
#93 = CIRCLE ( 'NONE', #209, 8.000000000000000000 ) ;
#94 = CARTESIAN_POINT ( 'NONE',  ( 8.000000000000000000, 0.0000000000000000000, 0.0000000000000000000 ) ) ;
#95 =( LENGTH_UNIT ( ) NAMED_UNIT ( * ) SI_UNIT ( .MILLI., .METRE. ) );
#96 = VERTEX_POINT ( 'NONE', #352 ) ;
#97 = EDGE_CURVE ( 'NONE', #223, #248, #302, .T. ) ;
#98 = CIRCLE ( 'NONE', #155, 8.000000000000000000 ) ;
#99 = EDGE_LOOP ( 'NONE', ( #368, #1, #127, #208 ) ) ;
#100 = DIRECTION ( 'NONE',  ( -0.0000000000000000000, 0.0000000000000000000, -1.000000000000000000 ) ) ;
#101 =( GEOMETRIC_REPRESENTATION_CONTEXT ( 3 ) GLOBAL_UNCERTAINTY_ASSIGNED_CONTEXT ( ( #142 ) ) GLOBAL_UNIT_ASSIGNED_CONTEXT ( ( #82, #233, #117 ) ) REPRESENTATION_CONTEXT ( 'NONE', 'WORKASPACE' ) );
#102 = CARTESIAN_POINT ( 'NONE',  ( 57.49999999999999289, 0.0000000000000000000, 5.000000000000000000 ) ) ;
#103 = LINE ( 'NONE', #235, #112 ) ;
#104 = ORIENTED_EDGE ( 'NONE', *, *, #295, .F. ) ;
#105 = FACE_OUTER_BOUND ( 'NONE', #34, .T. ) ;
#106 = DIRECTION ( 'NONE',  ( -1.000000000000000000, -0.0000000000000000000, -0.0000000000000000000 ) ) ;
#107 = MANIFOLD_SOLID_BREP ( 'Revolve1', #268 ) ;
#108 = DIRECTION ( 'NONE',  ( 0.0000000000000000000, 0.0000000000000000000, 1.000000000000000000 ) ) ;
#109 = CARTESIAN_POINT ( 'NONE',  ( 0.0000000000000000000, 9.797174393178825657E-16, -8.000000000000000000 ) ) ;
#110 = FACE_OUTER_BOUND ( 'NONE', #284, .T. ) ;
#111 =( LENGTH_UNIT ( ) NAMED_UNIT ( * ) SI_UNIT ( .MILLI., .METRE. ) );
#112 = VECTOR ( 'NONE', #358, 1000.000000000000000 ) ;
#113 = DIRECTION ( 'NONE',  ( 0.0000000000000000000, 0.0000000000000000000, -1.000000000000000000 ) ) ;
#114 =( NAMED_UNIT ( * ) SI_UNIT ( $, .STERADIAN. ) SOLID_ANGLE_UNIT ( ) );
#115 = PRESENTATION_LAYER_ASSIGNMENT (  '', '', ( #212 ) ) ;
#116 = FACE_OUTER_BOUND ( 'NONE', #310, .T. ) ;
#117 =( NAMED_UNIT ( * ) SI_UNIT ( $, .STERADIAN. ) SOLID_ANGLE_UNIT ( ) );
#118 = AXIS2_PLACEMENT_3D ( 'NONE', #396, #180, #309 ) ;
#119 = CARTESIAN_POINT ( 'NONE',  ( 34.80000000000000426, 0.0000000000000000000, 0.0000000000000000000 ) ) ;
#120 = ADVANCED_FACE ( 'NONE', ( #132 ), #20, .F. ) ;
#121 = ORIENTED_EDGE ( 'NONE', *, *, #89, .F. ) ;
#122 = CARTESIAN_POINT ( 'NONE',  ( 57.49999999999999289, 6.123233995736766282E-16, -5.000000000000000000 ) ) ;
#123 = ORIENTED_EDGE ( 'NONE', *, *, #295, .T. ) ;
#124 = ORIENTED_EDGE ( 'NONE', *, *, #179, .F. ) ;
#125 = ADVANCED_FACE ( 'NONE', ( #45 ), #264, .T. ) ;
#126 = VERTEX_POINT ( 'NONE', #232 ) ;
#127 = ORIENTED_EDGE ( 'NONE', *, *, #75, .T. ) ;
#128 = CARTESIAN_POINT ( 'NONE',  ( 34.80000000000000426, 7.347880794884120722E-16, -6.000000000000000888 ) ) ;
#129 = ORIENTED_EDGE ( 'NONE', *, *, #312, .F. ) ;
#130 = CARTESIAN_POINT ( 'NONE',  ( 33.93256490639879530, 0.0000000000000000000, 0.0000000000000000000 ) ) ;
#131 =( GEOMETRIC_REPRESENTATION_CONTEXT ( 3 ) GLOBAL_UNCERTAINTY_ASSIGNED_CONTEXT ( ( #21 ) ) GLOBAL_UNIT_ASSIGNED_CONTEXT ( ( #95, #5, #340 ) ) REPRESENTATION_CONTEXT ( 'NONE', 'WORKASPACE' ) );
#132 = FACE_OUTER_BOUND ( 'NONE', #58, .T. ) ;
#133 = ADVANCED_FACE ( 'NONE', ( #78 ), #230, .T. ) ;
#134 = FILL_AREA_STYLE_COLOUR ( '', #391 ) ;
#135 = DIRECTION ( 'NONE',  ( 0.0000000000000000000, 0.0000000000000000000, 1.000000000000000000 ) ) ;
#136 = DIRECTION ( 'NONE',  ( 0.0000000000000000000, 0.0000000000000000000, 1.000000000000000000 ) ) ;
#137 = CIRCLE ( 'NONE', #359, 1.000000000000003553 ) ;
#138 = CIRCLE ( 'NONE', #360, 8.000000000000000000 ) ;
#139 = CARTESIAN_POINT ( 'NONE',  ( 34.80000000000000426, 0.0000000000000000000, 0.0000000000000000000 ) ) ;
#140 = EDGE_CURVE ( 'NONE', #289, #341, #185, .T. ) ;
#141 = SURFACE_SIDE_STYLE ('',( #42 ) ) ;
#142 = UNCERTAINTY_MEASURE_WITH_UNIT (LENGTH_MEASURE( 1.000000000000000082E-05 ), #82, 'distance_accuracy_value', 'NONE');
#143 = CARTESIAN_POINT ( 'NONE',  ( 0.0000000000000000000, 0.0000000000000000000, 0.0000000000000000000 ) ) ;
#144 = SPHERICAL_SURFACE ( 'NONE', #288, 8.000000000000000000 ) ;
#145 = AXIS2_PLACEMENT_3D ( 'NONE', #130, #279, #376 ) ;
#146 = EDGE_CURVE ( 'NONE', #248, #162, #76, .T. ) ;
#147 = STYLED_ITEM ( 'NONE', ( #19 ), #203 ) ;
#148 = CARTESIAN_POINT ( 'NONE',  ( 32.50000000000000000, 9.797174393178825657E-16, -8.000000000000000000 ) ) ;
#149 = FILL_AREA_STYLE ('',( #224 ) ) ;
#150 = ADVANCED_FACE ( 'NONE', ( #116 ), #59, .F. ) ;
#151 = STYLED_ITEM ( 'NONE', ( #35 ), #297 ) ;
#152 = PRESENTATION_STYLE_ASSIGNMENT (( #182 ) ) ;
#153 = DIRECTION ( 'NONE',  ( 0.0000000000000000000, 0.0000000000000000000, 1.000000000000000000 ) ) ;
#154 = DIRECTION ( 'NONE',  ( -1.000000000000000000, -0.0000000000000000000, -0.0000000000000000000 ) ) ;
#155 = AXIS2_PLACEMENT_3D ( 'NONE', #381, #229, #259 ) ;
#156 = VERTEX_POINT ( 'NONE', #234 ) ;
#157 = ADVANCED_FACE ( 'NONE', ( #110 ), #366, .T. ) ;
#158 = EDGE_LOOP ( 'NONE', ( #187, #160, #104, #344, #278 ) ) ;
#159 =( NAMED_UNIT ( * ) PLANE_ANGLE_UNIT ( ) SI_UNIT ( $, .RADIAN. ) );
#160 = ORIENTED_EDGE ( 'NONE', *, *, #146, .T. ) ;
#161 = PRESENTATION_LAYER_ASSIGNMENT (  '', '', ( #191 ) ) ;
#162 = VERTEX_POINT ( 'NONE', #231 ) ;
#163 = CARTESIAN_POINT ( 'NONE',  ( 0.0000000000000000000, 4.898587196589412829E-16, 0.0000000000000000000 ) ) ;
#164 =( NAMED_UNIT ( * ) PLANE_ANGLE_UNIT ( ) SI_UNIT ( $, .RADIAN. ) );
#165 = LINE ( 'NONE', #291, #250 ) ;
#166 = EDGE_LOOP ( 'NONE', ( #69, #66, #292, #314, #217 ) ) ;
#167 = DIRECTION ( 'NONE',  ( 0.0000000000000000000, 0.0000000000000000000, 1.000000000000000000 ) ) ;
#168 =( GEOMETRIC_REPRESENTATION_CONTEXT ( 3 ) GLOBAL_UNCERTAINTY_ASSIGNED_CONTEXT ( ( #269 ) ) GLOBAL_UNIT_ASSIGNED_CONTEXT ( ( #67, #159, #190 ) ) REPRESENTATION_CONTEXT ( 'NONE', 'WORKASPACE' ) );
#169 = SURFACE_STYLE_USAGE ( .BOTH. , #40 ) ;
#170 = AXIS2_PLACEMENT_3D ( 'NONE', #139, #106, #43 ) ;
#171 = AXIS2_PLACEMENT_3D ( 'NONE', #174, #357, #362 ) ;
#172 = DIRECTION ( 'NONE',  ( -1.000000000000000000, -0.0000000000000000000, -0.0000000000000000000 ) ) ;
#173 = AXIS2_PLACEMENT_3D ( 'NONE', #72, #9, #311 ) ;
#174 = CARTESIAN_POINT ( 'NONE',  ( 33.93256490639879530, 0.0000000000000000000, 0.0000000000000000000 ) ) ;
#175 = UNCERTAINTY_MEASURE_WITH_UNIT (LENGTH_MEASURE( 1.000000000000000082E-05 ), #39, 'distance_accuracy_value', 'NONE');
#176 = CIRCLE ( 'NONE', #274, 8.000000000000000000 ) ;
#177 = AXIS2_PLACEMENT_3D ( 'NONE', #355, #154, #365 ) ;
#178 = LINE ( 'NONE', #49, #226 ) ;
#179 = EDGE_CURVE ( 'NONE', #341, #11, #165, .T. ) ;
#180 = DIRECTION ( 'NONE',  ( -1.000000000000000000, -0.0000000000000000000, -0.0000000000000000000 ) ) ;
#181 = ORIENTED_EDGE ( 'NONE', *, *, #263, .T. ) ;
#182 = SURFACE_STYLE_USAGE ( .BOTH. , #394 ) ;
#183 =( NAMED_UNIT ( * ) PLANE_ANGLE_UNIT ( ) SI_UNIT ( $, .RADIAN. ) );
#184 = ORIENTED_EDGE ( 'NONE', *, *, #48, .T. ) ;
#185 = CIRCLE ( 'NONE', #14, 5.000000000000000000 ) ;
#186 = CIRCLE ( 'NONE', #15, 8.000000000000000000 ) ;
#187 = ORIENTED_EDGE ( 'NONE', *, *, #332, .T. ) ;
#188 = CARTESIAN_POINT ( 'NONE',  ( 34.80000000000000426, 6.430895668860369948E-16, -5.000000000000000000 ) ) ;
#189 = EDGE_LOOP ( 'NONE', ( #367, #60 ) ) ;
#190 =( NAMED_UNIT ( * ) SI_UNIT ( $, .STERADIAN. ) SOLID_ANGLE_UNIT ( ) );
#191 = STYLED_ITEM ( 'NONE', ( #201 ), #107 ) ;
#192 = ORIENTED_EDGE ( 'NONE', *, *, #65, .F. ) ;
#193 = DIRECTION ( 'NONE',  ( -1.000000000000000000, 0.0000000000000000000, -0.0000000000000000000 ) ) ;
#194 = PRODUCT ( 'AZ-067410', 'AZ-067410', '', ( #61 ) ) ;
#195 = CARTESIAN_POINT ( 'NONE',  ( 0.0000000000000000000, 0.0000000000000000000, 0.0000000000000000000 ) ) ;
#196 = DIRECTION ( 'NONE',  ( -1.000000000000000000, -0.0000000000000000000, -0.0000000000000000000 ) ) ;
#197 = EDGE_CURVE ( 'NONE', #223, #11, #342, .T. ) ;
#198 = DIRECTION ( 'NONE',  ( -1.000000000000000000, -0.0000000000000000000, -0.0000000000000000000 ) ) ;
#199 = DIRECTION ( 'NONE',  ( -1.000000000000000000, -0.0000000000000000000, -0.0000000000000000000 ) ) ;
#200 = COLOUR_RGB ( '',0.5019607843137254832, 0.5019607843137254832, 1.000000000000000000 ) ;
#201 = PRESENTATION_STYLE_ASSIGNMENT (( #354 ) ) ;
#202 = DIRECTION ( 'NONE',  ( -1.000000000000000000, -0.0000000000000000000, -0.0000000000000000000 ) ) ;
#203 = ADVANCED_FACE ( 'NONE', ( #253 ), #144, .T. ) ;
#204 = PRESENTATION_LAYER_ASSIGNMENT (  '', '', ( #44 ) ) ;
#205 = FILL_AREA_STYLE_COLOUR ( '', #31 ) ;
#206 = CARTESIAN_POINT ( 'NONE',  ( 33.93256490639879530, 8.267865867581400128E-16, -5.502449642358613779 ) ) ;
#207 = EDGE_CURVE ( 'NONE', #289, #243, #103, .T. ) ;
#208 = ORIENTED_EDGE ( 'NONE', *, *, #89, .T. ) ;
#209 = AXIS2_PLACEMENT_3D ( 'NONE', #16, #384, #377 ) ;
#210 = CARTESIAN_POINT ( 'NONE',  ( 57.49999999999999289, 5.000000000000000000, 0.0000000000000000000 ) ) ;
#211 = SURFACE_STYLE_USAGE ( .BOTH. , #255 ) ;
#212 = STYLED_ITEM ( 'NONE', ( #152 ), #393 ) ;
#213 = DIRECTION ( 'NONE',  ( 0.0000000000000000000, 0.0000000000000000000, 1.000000000000000000 ) ) ;
#214 = SPHERICAL_SURFACE ( 'NONE', #41, 8.000000000000000000 ) ;
#215 = ORIENTED_EDGE ( 'NONE', *, *, #300, .T. ) ;
#216 = AXIS2_PLACEMENT_3D ( 'NONE', #143, #199, #266 ) ;
#217 = ORIENTED_EDGE ( 'NONE', *, *, #7, .F. ) ;
#218 = PRODUCT_DEFINITION_SHAPE ( 'NONE', 'NONE',  #3 ) ;
#219 = FILL_AREA_STYLE_COLOUR ( '', #387 ) ;
#220 = ADVANCED_FACE ( 'NONE', ( #333 ), #361, .T. ) ;
#221 = DIRECTION ( 'NONE',  ( 0.0000000000000000000, 1.000000000000000000, 1.224646799147353207E-16 ) ) ;
#222 = FILL_AREA_STYLE_COLOUR ( '', #200 ) ;
#223 = VERTEX_POINT ( 'NONE', #206 ) ;
#224 = FILL_AREA_STYLE_COLOUR ( '', #46 ) ;
#225 = CIRCLE ( 'NONE', #330, 5.000000000000000000 ) ;
#226 = VECTOR ( 'NONE', #308, 1000.000000000000000 ) ;
#227 = FILL_AREA_STYLE ('',( #325 ) ) ;
#228 = EDGE_CURVE ( 'NONE', #276, #96, #178, .T. ) ;
#229 = DIRECTION ( 'NONE',  ( -1.000000000000000000, -0.0000000000000000000, -0.0000000000000000000 ) ) ;
#230 = CYLINDRICAL_SURFACE ( 'NONE', #71, 5.000000000000000000 ) ;
#231 = CARTESIAN_POINT ( 'NONE',  ( 8.000000000000000000, 9.797174393178825657E-16, -8.000000000000000000 ) ) ;
#232 = CARTESIAN_POINT ( 'NONE',  ( 8.000000000000000000, 8.000000000000000000, 0.0000000000000000000 ) ) ;
#233 =( NAMED_UNIT ( * ) PLANE_ANGLE_UNIT ( ) SI_UNIT ( $, .RADIAN. ) );
#234 = CARTESIAN_POINT ( 'NONE',  ( 8.000000000000000000, -8.000000000000000000, -9.797174393178825657E-16 ) ) ;
#235 = CARTESIAN_POINT ( 'NONE',  ( 0.0000000000000000000, 0.0000000000000000000, 5.000000000000000000 ) ) ;
#236 = VECTOR ( 'NONE', #22, 1000.000000000000000 ) ;
#237 = CIRCLE ( 'NONE', #177, 5.000000000000000000 ) ;
#238 = PRESENTATION_STYLE_ASSIGNMENT (( #51 ) ) ;
#239 = DIRECTION ( 'NONE',  ( 0.0000000000000000000, 0.0000000000000000000, 1.000000000000000000 ) ) ;
#240 = ORIENTED_EDGE ( 'NONE', *, *, #81, .F. ) ;
#241 = AXIS2_PLACEMENT_3D ( 'NONE', #210, #193, #12 ) ;
#242 = FACE_OUTER_BOUND ( 'NONE', #189, .T. ) ;
#243 = VERTEX_POINT ( 'NONE', #25 ) ;
#244 = ADVANCED_FACE ( 'NONE', ( #392 ), #261, .T. ) ;
#245 = FACE_OUTER_BOUND ( 'NONE', #158, .T. ) ;
#246 = ORIENTED_EDGE ( 'NONE', *, *, #267, .T. ) ;
#247 = CARTESIAN_POINT ( 'NONE',  ( 0.0000000000000000000, 0.0000000000000000000, 0.0000000000000000000 ) ) ;
#248 = VERTEX_POINT ( 'NONE', #148 ) ;
#249 = CARTESIAN_POINT ( 'NONE',  ( 8.000000000000000000, 0.0000000000000000000, 0.0000000000000000000 ) ) ;
#250 = VECTOR ( 'NONE', #198, 1000.000000000000000 ) ;
#251 = EDGE_CURVE ( 'NONE', #96, #38, #303, .T. ) ;
#252 = ORIENTED_EDGE ( 'NONE', *, *, #179, .T. ) ;
#253 = FACE_OUTER_BOUND ( 'NONE', #99, .T. ) ;
#254 = ORIENTED_EDGE ( 'NONE', *, *, #207, .F. ) ;
#255 = SURFACE_SIDE_STYLE ('',( #287 ) ) ;
#256 = AXIS2_PLACEMENT_3D ( 'NONE', #247, #153, #33 ) ;
#257 = CARTESIAN_POINT ( 'NONE',  ( 0.0000000000000000000, 0.0000000000000000000, 0.0000000000000000000 ) ) ;
#258 = FILL_AREA_STYLE ('',( #222 ) ) ;
#259 = DIRECTION ( 'NONE',  ( 0.0000000000000000000, 0.0000000000000000000, 1.000000000000000000 ) ) ;
#260 = DIRECTION ( 'NONE',  ( -1.000000000000000000, -0.0000000000000000000, -0.0000000000000000000 ) ) ;
#261 = CONICAL_SURFACE ( 'NONE', #171, 5.502449642358613779, 1.050023852380465916 ) ;
#262 = DIRECTION ( 'NONE',  ( -1.000000000000000000, -0.0000000000000000000, -0.0000000000000000000 ) ) ;
#263 = EDGE_CURVE ( 'NONE', #341, #289, #237, .T. ) ;
#264 = CYLINDRICAL_SURFACE ( 'NONE', #216, 5.000000000000000000 ) ;
#265 = DIRECTION ( 'NONE',  ( -0.0000000000000000000, 0.0000000000000000000, -1.000000000000000000 ) ) ;
#266 = DIRECTION ( 'NONE',  ( 0.0000000000000000000, 0.0000000000000000000, 1.000000000000000000 ) ) ;
#267 = EDGE_CURVE ( 'NONE', #243, #11, #348, .T. ) ;
#268 = CLOSED_SHELL ( 'NONE', ( #125, #120, #157, #280, #393, #203, #220, #244, #150, #133, #273 ) ) ;
#269 = UNCERTAINTY_MEASURE_WITH_UNIT (LENGTH_MEASURE( 1.000000000000000082E-05 ), #67, 'distance_accuracy_value', 'NONE');
#270 = CARTESIAN_POINT ( 'NONE',  ( 34.80000000000000426, 0.0000000000000000000, 0.0000000000000000000 ) ) ;
#271 = MECHANICAL_DESIGN_GEOMETRIC_PRESENTATION_REPRESENTATION (  '', ( #151 ), #24 ) ;
#272 = DIRECTION ( 'NONE',  ( 0.0000000000000000000, 1.000000000000000000, 0.0000000000000000000 ) ) ;
#273 = ADVANCED_FACE ( 'NONE', ( #242 ), #68, .F. ) ;
#274 = AXIS2_PLACEMENT_3D ( 'NONE', #94, #63, #213 ) ;
#275 =( GEOMETRIC_REPRESENTATION_CONTEXT ( 3 ) GLOBAL_UNCERTAINTY_ASSIGNED_CONTEXT ( ( #175 ) ) GLOBAL_UNIT_ASSIGNED_CONTEXT ( ( #39, #164, #374 ) ) REPRESENTATION_CONTEXT ( 'NONE', 'WORKASPACE' ) );
#276 = VERTEX_POINT ( 'NONE', #313 ) ;
#277 = SURFACE_STYLE_FILL_AREA ( #149 ) ;
#278 = ORIENTED_EDGE ( 'NONE', *, *, #251, .F. ) ;
#279 = DIRECTION ( 'NONE',  ( -1.000000000000000000, -0.0000000000000000000, -0.0000000000000000000 ) ) ;
#280 = ADVANCED_FACE ( 'NONE', ( #245 ), #290, .T. ) ;
#281 = SHAPE_DEFINITION_REPRESENTATION ( #218, #297 ) ;
#282 = MECHANICAL_DESIGN_GEOMETRIC_PRESENTATION_REPRESENTATION (  '', ( #398 ), #275 ) ;
#283 = PRESENTATION_STYLE_ASSIGNMENT (( #28 ) ) ;
#284 = EDGE_LOOP ( 'NONE', ( #285, #318, #375, #316 ) ) ;
#285 = ORIENTED_EDGE ( 'NONE', *, *, #336, .T. ) ;
#286 = ORIENTED_EDGE ( 'NONE', *, *, #228, .T. ) ;
#287 = SURFACE_STYLE_FILL_AREA ( #2 ) ;
#288 = AXIS2_PLACEMENT_3D ( 'NONE', #385, #265, #272 ) ;
#289 = VERTEX_POINT ( 'NONE', #102 ) ;
#290 = CYLINDRICAL_SURFACE ( 'NONE', #315, 8.000000000000000000 ) ;
#291 = CARTESIAN_POINT ( 'NONE',  ( 0.0000000000000000000, 6.123233995736766282E-16, -5.000000000000000000 ) ) ;
#292 = ORIENTED_EDGE ( 'NONE', *, *, #251, .T. ) ;
#293 = MECHANICAL_DESIGN_GEOMETRIC_PRESENTATION_REPRESENTATION (  '', ( #212 ), #131 ) ;
#294 = DIRECTION ( 'NONE',  ( -1.000000000000000000, -0.0000000000000000000, -0.0000000000000000000 ) ) ;
#295 = EDGE_CURVE ( 'NONE', #126, #162, #138, .T. ) ;
#296 = AXIS2_PLACEMENT_3D ( 'NONE', #270, #386, #135 ) ;
#297 = ADVANCED_BREP_SHAPE_REPRESENTATION ( 'AZ-067410', ( #107, #256 ), #168 ) ;
#298 = DIRECTION ( 'NONE',  ( -0.4975503576413840556, 1.062301610846800083E-16, -0.8674350936012047431 ) ) ;
#299 = CARTESIAN_POINT ( 'NONE',  ( 33.93256490639879530, 0.0000000000000000000, 0.0000000000000000000 ) ) ;
#300 = EDGE_CURVE ( 'NONE', #156, #395, #186, .T. ) ;
#301 = DIRECTION ( 'NONE',  ( -1.000000000000000000, -0.0000000000000000000, -0.0000000000000000000 ) ) ;
#302 = LINE ( 'NONE', #321, #379 ) ;
#303 = LINE ( 'NONE', #92, #324 ) ;
#304 = PRESENTATION_LAYER_ASSIGNMENT (  '', '', ( #147 ) ) ;
#305 = AXIS2_PLACEMENT_3D ( 'NONE', #328, #90, #52 ) ;
#306 = UNCERTAINTY_MEASURE_WITH_UNIT (LENGTH_MEASURE( 1.000000000000000082E-05 ), #23, 'distance_accuracy_value', 'NONE');
#307 = SURFACE_STYLE_FILL_AREA ( #87 ) ;
#308 = DIRECTION ( 'NONE',  ( -0.4975503576413840556, 0.0000000000000000000, 0.8674350936012047431 ) ) ;
#309 = DIRECTION ( 'NONE',  ( 0.0000000000000000000, 0.0000000000000000000, 1.000000000000000000 ) ) ;
#310 = EDGE_LOOP ( 'NONE', ( #347, #6, #26, #246 ) ) ;
#311 = DIRECTION ( 'NONE',  ( 0.0000000000000000000, 0.0000000000000000000, 1.000000000000000000 ) ) ;
#312 = EDGE_CURVE ( 'NONE', #248, #96, #62, .T. ) ;
#313 = CARTESIAN_POINT ( 'NONE',  ( 33.93256490639879530, 0.0000000000000000000, 5.502449642358613779 ) ) ;
#314 = ORIENTED_EDGE ( 'NONE', *, *, #57, .F. ) ;
#315 = AXIS2_PLACEMENT_3D ( 'NONE', #257, #294, #239 ) ;
#316 = ORIENTED_EDGE ( 'NONE', *, *, #228, .F. ) ;
#317 = ORIENTED_EDGE ( 'NONE', *, *, #65, .T. ) ;
#318 = ORIENTED_EDGE ( 'NONE', *, *, #97, .T. ) ;
#319 = SURFACE_STYLE_FILL_AREA ( #56 ) ;
#320 = SURFACE_STYLE_FILL_AREA ( #258 ) ;
#321 = CARTESIAN_POINT ( 'NONE',  ( 33.93256490639879530, 6.738557341983974599E-16, -5.502449642358613779 ) ) ;
#322 = DIRECTION ( 'NONE',  ( 0.0000000000000000000, 0.0000000000000000000, 1.000000000000000000 ) ) ;
#323 = AXIS2_PLACEMENT_3D ( 'NONE', #326, #351, #77 ) ;
#324 = VECTOR ( 'NONE', #301, 1000.000000000000000 ) ;
#325 = FILL_AREA_STYLE_COLOUR ( '', #383 ) ;
#326 = CARTESIAN_POINT ( 'NONE',  ( 33.93256490639879530, 0.0000000000000000000, 0.0000000000000000000 ) ) ;
#327 = DIRECTION ( 'NONE',  ( -1.000000000000000000, -0.0000000000000000000, -0.0000000000000000000 ) ) ;
#328 = CARTESIAN_POINT ( 'NONE',  ( 0.0000000000000000000, 0.0000000000000000000, 0.0000000000000000000 ) ) ;
#329 = CARTESIAN_POINT ( 'NONE',  ( 8.000000000000000000, 0.0000000000000000000, 8.000000000000000000 ) ) ;
#330 = AXIS2_PLACEMENT_3D ( 'NONE', #50, #196, #18 ) ;
#331 = SURFACE_SIDE_STYLE ('',( #307 ) ) ;
#332 = EDGE_CURVE ( 'NONE', #96, #248, #343, .T. ) ;
#333 = FACE_OUTER_BOUND ( 'NONE', #166, .T. ) ;
#334 = EDGE_LOOP ( 'NONE', ( #32, #252, #370, #254 ) ) ;
#335 = CIRCLE ( 'NONE', #353, 8.000000000000000000 ) ;
#336 = EDGE_CURVE ( 'NONE', #276, #223, #10, .T. ) ;
#337 = CARTESIAN_POINT ( 'NONE',  ( 8.000000000000000000, 0.0000000000000000000, 0.0000000000000000000 ) ) ;
#338 = DIRECTION ( 'NONE',  ( -1.000000000000000000, -0.0000000000000000000, -0.0000000000000000000 ) ) ;
#339 = ORIENTED_EDGE ( 'NONE', *, *, #97, .F. ) ;
#340 =( NAMED_UNIT ( * ) SI_UNIT ( $, .STERADIAN. ) SOLID_ANGLE_UNIT ( ) );
#341 = VERTEX_POINT ( 'NONE', #122 ) ;
#342 = CIRCLE ( 'NONE', #390, 1.000000000000003553 ) ;
#343 = CIRCLE ( 'NONE', #173, 8.000000000000000000 ) ;
#344 = ORIENTED_EDGE ( 'NONE', *, *, #75, .F. ) ;
#345 = ORIENTED_EDGE ( 'NONE', *, *, #207, .T. ) ;
#346 = DIRECTION ( 'NONE',  ( 0.0000000000000000000, 0.0000000000000000000, 1.000000000000000000 ) ) ;
#347 = ORIENTED_EDGE ( 'NONE', *, *, #197, .F. ) ;
#348 = CIRCLE ( 'NONE', #380, 5.000000000000000000 ) ;
#349 = DIRECTION ( 'NONE',  ( 0.0000000000000000000, 1.224646799147353207E-16, -1.000000000000000000 ) ) ;
#350 =( NAMED_UNIT ( * ) PLANE_ANGLE_UNIT ( ) SI_UNIT ( $, .RADIAN. ) );
#351 = DIRECTION ( 'NONE',  ( -1.000000000000000000, -0.0000000000000000000, -0.0000000000000000000 ) ) ;
#352 = CARTESIAN_POINT ( 'NONE',  ( 32.50000000000000000, 0.0000000000000000000, 8.000000000000000000 ) ) ;
#353 = AXIS2_PLACEMENT_3D ( 'NONE', #356, #262, #322 ) ;
#354 = SURFACE_STYLE_USAGE ( .BOTH. , #141 ) ;
#355 = CARTESIAN_POINT ( 'NONE',  ( 57.49999999999999289, 0.0000000000000000000, 0.0000000000000000000 ) ) ;
#356 = CARTESIAN_POINT ( 'NONE',  ( 8.000000000000000000, 0.0000000000000000000, 0.0000000000000000000 ) ) ;
#357 = DIRECTION ( 'NONE',  ( -1.000000000000000000, -0.0000000000000000000, -0.0000000000000000000 ) ) ;
#358 = DIRECTION ( 'NONE',  ( -1.000000000000000000, -0.0000000000000000000, -0.0000000000000000000 ) ) ;
#359 = AXIS2_PLACEMENT_3D ( 'NONE', #47, #382, #113 ) ;
#360 = AXIS2_PLACEMENT_3D ( 'NONE', #337, #260, #346 ) ;
#361 = CYLINDRICAL_SURFACE ( 'NONE', #305, 8.000000000000000000 ) ;
#362 = DIRECTION ( 'NONE',  ( 0.0000000000000000000, 0.0000000000000000000, 1.000000000000000000 ) ) ;
#363 = UNCERTAINTY_MEASURE_WITH_UNIT (LENGTH_MEASURE( 1.000000000000000082E-05 ), #373, 'distance_accuracy_value', 'NONE');
#364 = ORIENTED_EDGE ( 'NONE', *, *, #48, .F. ) ;
#365 = DIRECTION ( 'NONE',  ( 0.0000000000000000000, 0.0000000000000000000, 1.000000000000000000 ) ) ;
#366 = CONICAL_SURFACE ( 'NONE', #323, 5.502449642358613779, 1.050023852380465916 ) ;
#367 = ORIENTED_EDGE ( 'NONE', *, *, #140, .F. ) ;
#368 = ORIENTED_EDGE ( 'NONE', *, *, #300, .F. ) ;
#369 = APPLICATION_PROTOCOL_DEFINITION ( 'draft international standard', 'automotive_design', 1998, #70 ) ;
#370 = ORIENTED_EDGE ( 'NONE', *, *, #267, .F. ) ;
#371 = CIRCLE ( 'NONE', #397, 5.502449642358613779 ) ;
#372 = ORIENTED_EDGE ( 'NONE', *, *, #7, .T. ) ;
#373 =( LENGTH_UNIT ( ) NAMED_UNIT ( * ) SI_UNIT ( .MILLI., .METRE. ) );
#374 =( NAMED_UNIT ( * ) SI_UNIT ( $, .STERADIAN. ) SOLID_ANGLE_UNIT ( ) );
#375 = ORIENTED_EDGE ( 'NONE', *, *, #332, .F. ) ;
#376 = DIRECTION ( 'NONE',  ( 0.0000000000000000000, 0.0000000000000000000, 1.000000000000000000 ) ) ;
#377 = DIRECTION ( 'NONE',  ( 1.000000000000000000, 0.0000000000000000000, 0.0000000000000000000 ) ) ;
#378 = CARTESIAN_POINT ( 'NONE',  ( 8.000000000000000000, 0.0000000000000000000, 0.0000000000000000000 ) ) ;
#379 = VECTOR ( 'NONE', #298, 1000.000000000000000 ) ;
#380 = AXIS2_PLACEMENT_3D ( 'NONE', #119, #338, #167 ) ;
#381 = CARTESIAN_POINT ( 'NONE',  ( 8.000000000000000000, 0.0000000000000000000, 0.0000000000000000000 ) ) ;
#382 = DIRECTION ( 'NONE',  ( 0.0000000000000000000, -1.000000000000000000, 0.0000000000000000000 ) ) ;
#383 = COLOUR_RGB ( '',0.2509803921568627416, 0.2509803921568627416, 0.2509803921568627416 ) ;
#384 = DIRECTION ( 'NONE',  ( -0.0000000000000000000, 0.0000000000000000000, 1.000000000000000000 ) ) ;
#385 = CARTESIAN_POINT ( 'NONE',  ( 8.000000000000000000, 0.0000000000000000000, 0.0000000000000000000 ) ) ;
#386 = DIRECTION ( 'NONE',  ( -1.000000000000000000, -0.0000000000000000000, -0.0000000000000000000 ) ) ;
#387 = COLOUR_RGB ( '',0.2509803921568627416, 0.2509803921568627416, 0.2509803921568627416 ) ;
#388 = PRODUCT_RELATED_PRODUCT_CATEGORY ( 'part', '', ( #194 ) ) ;
#389 =( NAMED_UNIT ( * ) PLANE_ANGLE_UNIT ( ) SI_UNIT ( $, .RADIAN. ) );
#390 = AXIS2_PLACEMENT_3D ( 'NONE', #128, #74, #17 ) ;
#391 = COLOUR_RGB ( '',0.5019607843137254832, 0.5019607843137254832, 1.000000000000000000 ) ;
#392 = FACE_OUTER_BOUND ( 'NONE', #30, .T. ) ;
#393 = ADVANCED_FACE ( 'NONE', ( #105 ), #214, .T. ) ;
#394 = SURFACE_SIDE_STYLE ('',( #277 ) ) ;
#395 = VERTEX_POINT ( 'NONE', #163 ) ;
#396 = CARTESIAN_POINT ( 'NONE',  ( 32.50000000000000000, 0.0000000000000000000, 0.0000000000000000000 ) ) ;
#397 = AXIS2_PLACEMENT_3D ( 'NONE', #299, #327, #136 ) ;
#398 = STYLED_ITEM ( 'NONE', ( #283 ), #280 ) ;
ENDSEC;
END-ISO-10303-21;
