ISO-10303-21;
HEADER;
FILE_DESCRIPTION (( 'STEP AP214' ),
    '1' );
FILE_NAME ('AZ-067412.STEP',
    '2020-03-31T13:13:52',
    ( '' ),
    ( '' ),
    'SwSTEP 2.0',
    'SolidWorks 2020',
    '' );
FILE_SCHEMA (( 'AUTOMOTIVE_DESIGN' ));
ENDSEC;

DATA;
#1 = EDGE_CURVE ( 'NONE', #359, #195, #318, .T. ) ;
#2 = DIRECTION ( 'NONE',  ( 0.0000000000000000000, 0.0000000000000000000, 1.000000000000000000 ) ) ;
#3 = ORIENTED_EDGE ( 'NONE', *, *, #57, .T. ) ;
#4 = DIRECTION ( 'NONE',  ( 0.0000000000000000000, 0.0000000000000000000, 1.000000000000000000 ) ) ;
#5 = ORIENTED_EDGE ( 'NONE', *, *, #1, .F. ) ;
#6 = CARTESIAN_POINT ( 'NONE',  ( 57.50000000000000000, 8.572527594031472204E-16, -6.999999999999999112 ) ) ;
#7 = EDGE_CURVE ( 'NONE', #312, #246, #212, .T. ) ;
#8 = DIRECTION ( 'NONE',  ( -0.0000000000000000000, 1.000000000000000000, 1.224646799147353207E-16 ) ) ;
#9 = CIRCLE ( 'NONE', #149, 9.500000000000001776 ) ;
#10 =( LENGTH_UNIT ( ) NAMED_UNIT ( * ) SI_UNIT ( .MILLI., .METRE. ) );
#11 = DIRECTION ( 'NONE',  ( 0.0000000000000000000, 0.0000000000000000000, 1.000000000000000000 ) ) ;
#12 = UNCERTAINTY_MEASURE_WITH_UNIT (LENGTH_MEASURE( 1.000000000000000082E-05 ), #44, 'distance_accuracy_value', 'NONE');
#13 = SHAPE_DEFINITION_REPRESENTATION ( #146, #249 ) ;
#14 = CARTESIAN_POINT ( 'NONE',  ( 57.50000000000000000, 7.746174015685368342E-16, -6.000000000000000000 ) ) ;
#15 =( NAMED_UNIT ( * ) SI_UNIT ( $, .STERADIAN. ) SOLID_ANGLE_UNIT ( ) );
#16 = CARTESIAN_POINT ( 'NONE',  ( 9.500000000000000000, 0.0000000000000000000, 0.0000000000000000000 ) ) ;
#17 = CARTESIAN_POINT ( 'NONE',  ( 0.0000000000000000000, 1.163414459189985682E-15, -9.500000000000001776 ) ) ;
#18 = DIRECTION ( 'NONE',  ( 0.0000000000000000000, 0.0000000000000000000, 1.000000000000000000 ) ) ;
#19 = SURFACE_SIDE_STYLE ('',( #173 ) ) ;
#20 = CIRCLE ( 'NONE', #124, 6.000000000000000000 ) ;
#21 = SURFACE_STYLE_FILL_AREA ( #233 ) ;
#22 = MECHANICAL_DESIGN_GEOMETRIC_PRESENTATION_REPRESENTATION (  '', ( #272 ), #150 ) ;
#23 = EDGE_CURVE ( 'NONE', #366, #215, #169, .T. ) ;
#24 = ORIENTED_EDGE ( 'NONE', *, *, #390, .T. ) ;
#25 = CLOSED_SHELL ( 'NONE', ( #224, #351, #132, #273, #331, #97, #280, #106, #174, #196, #167 ) ) ;
#26 = DIRECTION ( 'NONE',  ( -1.000000000000000000, -0.0000000000000000000, -0.0000000000000000000 ) ) ;
#27 = CARTESIAN_POINT ( 'NONE',  ( 56.56307774020753953, 0.0000000000000000000, 0.0000000000000000000 ) ) ;
#28 = CIRCLE ( 'NONE', #216, 9.500000000000003553 ) ;
#29 = ORIENTED_EDGE ( 'NONE', *, *, #7, .F. ) ;
#30 = PLANE ( 'NONE',  #369 ) ;
#31 = PRESENTATION_LAYER_ASSIGNMENT (  '', '', ( #329 ) ) ;
#32 = CARTESIAN_POINT ( 'NONE',  ( 82.00000000000000000, 0.0000000000000000000, 0.0000000000000000000 ) ) ;
#33 = ORIENTED_EDGE ( 'NONE', *, *, #390, .F. ) ;
#34 = FILL_AREA_STYLE_COLOUR ( '', #344 ) ;
#35 = PRESENTATION_LAYER_ASSIGNMENT (  '', '', ( #272 ) ) ;
#36 = MECHANICAL_DESIGN_GEOMETRIC_PRESENTATION_REPRESENTATION (  '', ( #341 ), #395 ) ;
#37 = ORIENTED_EDGE ( 'NONE', *, *, #269, .F. ) ;
#38 = DIRECTION ( 'NONE',  ( 0.0000000000000000000, 0.0000000000000000000, 1.000000000000000000 ) ) ;
#39 = CIRCLE ( 'NONE', #363, 9.500000000000001776 ) ;
#40 = DIRECTION ( 'NONE',  ( -1.000000000000000000, -0.0000000000000000000, -0.0000000000000000000 ) ) ;
#41 = CARTESIAN_POINT ( 'NONE',  ( 57.50000000000000000, 0.0000000000000000000, 6.000000000000000000 ) ) ;
#42 = CARTESIAN_POINT ( 'NONE',  ( 0.0000000000000000000, 7.347880794884119736E-16, -6.000000000000000000 ) ) ;
#43 = DIRECTION ( 'NONE',  ( -0.3495378078339715366, 0.0000000000000000000, 0.9369222597924662388 ) ) ;
#44 =( LENGTH_UNIT ( ) NAMED_UNIT ( * ) SI_UNIT ( .MILLI., .METRE. ) );
#45 = AXIS2_PLACEMENT_3D ( 'NONE', #179, #40, #11 ) ;
#46 = UNCERTAINTY_MEASURE_WITH_UNIT (LENGTH_MEASURE( 1.000000000000000082E-05 ), #139, 'distance_accuracy_value', 'NONE');
#47 = CARTESIAN_POINT ( 'NONE',  ( 55.50000000000000711, 1.163414459189985485E-15, -9.500000000000000000 ) ) ;
#48 = DIRECTION ( 'NONE',  ( -0.0000000000000000000, 0.0000000000000000000, -1.000000000000000000 ) ) ;
#49 = EDGE_CURVE ( 'NONE', #366, #262, #105, .T. ) ;
#50 = FILL_AREA_STYLE_COLOUR ( '', #51 ) ;
#51 = COLOUR_RGB ( '',0.2509803921568627416, 0.2509803921568627416, 0.2509803921568627416 ) ;
#52 = SURFACE_SIDE_STYLE ('',( #21 ) ) ;
#53 = VECTOR ( 'NONE', #372, 1000.000000000000000 ) ;
#54 = EDGE_LOOP ( 'NONE', ( #342, #296, #326, #159 ) ) ;
#55 = DIRECTION ( 'NONE',  ( 0.0000000000000000000, 1.000000000000000000, 1.224646799147353207E-16 ) ) ;
#56 =( NAMED_UNIT ( * ) PLANE_ANGLE_UNIT ( ) SI_UNIT ( $, .RADIAN. ) );
#57 = EDGE_CURVE ( 'NONE', #246, #253, #193, .T. ) ;
#58 = VERTEX_POINT ( 'NONE', #244 ) ;
#59 = PRODUCT ( 'AZ-067412', 'AZ-067412', '', ( #292 ) ) ;
#60 = DIRECTION ( 'NONE',  ( -1.000000000000000000, -0.0000000000000000000, -0.0000000000000000000 ) ) ;
#61 = COLOUR_RGB ( '',0.2509803921568627416, 0.2509803921568627416, 0.2509803921568627416 ) ;
#62 = CARTESIAN_POINT ( 'NONE',  ( 57.50000000000000000, 0.0000000000000000000, 0.0000000000000000000 ) ) ;
#63 = CYLINDRICAL_SURFACE ( 'NONE', #277, 6.000000000000000000 ) ;
#64 = DIRECTION ( 'NONE',  ( -1.000000000000000000, -0.0000000000000000000, -0.0000000000000000000 ) ) ;
#65 = CARTESIAN_POINT ( 'NONE',  ( 9.500000000000000000, 9.500000000000001776, 0.0000000000000000000 ) ) ;
#66 = ORIENTED_EDGE ( 'NONE', *, *, #180, .F. ) ;
#67 = CIRCLE ( 'NONE', #226, 6.000000000000000000 ) ;
#68 = ORIENTED_EDGE ( 'NONE', *, *, #234, .F. ) ;
#69 = CARTESIAN_POINT ( 'NONE',  ( 9.500000000000000000, 0.0000000000000000000, 0.0000000000000000000 ) ) ;
#70 = FACE_OUTER_BOUND ( 'NONE', #73, .T. ) ;
#71 = PRESENTATION_LAYER_ASSIGNMENT (  '', '', ( #315 ) ) ;
#72 = FACE_OUTER_BOUND ( 'NONE', #192, .T. ) ;
#73 = EDGE_LOOP ( 'NONE', ( #320, #93, #278, #37, #275 ) ) ;
#74 = CARTESIAN_POINT ( 'NONE',  ( 9.500000000000000000, 0.0000000000000000000, 0.0000000000000000000 ) ) ;
#75 = EDGE_CURVE ( 'NONE', #384, #253, #334, .T. ) ;
#76 = SURFACE_STYLE_USAGE ( .BOTH. , #197 ) ;
#77 = CARTESIAN_POINT ( 'NONE',  ( 56.56307774020753953, 9.889305914193236393E-16, -6.650462192166028963 ) ) ;
#78 = SURFACE_STYLE_USAGE ( .BOTH. , #52 ) ;
#79 = CIRCLE ( 'NONE', #332, 0.9999999999999991118 ) ;
#80 = SURFACE_STYLE_USAGE ( .BOTH. , #183 ) ;
#81 = AXIS2_PLACEMENT_3D ( 'NONE', #263, #166, #200 ) ;
#82 = DIRECTION ( 'NONE',  ( 0.0000000000000000000, 0.0000000000000000000, 1.000000000000000000 ) ) ;
#83 = DIRECTION ( 'NONE',  ( 0.0000000000000000000, 0.0000000000000000000, -1.000000000000000000 ) ) ;
#84 = AXIS2_PLACEMENT_3D ( 'NONE', #27, #213, #2 ) ;
#85 = CARTESIAN_POINT ( 'NONE',  ( 57.50000000000000000, 0.0000000000000000000, 6.999999999999999112 ) ) ;
#86 = ORIENTED_EDGE ( 'NONE', *, *, #269, .T. ) ;
#87 = FILL_AREA_STYLE ('',( #338 ) ) ;
#88 = ORIENTED_EDGE ( 'NONE', *, *, #295, .F. ) ;
#89 = EDGE_CURVE ( 'NONE', #215, #366, #300, .T. ) ;
#90 = CARTESIAN_POINT ( 'NONE',  ( -1.734723475976807094E-15, 5.817072295949928412E-16, 0.0000000000000000000 ) ) ;
#91 = ORIENTED_EDGE ( 'NONE', *, *, #205, .T. ) ;
#92 = DIRECTION ( 'NONE',  ( -1.000000000000000000, -0.0000000000000000000, -0.0000000000000000000 ) ) ;
#93 = ORIENTED_EDGE ( 'NONE', *, *, #23, .T. ) ;
#94 = DIRECTION ( 'NONE',  ( -1.000000000000000000, -0.0000000000000000000, -0.0000000000000000000 ) ) ;
#95 = TOROIDAL_SURFACE ( 'NONE', #81, 6.999999999999999112, 0.9999999999999986677 ) ;
#96 = FILL_AREA_STYLE ('',( #368 ) ) ;
#97 = ADVANCED_FACE ( 'NONE', ( #120 ), #361, .T. ) ;
#98 = ORIENTED_EDGE ( 'NONE', *, *, #309, .T. ) ;
#99 = CARTESIAN_POINT ( 'NONE',  ( 56.56307774020753953, 0.0000000000000000000, 6.650462192166028963 ) ) ;
#100 = FACE_OUTER_BOUND ( 'NONE', #350, .T. ) ;
#101 = CIRCLE ( 'NONE', #238, 6.000000000000000000 ) ;
#102 = DIRECTION ( 'NONE',  ( 0.0000000000000000000, 0.0000000000000000000, 1.000000000000000000 ) ) ;
#103 = APPLICATION_PROTOCOL_DEFINITION ( 'draft international standard', 'automotive_design', 1998, #321 ) ;
#104 =( NAMED_UNIT ( * ) SI_UNIT ( $, .STERADIAN. ) SOLID_ANGLE_UNIT ( ) );
#105 = LINE ( 'NONE', #17, #284 ) ;
#106 = ADVANCED_FACE ( 'NONE', ( #362 ), #154, .T. ) ;
#107 = DIRECTION ( 'NONE',  ( 1.000000000000000000, 0.0000000000000000000, 0.0000000000000000000 ) ) ;
#108 = PRESENTATION_STYLE_ASSIGNMENT (( #78 ) ) ;
#109 = LINE ( 'NONE', #99, #121 ) ;
#110 = CARTESIAN_POINT ( 'NONE',  ( 56.56307774020753953, 8.144467236486616949E-16, -6.650462192166028963 ) ) ;
#111 = AXIS2_PLACEMENT_3D ( 'NONE', #349, #371, #252 ) ;
#112 =( NAMED_UNIT ( * ) SI_UNIT ( $, .STERADIAN. ) SOLID_ANGLE_UNIT ( ) );
#113 = AXIS2_PLACEMENT_3D ( 'NONE', #74, #328, #18 ) ;
#114 =( NAMED_UNIT ( * ) PLANE_ANGLE_UNIT ( ) SI_UNIT ( $, .RADIAN. ) );
#115 = ORIENTED_EDGE ( 'NONE', *, *, #295, .T. ) ;
#116 =( NAMED_UNIT ( * ) SI_UNIT ( $, .STERADIAN. ) SOLID_ANGLE_UNIT ( ) );
#117 = ORIENTED_EDGE ( 'NONE', *, *, #57, .F. ) ;
#118 = STYLED_ITEM ( 'NONE', ( #285 ), #273 ) ;
#119 = MECHANICAL_DESIGN_GEOMETRIC_PRESENTATION_REPRESENTATION (  '', ( #329 ), #188 ) ;
#120 = FACE_OUTER_BOUND ( 'NONE', #380, .T. ) ;
#121 = VECTOR ( 'NONE', #43, 1000.000000000000000 ) ;
#122 = CARTESIAN_POINT ( 'NONE',  ( 56.56307774020753953, 0.0000000000000000000, 0.0000000000000000000 ) ) ;
#123 = ORIENTED_EDGE ( 'NONE', *, *, #257, .T. ) ;
#124 = AXIS2_PLACEMENT_3D ( 'NONE', #317, #133, #189 ) ;
#125 = SURFACE_STYLE_FILL_AREA ( #87 ) ;
#126 = ORIENTED_EDGE ( 'NONE', *, *, #89, .T. ) ;
#127 = ORIENTED_EDGE ( 'NONE', *, *, #257, .F. ) ;
#128 = FILL_AREA_STYLE ('',( #34 ) ) ;
#129 = CONICAL_SURFACE ( 'NONE', #143, 6.650462192166028963, 1.213718577553605682 ) ;
#130 = DIRECTION ( 'NONE',  ( 0.0000000000000000000, 0.0000000000000000000, 1.000000000000000000 ) ) ;
#131 = UNCERTAINTY_MEASURE_WITH_UNIT (LENGTH_MEASURE( 1.000000000000000082E-05 ), #396, 'distance_accuracy_value', 'NONE');
#132 = ADVANCED_FACE ( 'NONE', ( #151 ), #129, .T. ) ;
#133 = DIRECTION ( 'NONE',  ( -1.000000000000000000, -0.0000000000000000000, -0.0000000000000000000 ) ) ;
#134 = ORIENTED_EDGE ( 'NONE', *, *, #89, .F. ) ;
#135 = FACE_OUTER_BOUND ( 'NONE', #265, .T. ) ;
#136 = FILL_AREA_STYLE_COLOUR ( '', #61 ) ;
#137 = AXIS2_PLACEMENT_3D ( 'NONE', #282, #92, #346 ) ;
#138 = EDGE_CURVE ( 'NONE', #246, #312, #327, .T. ) ;
#139 =( LENGTH_UNIT ( ) NAMED_UNIT ( * ) SI_UNIT ( .MILLI., .METRE. ) );
#140 = VERTEX_POINT ( 'NONE', #182 ) ;
#141 = PRESENTATION_STYLE_ASSIGNMENT (( #379 ) ) ;
#142 = SURFACE_STYLE_USAGE ( .BOTH. , #19 ) ;
#143 = AXIS2_PLACEMENT_3D ( 'NONE', #156, #60, #82 ) ;
#144 =( NAMED_UNIT ( * ) PLANE_ANGLE_UNIT ( ) SI_UNIT ( $, .RADIAN. ) );
#145 = ORIENTED_EDGE ( 'NONE', *, *, #180, .T. ) ;
#146 = PRODUCT_DEFINITION_SHAPE ( 'NONE', 'NONE',  #336 ) ;
#147 = CARTESIAN_POINT ( 'NONE',  ( 9.500000000000000000, 0.0000000000000000000, 0.0000000000000000000 ) ) ;
#148 = EDGE_CURVE ( 'NONE', #140, #247, #9, .T. ) ;
#149 = AXIS2_PLACEMENT_3D ( 'NONE', #147, #271, #55 ) ;
#150 =( GEOMETRIC_REPRESENTATION_CONTEXT ( 3 ) GLOBAL_UNCERTAINTY_ASSIGNED_CONTEXT ( ( #178 ) ) GLOBAL_UNIT_ASSIGNED_CONTEXT ( ( #301, #114, #116 ) ) REPRESENTATION_CONTEXT ( 'NONE', 'WORKASPACE' ) );
#151 = FACE_OUTER_BOUND ( 'NONE', #220, .T. ) ;
#152 = ORIENTED_EDGE ( 'NONE', *, *, #237, .F. ) ;
#153 = CARTESIAN_POINT ( 'NONE',  ( 82.00000000000000000, 6.000000000000000000, 0.0000000000000000000 ) ) ;
#154 = CONICAL_SURFACE ( 'NONE', #84, 6.650462192166028963, 1.213718577553605682 ) ;
#155 = AXIS2_PLACEMENT_3D ( 'NONE', #160, #157, #319 ) ;
#156 = CARTESIAN_POINT ( 'NONE',  ( 56.56307774020753953, 0.0000000000000000000, 0.0000000000000000000 ) ) ;
#157 = DIRECTION ( 'NONE',  ( -1.000000000000000000, -0.0000000000000000000, -0.0000000000000000000 ) ) ;
#158 =( GEOMETRIC_REPRESENTATION_CONTEXT ( 3 ) GLOBAL_UNCERTAINTY_ASSIGNED_CONTEXT ( ( #255 ) ) GLOBAL_UNIT_ASSIGNED_CONTEXT ( ( #298, #267, #112 ) ) REPRESENTATION_CONTEXT ( 'NONE', 'WORKASPACE' ) );
#159 = ORIENTED_EDGE ( 'NONE', *, *, #75, .F. ) ;
#160 = CARTESIAN_POINT ( 'NONE',  ( 0.0000000000000000000, 0.0000000000000000000, 0.0000000000000000000 ) ) ;
#161 = SURFACE_STYLE_USAGE ( .BOTH. , #287 ) ;
#162 = DIRECTION ( 'NONE',  ( -1.000000000000000000, -0.0000000000000000000, -0.0000000000000000000 ) ) ;
#163 =( NAMED_UNIT ( * ) SI_UNIT ( $, .STERADIAN. ) SOLID_ANGLE_UNIT ( ) );
#164 = AXIS2_PLACEMENT_3D ( 'NONE', #16, #48, #299 ) ;
#165 = ORIENTED_EDGE ( 'NONE', *, *, #210, .T. ) ;
#166 = DIRECTION ( 'NONE',  ( -1.000000000000000000, -0.0000000000000000000, -0.0000000000000000000 ) ) ;
#167 = ADVANCED_FACE ( 'NONE', ( #211 ), #30, .F. ) ;
#168 = FILL_AREA_STYLE_COLOUR ( '', #203 ) ;
#169 = CIRCLE ( 'NONE', #385, 9.500000000000000000 ) ;
#170 = EDGE_LOOP ( 'NONE', ( #323, #66 ) ) ;
#171 = DIRECTION ( 'NONE',  ( 1.000000000000000000, 0.0000000000000000000, 0.0000000000000000000 ) ) ;
#172 =( LENGTH_UNIT ( ) NAMED_UNIT ( * ) SI_UNIT ( .MILLI., .METRE. ) );
#173 = SURFACE_STYLE_FILL_AREA ( #207 ) ;
#174 = ADVANCED_FACE ( 'NONE', ( #181 ), #235, .F. ) ;
#175 = APPLICATION_CONTEXT ( 'automotive_design' ) ;
#176 = AXIS2_PLACEMENT_3D ( 'NONE', #340, #308, #306 ) ;
#177 = MECHANICAL_DESIGN_GEOMETRIC_PRESENTATION_REPRESENTATION (  '', ( #118 ), #260 ) ;
#178 = UNCERTAINTY_MEASURE_WITH_UNIT (LENGTH_MEASURE( 1.000000000000000082E-05 ), #301, 'distance_accuracy_value', 'NONE');
#179 = CARTESIAN_POINT ( 'NONE',  ( 56.56307774020753953, 0.0000000000000000000, 0.0000000000000000000 ) ) ;
#180 = EDGE_CURVE ( 'NONE', #359, #384, #101, .T. ) ;
#181 = FACE_OUTER_BOUND ( 'NONE', #222, .T. ) ;
#182 = CARTESIAN_POINT ( 'NONE',  ( 9.500000000000000000, -9.500000000000001776, -1.163414459189985682E-15 ) ) ;
#183 = SURFACE_SIDE_STYLE ('',( #125 ) ) ;
#184 = EDGE_LOOP ( 'NONE', ( #29, #333, #165, #117 ) ) ;
#185 = DIRECTION ( 'NONE',  ( -1.000000000000000000, -0.0000000000000000000, -0.0000000000000000000 ) ) ;
#186 = DIRECTION ( 'NONE',  ( -1.000000000000000000, -0.0000000000000000000, -0.0000000000000000000 ) ) ;
#187 = AXIS2_PLACEMENT_3D ( 'NONE', #250, #218, #38 ) ;
#188 =( GEOMETRIC_REPRESENTATION_CONTEXT ( 3 ) GLOBAL_UNCERTAINTY_ASSIGNED_CONTEXT ( ( #12 ) ) GLOBAL_UNIT_ASSIGNED_CONTEXT ( ( #44, #294, #104 ) ) REPRESENTATION_CONTEXT ( 'NONE', 'WORKASPACE' ) );
#189 = DIRECTION ( 'NONE',  ( 0.0000000000000000000, 0.0000000000000000000, 1.000000000000000000 ) ) ;
#190 = EDGE_CURVE ( 'NONE', #384, #359, #67, .T. ) ;
#191 = CARTESIAN_POINT ( 'NONE',  ( 0.0000000000000000000, 0.0000000000000000000, 9.500000000000001776 ) ) ;
#192 = EDGE_LOOP ( 'NONE', ( #123, #91, #364, #33 ) ) ;
#193 = CIRCLE ( 'NONE', #343, 0.9999999999999991118 ) ;
#194 = CYLINDRICAL_SURFACE ( 'NONE', #155, 9.500000000000001776 ) ;
#195 = VERTEX_POINT ( 'NONE', #14 ) ;
#196 = ADVANCED_FACE ( 'NONE', ( #135 ), #256, .T. ) ;
#197 = SURFACE_SIDE_STYLE ('',( #354 ) ) ;
#198 = ORIENTED_EDGE ( 'NONE', *, *, #138, .F. ) ;
#199 = ORIENTED_EDGE ( 'NONE', *, *, #375, .T. ) ;
#200 = DIRECTION ( 'NONE',  ( 0.0000000000000000000, 0.0000000000000000000, 1.000000000000000000 ) ) ;
#201 =( NAMED_UNIT ( * ) SI_UNIT ( $, .STERADIAN. ) SOLID_ANGLE_UNIT ( ) );
#202 = VECTOR ( 'NONE', #162, 1000.000000000000000 ) ;
#203 = COLOUR_RGB ( '',0.5019607843137254832, 0.5019607843137254832, 1.000000000000000000 ) ;
#204 = PRESENTATION_STYLE_ASSIGNMENT (( #76 ) ) ;
#205 = EDGE_CURVE ( 'NONE', #262, #140, #39, .T. ) ;
#206 =( GEOMETRIC_REPRESENTATION_CONTEXT ( 3 ) GLOBAL_UNCERTAINTY_ASSIGNED_CONTEXT ( ( #46 ) ) GLOBAL_UNIT_ASSIGNED_CONTEXT ( ( #139, #324, #15 ) ) REPRESENTATION_CONTEXT ( 'NONE', 'WORKASPACE' ) );
#207 = FILL_AREA_STYLE ('',( #136 ) ) ;
#208 = SURFACE_SIDE_STYLE ('',( #261 ) ) ;
#209 = ORIENTED_EDGE ( 'NONE', *, *, #148, .F. ) ;
#210 = EDGE_CURVE ( 'NONE', #195, #253, #20, .T. ) ;
#211 = FACE_OUTER_BOUND ( 'NONE', #170, .T. ) ;
#212 = CIRCLE ( 'NONE', #45, 6.650462192166028963 ) ;
#213 = DIRECTION ( 'NONE',  ( -1.000000000000000000, -0.0000000000000000000, -0.0000000000000000000 ) ) ;
#214 = PRODUCT_RELATED_PRODUCT_CATEGORY ( 'part', '', ( #59 ) ) ;
#215 = VERTEX_POINT ( 'NONE', #367 ) ;
#216 = AXIS2_PLACEMENT_3D ( 'NONE', #69, #297, #171 ) ;
#217 = DIRECTION ( 'NONE',  ( 0.0000000000000000000, 0.0000000000000000000, 1.000000000000000000 ) ) ;
#218 = DIRECTION ( 'NONE',  ( -1.000000000000000000, -0.0000000000000000000, -0.0000000000000000000 ) ) ;
#219 = MECHANICAL_DESIGN_GEOMETRIC_PRESENTATION_REPRESENTATION (  '', ( #245 ), #391 ) ;
#220 = EDGE_LOOP ( 'NONE', ( #397, #115, #134, #286 ) ) ;
#221 = CARTESIAN_POINT ( 'NONE',  ( 56.56307774020753953, 0.0000000000000000000, 6.650462192166028963 ) ) ;
#222 = EDGE_LOOP ( 'NONE', ( #152, #198, #3, #98 ) ) ;
#223 = CARTESIAN_POINT ( 'NONE',  ( 9.500000000000000000, 0.0000000000000000000, 0.0000000000000000000 ) ) ;
#224 = ADVANCED_FACE ( 'NONE', ( #248 ), #63, .T. ) ;
#225 = ORIENTED_EDGE ( 'NONE', *, *, #7, .T. ) ;
#226 = AXIS2_PLACEMENT_3D ( 'NONE', #304, #345, #228 ) ;
#227 = CARTESIAN_POINT ( 'NONE',  ( 82.00000000000000000, 0.0000000000000000000, 6.000000000000000000 ) ) ;
#228 = DIRECTION ( 'NONE',  ( 0.0000000000000000000, 0.0000000000000000000, 1.000000000000000000 ) ) ;
#229 = DIRECTION ( 'NONE',  ( -1.000000000000000000, -0.0000000000000000000, -0.0000000000000000000 ) ) ;
#230 = EDGE_LOOP ( 'NONE', ( #88, #225, #199, #389 ) ) ;
#231 = APPLICATION_PROTOCOL_DEFINITION ( 'draft international standard', 'automotive_design', 1998, #175 ) ;
#232 = DIRECTION ( 'NONE',  ( 0.0000000000000000000, 0.0000000000000000000, 1.000000000000000000 ) ) ;
#233 = FILL_AREA_STYLE ('',( #168 ) ) ;
#234 = EDGE_CURVE ( 'NONE', #215, #58, #283, .T. ) ;
#235 = TOROIDAL_SURFACE ( 'NONE', #398, 6.999999999999999112, 0.9999999999999986677 ) ;
#236 = ORIENTED_EDGE ( 'NONE', *, *, #210, .F. ) ;
#237 = EDGE_CURVE ( 'NONE', #312, #195, #79, .T. ) ;
#238 = AXIS2_PLACEMENT_3D ( 'NONE', #32, #279, #4 ) ;
#239 = DIRECTION ( 'NONE',  ( -1.000000000000000000, -0.0000000000000000000, -0.0000000000000000000 ) ) ;
#240 = PRESENTATION_LAYER_ASSIGNMENT (  '', '', ( #118 ) ) ;
#241 = DIRECTION ( 'NONE',  ( -0.0000000000000000000, 0.0000000000000000000, -1.000000000000000000 ) ) ;
#242 = PRODUCT_DEFINITION_FORMATION_WITH_SPECIFIED_SOURCE ( 'ANY', '', #59, .NOT_KNOWN. ) ;
#243 = DIRECTION ( 'NONE',  ( 0.0000000000000000000, 1.000000000000000000, 0.0000000000000000000 ) ) ;
#244 = CARTESIAN_POINT ( 'NONE',  ( 9.500000000000000000, 0.0000000000000000000, 9.500000000000001776 ) ) ;
#245 = STYLED_ITEM ( 'NONE', ( #337 ), #97 ) ;
#246 = VERTEX_POINT ( 'NONE', #221 ) ;
#247 = VERTEX_POINT ( 'NONE', #90 ) ;
#248 = FACE_OUTER_BOUND ( 'NONE', #54, .T. ) ;
#249 = ADVANCED_BREP_SHAPE_REPRESENTATION ( 'AZ-067412', ( #339, #382 ), #206 ) ;
#250 = CARTESIAN_POINT ( 'NONE',  ( 9.500000000000000000, 0.0000000000000000000, 0.0000000000000000000 ) ) ;
#251 = COLOUR_RGB ( '',0.5019607843137254832, 0.5019607843137254832, 1.000000000000000000 ) ;
#252 = DIRECTION ( 'NONE',  ( 0.0000000000000000000, 0.0000000000000000000, 1.000000000000000000 ) ) ;
#253 = VERTEX_POINT ( 'NONE', #41 ) ;
#254 = CARTESIAN_POINT ( 'NONE',  ( 0.0000000000000000000, 0.0000000000000000000, 0.0000000000000000000 ) ) ;
#255 = UNCERTAINTY_MEASURE_WITH_UNIT (LENGTH_MEASURE( 1.000000000000000082E-05 ), #298, 'distance_accuracy_value', 'NONE');
#256 = CYLINDRICAL_SURFACE ( 'NONE', #111, 6.000000000000000000 ) ;
#257 = EDGE_CURVE ( 'NONE', #258, #262, #311, .T. ) ;
#258 = VERTEX_POINT ( 'NONE', #65 ) ;
#259 = CARTESIAN_POINT ( 'NONE',  ( 0.0000000000000000000, 0.0000000000000000000, 0.0000000000000000000 ) ) ;
#260 =( GEOMETRIC_REPRESENTATION_CONTEXT ( 3 ) GLOBAL_UNCERTAINTY_ASSIGNED_CONTEXT ( ( #387 ) ) GLOBAL_UNIT_ASSIGNED_CONTEXT ( ( #10, #316, #163 ) ) REPRESENTATION_CONTEXT ( 'NONE', 'WORKASPACE' ) );
#261 = SURFACE_STYLE_FILL_AREA ( #128 ) ;
#262 = VERTEX_POINT ( 'NONE', #374 ) ;
#263 = CARTESIAN_POINT ( 'NONE',  ( 57.50000000000000000, 0.0000000000000000000, 0.0000000000000000000 ) ) ;
#264 = CARTESIAN_POINT ( 'NONE',  ( 0.0000000000000000000, 0.0000000000000000000, 0.0000000000000000000 ) ) ;
#265 = EDGE_LOOP ( 'NONE', ( #5, #145, #314, #236 ) ) ;
#266 = UNCERTAINTY_MEASURE_WITH_UNIT (LENGTH_MEASURE( 1.000000000000000082E-05 ), #172, 'distance_accuracy_value', 'NONE');
#267 =( NAMED_UNIT ( * ) PLANE_ANGLE_UNIT ( ) SI_UNIT ( $, .RADIAN. ) );
#268 = LINE ( 'NONE', #110, #370 ) ;
#269 = EDGE_CURVE ( 'NONE', #140, #58, #360, .T. ) ;
#270 = AXIS2_PLACEMENT_3D ( 'NONE', #307, #241, #243 ) ;
#271 = DIRECTION ( 'NONE',  ( 0.0000000000000000000, 1.224646799147353207E-16, -1.000000000000000000 ) ) ;
#272 = STYLED_ITEM ( 'NONE', ( #357 ), #339 ) ;
#273 = ADVANCED_FACE ( 'NONE', ( #100 ), #194, .T. ) ;
#274 = CARTESIAN_POINT ( 'NONE',  ( 0.0000000000000000000, 0.0000000000000000000, 6.000000000000000000 ) ) ;
#275 = ORIENTED_EDGE ( 'NONE', *, *, #205, .F. ) ;
#276 = DIRECTION ( 'NONE',  ( -1.000000000000000000, 0.0000000000000000000, -0.0000000000000000000 ) ) ;
#277 = AXIS2_PLACEMENT_3D ( 'NONE', #254, #64, #130 ) ;
#278 = ORIENTED_EDGE ( 'NONE', *, *, #234, .T. ) ;
#279 = DIRECTION ( 'NONE',  ( -1.000000000000000000, -0.0000000000000000000, -0.0000000000000000000 ) ) ;
#280 = ADVANCED_FACE ( 'NONE', ( #70 ), #313, .T. ) ;
#281 = PRESENTATION_LAYER_ASSIGNMENT (  '', '', ( #341 ) ) ;
#282 = CARTESIAN_POINT ( 'NONE',  ( 9.500000000000000000, 0.0000000000000000000, 0.0000000000000000000 ) ) ;
#283 = LINE ( 'NONE', #191, #53 ) ;
#284 = VECTOR ( 'NONE', #239, 1000.000000000000000 ) ;
#285 = PRESENTATION_STYLE_ASSIGNMENT (( #161 ) ) ;
#286 = ORIENTED_EDGE ( 'NONE', *, *, #375, .F. ) ;
#287 = SURFACE_SIDE_STYLE ('',( #347 ) ) ;
#288 = CARTESIAN_POINT ( 'NONE',  ( 55.50000000000000711, 0.0000000000000000000, 0.0000000000000000000 ) ) ;
#289 = DIRECTION ( 'NONE',  ( 0.0000000000000000000, -1.224646799147352468E-16, 1.000000000000000000 ) ) ;
#290 = ORIENTED_EDGE ( 'NONE', *, *, #49, .T. ) ;
#291 = COLOUR_RGB ( '',0.5019607843137254832, 0.5019607843137254832, 1.000000000000000000 ) ;
#292 = PRODUCT_CONTEXT ( 'NONE', #321, 'mechanical' ) ;
#293 = AXIS2_PLACEMENT_3D ( 'NONE', #383, #358, #353 ) ;
#294 =( NAMED_UNIT ( * ) PLANE_ANGLE_UNIT ( ) SI_UNIT ( $, .RADIAN. ) );
#295 = EDGE_CURVE ( 'NONE', #312, #366, #268, .T. ) ;
#296 = ORIENTED_EDGE ( 'NONE', *, *, #1, .T. ) ;
#297 = DIRECTION ( 'NONE',  ( -0.0000000000000000000, 0.0000000000000000000, 1.000000000000000000 ) ) ;
#298 =( LENGTH_UNIT ( ) NAMED_UNIT ( * ) SI_UNIT ( .MILLI., .METRE. ) );
#299 = DIRECTION ( 'NONE',  ( 0.0000000000000000000, 1.000000000000000000, 0.0000000000000000000 ) ) ;
#300 = CIRCLE ( 'NONE', #176, 9.500000000000000000 ) ;
#301 =( LENGTH_UNIT ( ) NAMED_UNIT ( * ) SI_UNIT ( .MILLI., .METRE. ) );
#302 = CIRCLE ( 'NONE', #293, 6.000000000000000000 ) ;
#303 = MECHANICAL_DESIGN_GEOMETRIC_PRESENTATION_REPRESENTATION (  '', ( #315 ), #158 ) ;
#304 = CARTESIAN_POINT ( 'NONE',  ( 82.00000000000000000, 0.0000000000000000000, 0.0000000000000000000 ) ) ;
#305 = PRESENTATION_LAYER_ASSIGNMENT (  '', '', ( #245 ) ) ;
#306 = DIRECTION ( 'NONE',  ( 0.0000000000000000000, 0.0000000000000000000, 1.000000000000000000 ) ) ;
#307 = CARTESIAN_POINT ( 'NONE',  ( 9.500000000000000000, 0.0000000000000000000, 0.0000000000000000000 ) ) ;
#308 = DIRECTION ( 'NONE',  ( -1.000000000000000000, -0.0000000000000000000, -0.0000000000000000000 ) ) ;
#309 = EDGE_CURVE ( 'NONE', #253, #195, #302, .T. ) ;
#310 = DIRECTION ( 'NONE',  ( 0.0000000000000000000, 0.0000000000000000000, 1.000000000000000000 ) ) ;
#311 = CIRCLE ( 'NONE', #137, 9.500000000000001776 ) ;
#312 = VERTEX_POINT ( 'NONE', #77 ) ;
#313 = CYLINDRICAL_SURFACE ( 'NONE', #392, 9.500000000000001776 ) ;
#314 = ORIENTED_EDGE ( 'NONE', *, *, #75, .T. ) ;
#315 = STYLED_ITEM ( 'NONE', ( #204 ), #249 ) ;
#316 =( NAMED_UNIT ( * ) PLANE_ANGLE_UNIT ( ) SI_UNIT ( $, .RADIAN. ) );
#317 = CARTESIAN_POINT ( 'NONE',  ( 57.50000000000000000, 0.0000000000000000000, 0.0000000000000000000 ) ) ;
#318 = LINE ( 'NONE', #42, #202 ) ;
#319 = DIRECTION ( 'NONE',  ( 0.0000000000000000000, 0.0000000000000000000, 1.000000000000000000 ) ) ;
#320 = ORIENTED_EDGE ( 'NONE', *, *, #49, .F. ) ;
#321 = APPLICATION_CONTEXT ( 'automotive_design' ) ;
#322 = DIRECTION ( 'NONE',  ( 0.0000000000000000000, 0.0000000000000000000, 1.000000000000000000 ) ) ;
#323 = ORIENTED_EDGE ( 'NONE', *, *, #190, .F. ) ;
#324 =( NAMED_UNIT ( * ) PLANE_ANGLE_UNIT ( ) SI_UNIT ( $, .RADIAN. ) );
#325 = SPHERICAL_SURFACE ( 'NONE', #164, 9.500000000000001776 ) ;
#326 = ORIENTED_EDGE ( 'NONE', *, *, #309, .F. ) ;
#327 = CIRCLE ( 'NONE', #355, 6.650462192166028963 ) ;
#328 = DIRECTION ( 'NONE',  ( -1.000000000000000000, -0.0000000000000000000, -0.0000000000000000000 ) ) ;
#329 = STYLED_ITEM ( 'NONE', ( #141 ), #280 ) ;
#330 = PRODUCT_DEFINITION_CONTEXT ( 'detailed design', #175, 'design' ) ;
#331 = ADVANCED_FACE ( 'NONE', ( #72 ), #325, .T. ) ;
#332 = AXIS2_PLACEMENT_3D ( 'NONE', #6, #8, #289 ) ;
#333 = ORIENTED_EDGE ( 'NONE', *, *, #237, .T. ) ;
#334 = LINE ( 'NONE', #274, #376 ) ;
#335 = CIRCLE ( 'NONE', #113, 9.500000000000001776 ) ;
#336 = PRODUCT_DEFINITION ( 'UNKNOWN', '', #242, #330 ) ;
#337 = PRESENTATION_STYLE_ASSIGNMENT (( #80 ) ) ;
#338 = FILL_AREA_STYLE_COLOUR ( '', #251 ) ;
#339 = MANIFOLD_SOLID_BREP ( 'Revolve1', #25 ) ;
#340 = CARTESIAN_POINT ( 'NONE',  ( 55.50000000000000711, 0.0000000000000000000, 0.0000000000000000000 ) ) ;
#341 = STYLED_ITEM ( 'NONE', ( #108 ), #331 ) ;
#342 = ORIENTED_EDGE ( 'NONE', *, *, #190, .T. ) ;
#343 = AXIS2_PLACEMENT_3D ( 'NONE', #85, #393, #83 ) ;
#344 = COLOUR_RGB ( '',0.5019607843137254832, 0.5019607843137254832, 1.000000000000000000 ) ;
#345 = DIRECTION ( 'NONE',  ( -1.000000000000000000, -0.0000000000000000000, -0.0000000000000000000 ) ) ;
#346 = DIRECTION ( 'NONE',  ( 0.0000000000000000000, 0.0000000000000000000, 1.000000000000000000 ) ) ;
#347 = SURFACE_STYLE_FILL_AREA ( #96 ) ;
#348 = ORIENTED_EDGE ( 'NONE', *, *, #386, .T. ) ;
#349 = CARTESIAN_POINT ( 'NONE',  ( 0.0000000000000000000, 0.0000000000000000000, 0.0000000000000000000 ) ) ;
#350 = EDGE_LOOP ( 'NONE', ( #126, #290, #127, #373, #68 ) ) ;
#351 = ADVANCED_FACE ( 'NONE', ( #388 ), #95, .F. ) ;
#352 = CARTESIAN_POINT ( 'NONE',  ( 82.00000000000000000, 7.347880794884119736E-16, -6.000000000000000000 ) ) ;
#353 = DIRECTION ( 'NONE',  ( 0.0000000000000000000, 0.0000000000000000000, 1.000000000000000000 ) ) ;
#354 = SURFACE_STYLE_FILL_AREA ( #381 ) ;
#355 = AXIS2_PLACEMENT_3D ( 'NONE', #122, #185, #217 ) ;
#356 = DIRECTION ( 'NONE',  ( -0.3495378078339715366, 1.147398846504748754E-16, -0.9369222597924662388 ) ) ;
#357 = PRESENTATION_STYLE_ASSIGNMENT (( #142 ) ) ;
#358 = DIRECTION ( 'NONE',  ( -1.000000000000000000, -0.0000000000000000000, -0.0000000000000000000 ) ) ;
#359 = VERTEX_POINT ( 'NONE', #352 ) ;
#360 = CIRCLE ( 'NONE', #187, 9.500000000000001776 ) ;
#361 = SPHERICAL_SURFACE ( 'NONE', #270, 9.500000000000001776 ) ;
#362 = FACE_OUTER_BOUND ( 'NONE', #230, .T. ) ;
#363 = AXIS2_PLACEMENT_3D ( 'NONE', #223, #94, #322 ) ;
#364 = ORIENTED_EDGE ( 'NONE', *, *, #148, .T. ) ;
#365 = DIRECTION ( 'NONE',  ( -0.0000000000000000000, 0.0000000000000000000, 1.000000000000000000 ) ) ;
#366 = VERTEX_POINT ( 'NONE', #47 ) ;
#367 = CARTESIAN_POINT ( 'NONE',  ( 55.50000000000000711, 0.0000000000000000000, 9.500000000000000000 ) ) ;
#368 = FILL_AREA_STYLE_COLOUR ( '', #291 ) ;
#369 = AXIS2_PLACEMENT_3D ( 'NONE', #153, #276, #365 ) ;
#370 = VECTOR ( 'NONE', #356, 1000.000000000000000 ) ;
#371 = DIRECTION ( 'NONE',  ( -1.000000000000000000, -0.0000000000000000000, -0.0000000000000000000 ) ) ;
#372 = DIRECTION ( 'NONE',  ( -1.000000000000000000, -0.0000000000000000000, -0.0000000000000000000 ) ) ;
#373 = ORIENTED_EDGE ( 'NONE', *, *, #386, .F. ) ;
#374 = CARTESIAN_POINT ( 'NONE',  ( 9.500000000000000000, 1.163414459189985682E-15, -9.500000000000001776 ) ) ;
#375 = EDGE_CURVE ( 'NONE', #246, #215, #109, .T. ) ;
#376 = VECTOR ( 'NONE', #26, 1000.000000000000000 ) ;
#377 = DIRECTION ( 'NONE',  ( -1.000000000000000000, -0.0000000000000000000, -0.0000000000000000000 ) ) ;
#378 = DIRECTION ( 'NONE',  ( 0.0000000000000000000, 0.0000000000000000000, 1.000000000000000000 ) ) ;
#379 = SURFACE_STYLE_USAGE ( .BOTH. , #208 ) ;
#380 = EDGE_LOOP ( 'NONE', ( #209, #86, #348, #24 ) ) ;
#381 = FILL_AREA_STYLE ('',( #50 ) ) ;
#382 = AXIS2_PLACEMENT_3D ( 'NONE', #259, #378, #107 ) ;
#383 = CARTESIAN_POINT ( 'NONE',  ( 57.50000000000000000, 0.0000000000000000000, 0.0000000000000000000 ) ) ;
#384 = VERTEX_POINT ( 'NONE', #227 ) ;
#385 = AXIS2_PLACEMENT_3D ( 'NONE', #288, #377, #102 ) ;
#386 = EDGE_CURVE ( 'NONE', #58, #258, #335, .T. ) ;
#387 = UNCERTAINTY_MEASURE_WITH_UNIT (LENGTH_MEASURE( 1.000000000000000082E-05 ), #10, 'distance_accuracy_value', 'NONE');
#388 = FACE_OUTER_BOUND ( 'NONE', #184, .T. ) ;
#389 = ORIENTED_EDGE ( 'NONE', *, *, #23, .F. ) ;
#390 = EDGE_CURVE ( 'NONE', #258, #247, #28, .T. ) ;
#391 =( GEOMETRIC_REPRESENTATION_CONTEXT ( 3 ) GLOBAL_UNCERTAINTY_ASSIGNED_CONTEXT ( ( #131 ) ) GLOBAL_UNIT_ASSIGNED_CONTEXT ( ( #396, #56, #394 ) ) REPRESENTATION_CONTEXT ( 'NONE', 'WORKASPACE' ) );
#392 = AXIS2_PLACEMENT_3D ( 'NONE', #264, #229, #232 ) ;
#393 = DIRECTION ( 'NONE',  ( 0.0000000000000000000, -1.000000000000000000, 0.0000000000000000000 ) ) ;
#394 =( NAMED_UNIT ( * ) SI_UNIT ( $, .STERADIAN. ) SOLID_ANGLE_UNIT ( ) );
#395 =( GEOMETRIC_REPRESENTATION_CONTEXT ( 3 ) GLOBAL_UNCERTAINTY_ASSIGNED_CONTEXT ( ( #266 ) ) GLOBAL_UNIT_ASSIGNED_CONTEXT ( ( #172, #144, #201 ) ) REPRESENTATION_CONTEXT ( 'NONE', 'WORKASPACE' ) );
#396 =( LENGTH_UNIT ( ) NAMED_UNIT ( * ) SI_UNIT ( .MILLI., .METRE. ) );
#397 = ORIENTED_EDGE ( 'NONE', *, *, #138, .T. ) ;
#398 = AXIS2_PLACEMENT_3D ( 'NONE', #62, #186, #310 ) ;
ENDSEC;
END-ISO-10303-21;
