ISO-10303-21;
HEADER;
FILE_DESCRIPTION (( 'STEP AP214' ),
    '1' );
FILE_NAME ('AZ-SCT2.STEP',
    '2018-09-03T08:54:37',
    ( '' ),
    ( '' ),
    'SwSTEP 2.0',
    'SolidWorks 2018',
    '' );
FILE_SCHEMA (( 'AUTOMOTIVE_DESIGN' ));
ENDSEC;

DATA;
#1 = DIRECTION ( 'NONE',  ( -1.000000000000000000, -0.0000000000000000000, -0.0000000000000000000 ) ) ;
#2 = VERTEX_POINT ( 'NONE', #318 ) ;
#3 = DIRECTION ( 'NONE',  ( 0.0000000000000000000, 0.0000000000000000000, 1.000000000000000000 ) ) ;
#4 = EDGE_CURVE ( 'NONE', #312, #86, #366, .T. ) ;
#5 = FACE_OUTER_BOUND ( 'NONE', #178, .T. ) ;
#6 = CARTESIAN_POINT ( 'NONE',  ( 0.0000000000000000000, 5.939536975864661982E-16, -4.849999999999999645 ) ) ;
#7 = FACE_OUTER_BOUND ( 'NONE', #53, .T. ) ;
#8 = DIRECTION ( 'NONE',  ( -1.000000000000000000, -0.0000000000000000000, -0.0000000000000000000 ) ) ;
#9 = AXIS2_PLACEMENT_3D ( 'NONE', #241, #119, #268 ) ;
#10 = DIRECTION ( 'NONE',  ( 0.0000000000000000000, 1.000000000000000000, 1.445602896647339163E-16 ) ) ;
#11 = ORIENTED_EDGE ( 'NONE', *, *, #41, .F. ) ;
#12 = EDGE_CURVE ( 'NONE', #137, #352, #274, .T. ) ;
#13 = DIRECTION ( 'NONE',  ( 0.0000000000000000000, 0.0000000000000000000, -1.000000000000000000 ) ) ;
#14 = SURFACE_STYLE_USAGE ( .BOTH. , #252 ) ;
#15 = STYLED_ITEM ( 'NONE', ( #195 ), #233 ) ;
#16 = CARTESIAN_POINT ( 'NONE',  ( 20.29057466530457887, -3.967470144506577423, -1.000000000000000888 ) ) ;
#17 = LINE ( 'NONE', #334, #150 ) ;
#18 = LINE ( 'NONE', #6, #360 ) ;
#19 = EDGE_CURVE ( 'NONE', #175, #392, #246, .T. ) ;
#20 = ADVANCED_FACE ( 'NONE', ( #256 ), #127, .T. ) ;
#21 = ORIENTED_EDGE ( 'NONE', *, *, #232, .F. ) ;
#22 = COLOUR_RGB ( '',0.3176470588235293935, 0.2470588235294117752, 0.2078431372549019440 ) ;
#23 = PRODUCT_DEFINITION_FORMATION_WITH_SPECIFIED_SOURCE ( 'ANY', '', #37, .NOT_KNOWN. ) ;
#24 = EDGE_CURVE ( 'NONE', #312, #137, #142, .T. ) ;
#25 = ORIENTED_EDGE ( 'NONE', *, *, #321, .F. ) ;
#26 = DIRECTION ( 'NONE',  ( 1.000000000000000000, 0.0000000000000000000, 0.0000000000000000000 ) ) ;
#27 = CIRCLE ( 'NONE', #151, 6.000000000000000000 ) ;
#28 = AXIS2_PLACEMENT_3D ( 'NONE', #82, #26, #85 ) ;
#29 = ORIENTED_EDGE ( 'NONE', *, *, #212, .T. ) ;
#30 = FACE_OUTER_BOUND ( 'NONE', #296, .T. ) ;
#31 = CARTESIAN_POINT ( 'NONE',  ( 21.00000000000000000, -3.872983346207416133, 0.9999999999999993339 ) ) ;
#32 = PLANE ( 'NONE',  #170 ) ;
#33 = FILL_AREA_STYLE_COLOUR ( '', #68 ) ;
#34 = ORIENTED_EDGE ( 'NONE', *, *, #39, .T. ) ;
#35 = AXIS2_PLACEMENT_3D ( 'NONE', #316, #157, #10 ) ;
#36 = CIRCLE ( 'NONE', #262, 4.258064516129032029 ) ;
#37 = PRODUCT ( 'AZ-SCT2', 'AZ-SCT2', '', ( #136 ) ) ;
#38 = CARTESIAN_POINT ( 'NONE',  ( 5.500000000000000000, 0.0000000000000000000, 4.849999999999999645 ) ) ;
#39 = EDGE_CURVE ( 'NONE', #2, #335, #36, .T. ) ;
#40 = CARTESIAN_POINT ( 'NONE',  ( 0.0000000000000000000, 0.0000000000000000000, 0.0000000000000000000 ) ) ;
#41 = EDGE_CURVE ( 'NONE', #137, #86, #183, .T. ) ;
#42 = DIRECTION ( 'NONE',  ( -1.000000000000000000, -0.0000000000000000000, -0.0000000000000000000 ) ) ;
#43 = PLANE ( 'NONE',  #317 ) ;
#44 = PRESENTATION_STYLE_ASSIGNMENT (( #14 ) ) ;
#45 = CARTESIAN_POINT ( 'NONE',  ( 21.00000000000000000, 0.0000000000000000000, 4.000000000000000000 ) ) ;
#46 = FILL_AREA_STYLE ('',( #100 ) ) ;
#47 =( NAMED_UNIT ( * ) PLANE_ANGLE_UNIT ( ) SI_UNIT ( $, .RADIAN. ) );
#48 = DIRECTION ( 'NONE',  ( -0.9917778666340251181, 0.0000000000000000000, 0.1279713376301968020 ) ) ;
#49 = ORIENTED_EDGE ( 'NONE', *, *, #395, .F. ) ;
#50 = ORIENTED_EDGE ( 'NONE', *, *, #212, .F. ) ;
#51 = CARTESIAN_POINT ( 'NONE',  ( 21.00000000000000000, 0.0000000000000000000, 0.0000000000000000000 ) ) ;
#52 = FACE_OUTER_BOUND ( 'NONE', #199, .T. ) ;
#53 = EDGE_LOOP ( 'NONE', ( #153, #377 ) ) ;
#54 = ADVANCED_FACE ( 'NONE', ( #228 ), #166, .T. ) ;
#55 = CIRCLE ( 'NONE', #176, 4.849999999999999645 ) ;
#56 = DIRECTION ( 'NONE',  ( 0.0000000000000000000, 0.0000000000000000000, 1.000000000000000000 ) ) ;
#57 = EDGE_LOOP ( 'NONE', ( #223, #263 ) ) ;
#58 = AXIS2_PLACEMENT_3D ( 'NONE', #278, #247, #131 ) ;
#59 = CIRCLE ( 'NONE', #393, 4.258064516129032029 ) ;
#60 = SURFACE_SIDE_STYLE ('',( #260 ) ) ;
#61 = EDGE_CURVE ( 'NONE', #141, #392, #59, .T. ) ;
#62 = CARTESIAN_POINT ( 'NONE',  ( 21.00000000000000000, -3.872983346207417021, -1.000000000000000888 ) ) ;
#63 = EDGE_LOOP ( 'NONE', ( #50, #25, #390, #92 ) ) ;
#64 = FILL_AREA_STYLE ('',( #214 ) ) ;
#65 = DIRECTION ( 'NONE',  ( -0.0000000000000000000, 0.0000000000000000000, 1.000000000000000000 ) ) ;
#66 = DIRECTION ( 'NONE',  ( -1.000000000000000000, -0.0000000000000000000, -0.0000000000000000000 ) ) ;
#67 = CARTESIAN_POINT ( 'NONE',  ( 5.500000000000000000, 0.0000000000000000000, 6.000000000000000000 ) ) ;
#68 = COLOUR_RGB ( '',0.3176470588235293935, 0.2470588235294117752, 0.2078431372549019440 ) ;
#69 =( LENGTH_UNIT ( ) NAMED_UNIT ( * ) SI_UNIT ( .MILLI., .METRE. ) );
#70 = FILL_AREA_STYLE ('',( #345 ) ) ;
#71 = AXIS2_PLACEMENT_3D ( 'NONE', #152, #213, #184 ) ;
#72 = CARTESIAN_POINT ( 'NONE',  ( 0.0000000000000000000, 0.0000000000000000000, 4.849999999999999645 ) ) ;
#73 = DIRECTION ( 'NONE',  ( -1.000000000000000000, -0.0000000000000000000, -0.0000000000000000000 ) ) ;
#74 = EDGE_CURVE ( 'NONE', #86, #335, #310, .T. ) ;
#75 =( NAMED_UNIT ( * ) SI_UNIT ( $, .STERADIAN. ) SOLID_ANGLE_UNIT ( ) );
#76 = PRODUCT_RELATED_PRODUCT_CATEGORY ( 'part', '', ( #37 ) ) ;
#77 = CARTESIAN_POINT ( 'NONE',  ( 20.64529087084003933, 3.920253283411176959, 1.000000000000000444 ) ) ;
#78 = ORIENTED_EDGE ( 'NONE', *, *, #24, .T. ) ;
#79 = VERTEX_POINT ( 'NONE', #261 ) ;
#80 = CARTESIAN_POINT ( 'NONE',  ( 19.93585212656085304, 4.014639348229697369, 1.000000000000000444 ) ) ;
#81 = SURFACE_STYLE_FILL_AREA ( #209 ) ;
#82 = CARTESIAN_POINT ( 'NONE',  ( 5.500000000000000000, 4.849999999999999645, 0.0000000000000000000 ) ) ;
#83 = CARTESIAN_POINT ( 'NONE',  ( 0.0000000000000000000, 5.939536975864661982E-16, -4.849999999999999645 ) ) ;
#84 =( GEOMETRIC_REPRESENTATION_CONTEXT ( 3 ) GLOBAL_UNCERTAINTY_ASSIGNED_CONTEXT ( ( #333 ) ) GLOBAL_UNIT_ASSIGNED_CONTEXT ( ( #271, #306, #117 ) ) REPRESENTATION_CONTEXT ( 'NONE', 'WORKASPACE' ) );
#85 = DIRECTION ( 'NONE',  ( 0.0000000000000000000, 0.0000000000000000000, -1.000000000000000000 ) ) ;
#86 = VERTEX_POINT ( 'NONE', #359 ) ;
#87 = CARTESIAN_POINT ( 'NONE',  ( 19.66668849974298539, -4.050475447424352282, 0.9999999999999993339 ) ) ;
#88 =( LENGTH_UNIT ( ) NAMED_UNIT ( * ) SI_UNIT ( .MILLI., .METRE. ) );
#89 = DIRECTION ( 'NONE',  ( -1.000000000000000000, 0.0000000000000000000, -0.0000000000000000000 ) ) ;
#90 = DIRECTION ( 'NONE',  ( 0.0000000000000000000, 0.0000000000000000000, 1.000000000000000000 ) ) ;
#91 = MECHANICAL_DESIGN_GEOMETRIC_PRESENTATION_REPRESENTATION (  '', ( #15 ), #120 ) ;
#92 = ORIENTED_EDGE ( 'NONE', *, *, #19, .F. ) ;
#93 = VECTOR ( 'NONE', #177, 1000.000000000000000 ) ;
#94 = CARTESIAN_POINT ( 'NONE',  ( 19.00000000000000355, 0.0000000000000000000, 0.0000000000000000000 ) ) ;
#95 = DIRECTION ( 'NONE',  ( 0.0000000000000000000, 0.0000000000000000000, 1.000000000000000000 ) ) ;
#96 =( GEOMETRIC_REPRESENTATION_CONTEXT ( 3 ) GLOBAL_UNCERTAINTY_ASSIGNED_CONTEXT ( ( #204 ) ) GLOBAL_UNIT_ASSIGNED_CONTEXT ( ( #283, #47, #222 ) ) REPRESENTATION_CONTEXT ( 'NONE', 'WORKASPACE' ) );
#97 = SURFACE_STYLE_FILL_AREA ( #70 ) ;
#98 = CARTESIAN_POINT ( 'NONE',  ( 20.33335683426584239, 3.961822843110689885, -0.9999999999999995559 ) ) ;
#99 = EDGE_CURVE ( 'NONE', #352, #79, #27, .T. ) ;
#100 = FILL_AREA_STYLE_COLOUR ( '', #133 ) ;
#101 = VERTEX_POINT ( 'NONE', #282 ) ;
#102 = SURFACE_STYLE_USAGE ( .BOTH. , #218 ) ;
#103 =( NAMED_UNIT ( * ) PLANE_ANGLE_UNIT ( ) SI_UNIT ( $, .RADIAN. ) );
#104 = APPLICATION_PROTOCOL_DEFINITION ( 'draft international standard', 'automotive_design', 1998, #349 ) ;
#105 = ORIENTED_EDGE ( 'NONE', *, *, #12, .F. ) ;
#106 = FACE_OUTER_BOUND ( 'NONE', #368, .T. ) ;
#107 = ADVANCED_BREP_SHAPE_REPRESENTATION ( 'AZ-SCT2', ( #385, #235 ), #307 ) ;
#108 = CARTESIAN_POINT ( 'NONE',  ( 19.00000000000000355, 0.0000000000000000000, 0.0000000000000000000 ) ) ;
#109 = DIRECTION ( 'NONE',  ( -1.000000000000000000, -0.0000000000000000000, -0.0000000000000000000 ) ) ;
#110 = CIRCLE ( 'NONE', #9, 4.000000000000000000 ) ;
#111 = ORIENTED_EDGE ( 'NONE', *, *, #24, .F. ) ;
#112 = ORIENTED_EDGE ( 'NONE', *, *, #4, .F. ) ;
#113 = PRODUCT_DEFINITION ( 'UNKNOWN', '', #23, #143 ) ;
#114 = COLOUR_RGB ( '',0.3176470588235293935, 0.2470588235294117752, 0.2078431372549019440 ) ;
#115 = AXIS2_PLACEMENT_3D ( 'NONE', #295, #297, #330 ) ;
#116 = ORIENTED_EDGE ( 'NONE', *, *, #158, .T. ) ;
#117 =( NAMED_UNIT ( * ) SI_UNIT ( $, .STERADIAN. ) SOLID_ANGLE_UNIT ( ) );
#118 = LINE ( 'NONE', #126, #301 ) ;
#119 = DIRECTION ( 'NONE',  ( -1.000000000000000000, -0.0000000000000000000, -0.0000000000000000000 ) ) ;
#120 =( GEOMETRIC_REPRESENTATION_CONTEXT ( 3 ) GLOBAL_UNCERTAINTY_ASSIGNED_CONTEXT ( ( #308 ) ) GLOBAL_UNIT_ASSIGNED_CONTEXT ( ( #88, #371, #337 ) ) REPRESENTATION_CONTEXT ( 'NONE', 'WORKASPACE' ) );
#121 = CARTESIAN_POINT ( 'NONE',  ( 21.00000000000000000, 6.123233995736766282E-16, -4.000000000000000000 ) ) ;
#122 = ORIENTED_EDGE ( 'NONE', *, *, #179, .T. ) ;
#123 = FACE_BOUND ( 'NONE', #57, .T. ) ;
#124 = CARTESIAN_POINT ( 'NONE',  ( 21.00000000000000000, -3.872983346207416133, 0.9999999999999993339 ) ) ;
#125 = DIRECTION ( 'NONE',  ( 0.0000000000000000000, 0.0000000000000000000, 1.000000000000000000 ) ) ;
#126 = CARTESIAN_POINT ( 'NONE',  ( 19.00000000000000355, 6.000000000000000000, -0.9999999999999993339 ) ) ;
#127 = CONICAL_SURFACE ( 'NONE', #220, 4.000000000000000000, 0.1283232276857948495 ) ;
#128 = ORIENTED_EDGE ( 'NONE', *, *, #99, .T. ) ;
#129 = VECTOR ( 'NONE', #193, 1000.000000000000000 ) ;
#130 = CARTESIAN_POINT ( 'NONE',  ( 0.0000000000000000000, 0.0000000000000000000, 0.0000000000000000000 ) ) ;
#131 = DIRECTION ( 'NONE',  ( 0.0000000000000000000, 0.0000000000000000000, 1.000000000000000000 ) ) ;
#132 = AXIS2_PLACEMENT_3D ( 'NONE', #381, #191, #95 ) ;
#133 = COLOUR_RGB ( '',0.3176470588235293935, 0.2470588235294117752, 0.2078431372549019440 ) ;
#134 = DIRECTION ( 'NONE',  ( 1.000000000000000000, 0.0000000000000000000, 0.0000000000000000000 ) ) ;
#135 = DIRECTION ( 'NONE',  ( 0.0000000000000000000, 0.0000000000000000000, 1.000000000000000000 ) ) ;
#136 = PRODUCT_CONTEXT ( 'NONE', #320, 'mechanical' ) ;
#137 = VERTEX_POINT ( 'NONE', #325 ) ;
#138 = CARTESIAN_POINT ( 'NONE',  ( 19.62390617585904451, -4.056120338277206194, -1.000000000000000888 ) ) ;
#139 = STYLED_ITEM ( 'NONE', ( #44 ), #107 ) ;
#140 = CARTESIAN_POINT ( 'NONE',  ( 19.00000000000000355, 4.138974924243582265, 1.000000000000000444 ) ) ;
#141 = VERTEX_POINT ( 'NONE', #230 ) ;
#142 = CIRCLE ( 'NONE', #239, 4.000000000000000000 ) ;
#143 = PRODUCT_DEFINITION_CONTEXT ( 'detailed design', #349, 'design' ) ;
#144 = ADVANCED_FACE ( 'NONE', ( #106 ), #169, .F. ) ;
#145 = PLANE ( 'NONE',  #28 ) ;
#146 = EDGE_CURVE ( 'NONE', #367, #101, #343, .T. ) ;
#147 = DIRECTION ( 'NONE',  ( 0.0000000000000000000, -1.000000000000000000, -1.264902534566421675E-16 ) ) ;
#148 = ORIENTED_EDGE ( 'NONE', *, *, #272, .T. ) ;
#149 = CIRCLE ( 'NONE', #269, 4.849999999999999645 ) ;
#150 = VECTOR ( 'NONE', #340, 1000.000000000000000 ) ;
#151 = AXIS2_PLACEMENT_3D ( 'NONE', #292, #109, #56 ) ;
#152 = CARTESIAN_POINT ( 'NONE',  ( 0.0000000000000000000, 0.0000000000000000000, 0.0000000000000000000 ) ) ;
#153 = ORIENTED_EDGE ( 'NONE', *, *, #395, .T. ) ;
#154 = SURFACE_STYLE_USAGE ( .BOTH. , #210 ) ;
#155 = STYLED_ITEM ( 'NONE', ( #185 ), #385 ) ;
#156 = B_SPLINE_CURVE_WITH_KNOTS ( 'NONE', 3,
 ( #266, #313, #98, #187 ),
 .UNSPECIFIED., .F., .F.,
 ( 4, 4 ),
 ( 0.006391768080491349625, 0.008409378136159332412 ),
 .UNSPECIFIED. ) ;
#157 = DIRECTION ( 'NONE',  ( 0.0000000000000000000, 1.445602896647339163E-16, -1.000000000000000000 ) ) ;
#158 = EDGE_CURVE ( 'NONE', #335, #141, #216, .T. ) ;
#159 =( LENGTH_UNIT ( ) NAMED_UNIT ( * ) SI_UNIT ( .MILLI., .METRE. ) );
#160 = EDGE_LOOP ( 'NONE', ( #351, #148, #205, #291, #250, #78, #328, #331 ) ) ;
#161 = CARTESIAN_POINT ( 'NONE',  ( 19.00000000000000355, -4.138974924243582265, -1.000000000000000888 ) ) ;
#162 = CARTESIAN_POINT ( 'NONE',  ( 21.00000000000000000, 0.0000000000000000000, 0.0000000000000000000 ) ) ;
#163 = STYLED_ITEM ( 'NONE', ( #336 ), #290 ) ;
#164 = CARTESIAN_POINT ( 'NONE',  ( 19.31195532028328898, -4.097564456466368021, -1.000000000000000888 ) ) ;
#165 = ORIENTED_EDGE ( 'NONE', *, *, #158, .F. ) ;
#166 = CONICAL_SURFACE ( 'NONE', #303, 4.000000000000000000, 0.1283232276857948495 ) ;
#167 = ADVANCED_FACE ( 'NONE', ( #123, #52 ), #145, .F. ) ;
#168 = CARTESIAN_POINT ( 'NONE',  ( 20.29057466530457887, 3.967470144506578311, 1.000000000000000444 ) ) ;
#169 = PLANE ( 'NONE',  #350 ) ;
#170 = AXIS2_PLACEMENT_3D ( 'NONE', #243, #309, #65 ) ;
#171 = ORIENTED_EDGE ( 'NONE', *, *, #379, .F. ) ;
#172 = ADVANCED_FACE ( 'NONE', ( #300 ), #270, .F. ) ;
#173 = CARTESIAN_POINT ( 'NONE',  ( 19.00000000000000355, 5.999999999999999112, 1.000000000000000666 ) ) ;
#174 = EDGE_LOOP ( 'NONE', ( #264, #122, #259, #105, #267, #319, #305, #342 ) ) ;
#175 = VERTEX_POINT ( 'NONE', #62 ) ;
#176 = AXIS2_PLACEMENT_3D ( 'NONE', #277, #8, #125 ) ;
#177 = DIRECTION ( 'NONE',  ( -0.9917778666340251181, 1.567196890114257601E-17, -0.1279713376301968020 ) ) ;
#178 = EDGE_LOOP ( 'NONE', ( #273, #394, #206, #171 ) ) ;
#179 = EDGE_CURVE ( 'NONE', #284, #79, #378, .T. ) ;
#180 = AXIS2_PLACEMENT_3D ( 'NONE', #240, #89, #207 ) ;
#181 = DIRECTION ( 'NONE',  ( 0.0000000000000000000, 0.0000000000000000000, 1.000000000000000000 ) ) ;
#182 = ORIENTED_EDGE ( 'NONE', *, *, #146, .T. ) ;
#183 = CIRCLE ( 'NONE', #280, 4.000000000000000000 ) ;
#184 = DIRECTION ( 'NONE',  ( 0.0000000000000000000, 0.0000000000000000000, 1.000000000000000000 ) ) ;
#185 = PRESENTATION_STYLE_ASSIGNMENT (( #102 ) ) ;
#186 = SHAPE_DEFINITION_REPRESENTATION ( #237, #107 ) ;
#187 = CARTESIAN_POINT ( 'NONE',  ( 21.00000000000000000, 3.872983346207417021, -0.9999999999999995559 ) ) ;
#188 = VERTEX_POINT ( 'NONE', #396 ) ;
#189 = CYLINDRICAL_SURFACE ( 'NONE', #229, 4.849999999999999645 ) ;
#190 = MECHANICAL_DESIGN_GEOMETRIC_PRESENTATION_REPRESENTATION (  '', ( #155 ), #361 ) ;
#191 = DIRECTION ( 'NONE',  ( -1.000000000000000000, -0.0000000000000000000, -0.0000000000000000000 ) ) ;
#192 = EDGE_CURVE ( 'NONE', #101, #367, #149, .T. ) ;
#193 = DIRECTION ( 'NONE',  ( 0.0000000000000000000, 1.000000000000000000, 1.264902534566421675E-16 ) ) ;
#194 = VERTEX_POINT ( 'NONE', #83 ) ;
#195 = PRESENTATION_STYLE_ASSIGNMENT (( #154 ) ) ;
#196 = DIRECTION ( 'NONE',  ( -1.000000000000000000, -0.0000000000000000000, -0.0000000000000000000 ) ) ;
#197 = CIRCLE ( 'NONE', #58, 6.000000000000000000 ) ;
#198 = MECHANICAL_DESIGN_GEOMETRIC_PRESENTATION_REPRESENTATION (  '', ( #163 ), #84 ) ;
#199 = EDGE_LOOP ( 'NONE', ( #128, #323 ) ) ;
#200 = DIRECTION ( 'NONE',  ( 0.0000000000000000000, -1.264902534566421675E-16, 1.000000000000000000 ) ) ;
#201 = CYLINDRICAL_SURFACE ( 'NONE', #71, 4.849999999999999645 ) ;
#202 = VECTOR ( 'NONE', #42, 1000.000000000000000 ) ;
#203 = VECTOR ( 'NONE', #147, 1000.000000000000000 ) ;
#204 = UNCERTAINTY_MEASURE_WITH_UNIT (LENGTH_MEASURE( 1.000000000000000082E-05 ), #283, 'distance_accuracy_value', 'NONE');
#205 = ORIENTED_EDGE ( 'NONE', *, *, #19, .T. ) ;
#206 = ORIENTED_EDGE ( 'NONE', *, *, #357, .T. ) ;
#207 = DIRECTION ( 'NONE',  ( -0.0000000000000000000, 0.0000000000000000000, 1.000000000000000000 ) ) ;
#208 = PRESENTATION_LAYER_ASSIGNMENT (  '', '', ( #15 ) ) ;
#209 = FILL_AREA_STYLE ('',( #33 ) ) ;
#210 = SURFACE_SIDE_STYLE ('',( #81 ) ) ;
#211 = ORIENTED_EDGE ( 'NONE', *, *, #365, .T. ) ;
#212 = EDGE_CURVE ( 'NONE', #188, #175, #17, .T. ) ;
#213 = DIRECTION ( 'NONE',  ( -1.000000000000000000, -0.0000000000000000000, -0.0000000000000000000 ) ) ;
#214 = FILL_AREA_STYLE_COLOUR ( '', #22 ) ;
#215 = DIRECTION ( 'NONE',  ( 0.0000000000000000000, 0.0000000000000000000, 1.000000000000000000 ) ) ;
#216 = LINE ( 'NONE', #327, #203 ) ;
#217 = EDGE_LOOP ( 'NONE', ( #34, #116, #332, #211 ) ) ;
#218 = SURFACE_SIDE_STYLE ('',( #97 ) ) ;
#219 = CARTESIAN_POINT ( 'NONE',  ( 19.00000000000000355, 4.138974924243582265, 1.000000000000000444 ) ) ;
#220 = AXIS2_PLACEMENT_3D ( 'NONE', #162, #225, #135 ) ;
#221 =( NAMED_UNIT ( * ) SI_UNIT ( $, .STERADIAN. ) SOLID_ANGLE_UNIT ( ) );
#222 =( NAMED_UNIT ( * ) SI_UNIT ( $, .STERADIAN. ) SOLID_ANGLE_UNIT ( ) );
#223 = ORIENTED_EDGE ( 'NONE', *, *, #146, .F. ) ;
#224 = DIRECTION ( 'NONE',  ( 0.0000000000000000000, 0.0000000000000000000, 1.000000000000000000 ) ) ;
#225 = DIRECTION ( 'NONE',  ( -1.000000000000000000, -0.0000000000000000000, -0.0000000000000000000 ) ) ;
#226 = CARTESIAN_POINT ( 'NONE',  ( 21.00000000000000000, 0.0000000000000000000, 0.0000000000000000000 ) ) ;
#227 = ORIENTED_EDGE ( 'NONE', *, *, #298, .F. ) ;
#228 = FACE_OUTER_BOUND ( 'NONE', #160, .T. ) ;
#229 = AXIS2_PLACEMENT_3D ( 'NONE', #373, #372, #3 ) ;
#230 = CARTESIAN_POINT ( 'NONE',  ( 19.00000000000000355, -4.138974924243582265, 0.9999999999999995559 ) ) ;
#231 = CLOSED_SHELL ( 'NONE', ( #20, #290, #258, #362, #233, #167, #54, #172, #391, #144, #326 ) ) ;
#232 = EDGE_CURVE ( 'NONE', #141, #312, #242, .T. ) ;
#233 = ADVANCED_FACE ( 'NONE', ( #5 ), #189, .T. ) ;
#234 = FACE_OUTER_BOUND ( 'NONE', #358, .T. ) ;
#235 = AXIS2_PLACEMENT_3D ( 'NONE', #382, #224, #253 ) ;
#236 = CIRCLE ( 'NONE', #286, 4.849999999999999645 ) ;
#237 = PRODUCT_DEFINITION_SHAPE ( 'NONE', 'NONE',  #113 ) ;
#238 = SURFACE_STYLE_USAGE ( .BOTH. , #60 ) ;
#239 = AXIS2_PLACEMENT_3D ( 'NONE', #51, #73, #251 ) ;
#240 = CARTESIAN_POINT ( 'NONE',  ( 21.00000000000000000, 4.000000000000000000, 0.0000000000000000000 ) ) ;
#241 = CARTESIAN_POINT ( 'NONE',  ( 21.00000000000000000, 0.0000000000000000000, 0.0000000000000000000 ) ) ;
#242 = B_SPLINE_CURVE_WITH_KNOTS ( 'NONE', 3,
 ( #302, #87, #339, #124 ),
 .UNSPECIFIED., .F., .F.,
 ( 4, 4 ),
 ( 0.006391768080491348758, 0.008409378136159332412 ),
 .UNSPECIFIED. ) ;
#243 = CARTESIAN_POINT ( 'NONE',  ( 21.00000000000000000, 4.000000000000000000, 0.0000000000000000000 ) ) ;
#244 = ORIENTED_EDGE ( 'NONE', *, *, #4, .T. ) ;
#245 = VECTOR ( 'NONE', #48, 1000.000000000000000 ) ;
#246 = B_SPLINE_CURVE_WITH_KNOTS ( 'NONE', 3,
 ( #288, #348, #16, #275, #138, #164, #387 ),
 .UNSPECIFIED., .F., .F.,
 ( 4, 3, 4 ),
 ( 0.006262312645406147710, 0.007335846951037747719, 0.008279922001959203956 ),
 .UNSPECIFIED. ) ;
#247 = DIRECTION ( 'NONE',  ( -1.000000000000000000, -0.0000000000000000000, -0.0000000000000000000 ) ) ;
#248 =( NAMED_UNIT ( * ) PLANE_ANGLE_UNIT ( ) SI_UNIT ( $, .RADIAN. ) );
#249 = DIRECTION ( 'NONE',  ( 0.0000000000000000000, 0.0000000000000000000, -1.000000000000000000 ) ) ;
#250 = ORIENTED_EDGE ( 'NONE', *, *, #232, .T. ) ;
#251 = DIRECTION ( 'NONE',  ( 0.0000000000000000000, 0.0000000000000000000, 1.000000000000000000 ) ) ;
#252 = SURFACE_SIDE_STYLE ('',( #370 ) ) ;
#253 = DIRECTION ( 'NONE',  ( 1.000000000000000000, 0.0000000000000000000, 0.0000000000000000000 ) ) ;
#254 = CARTESIAN_POINT ( 'NONE',  ( 21.00000000000000000, 0.0000000000000000000, 0.0000000000000000000 ) ) ;
#255 = ORIENTED_EDGE ( 'NONE', *, *, #74, .F. ) ;
#256 = FACE_OUTER_BOUND ( 'NONE', #174, .T. ) ;
#257 = FACE_OUTER_BOUND ( 'NONE', #217, .T. ) ;
#258 = ADVANCED_FACE ( 'NONE', ( #234 ), #32, .F. ) ;
#259 = ORIENTED_EDGE ( 'NONE', *, *, #99, .F. ) ;
#260 = SURFACE_STYLE_FILL_AREA ( #64 ) ;
#261 = CARTESIAN_POINT ( 'NONE',  ( 5.500000000000000000, 7.347880794884120722E-16, -6.000000000000000000 ) ) ;
#262 = AXIS2_PLACEMENT_3D ( 'NONE', #346, #322, #388 ) ;
#263 = ORIENTED_EDGE ( 'NONE', *, *, #192, .F. ) ;
#264 = ORIENTED_EDGE ( 'NONE', *, *, #298, .T. ) ;
#265 = LINE ( 'NONE', #72, #202 ) ;
#266 = CARTESIAN_POINT ( 'NONE',  ( 19.00000000000000355, 4.138974924243582265, -0.9999999999999995559 ) ) ;
#267 = ORIENTED_EDGE ( 'NONE', *, *, #41, .T. ) ;
#268 = DIRECTION ( 'NONE',  ( 0.0000000000000000000, 0.0000000000000000000, 1.000000000000000000 ) ) ;
#269 = AXIS2_PLACEMENT_3D ( 'NONE', #369, #1, #181 ) ;
#270 = PLANE ( 'NONE',  #180 ) ;
#271 =( LENGTH_UNIT ( ) NAMED_UNIT ( * ) SI_UNIT ( .MILLI., .METRE. ) );
#272 = EDGE_CURVE ( 'NONE', #284, #175, #110, .T. ) ;
#273 = ORIENTED_EDGE ( 'NONE', *, *, #386, .F. ) ;
#274 = LINE ( 'NONE', #45, #245 ) ;
#275 = CARTESIAN_POINT ( 'NONE',  ( 19.93585212656085304, -4.014639348229697369, -1.000000000000000888 ) ) ;
#276 = UNCERTAINTY_MEASURE_WITH_UNIT (LENGTH_MEASURE( 1.000000000000000082E-05 ), #69, 'distance_accuracy_value', 'NONE');
#277 = CARTESIAN_POINT ( 'NONE',  ( 0.0000000000000000000, 0.0000000000000000000, 0.0000000000000000000 ) ) ;
#278 = CARTESIAN_POINT ( 'NONE',  ( 5.500000000000000000, 0.0000000000000000000, 0.0000000000000000000 ) ) ;
#279 = AXIS2_PLACEMENT_3D ( 'NONE', #94, #315, #13 ) ;
#280 = AXIS2_PLACEMENT_3D ( 'NONE', #226, #66, #90 ) ;
#281 = PLANE ( 'NONE',  #35 ) ;
#282 = CARTESIAN_POINT ( 'NONE',  ( 5.500000000000000000, 5.939536975864661982E-16, -4.849999999999999645 ) ) ;
#283 =( LENGTH_UNIT ( ) NAMED_UNIT ( * ) SI_UNIT ( .MILLI., .METRE. ) );
#284 = VERTEX_POINT ( 'NONE', #121 ) ;
#285 = APPLICATION_PROTOCOL_DEFINITION ( 'draft international standard', 'automotive_design', 1998, #320 ) ;
#286 = AXIS2_PLACEMENT_3D ( 'NONE', #130, #376, #215 ) ;
#287 = ORIENTED_EDGE ( 'NONE', *, *, #357, .F. ) ;
#288 = CARTESIAN_POINT ( 'NONE',  ( 21.00000000000000000, -3.872983346207417021, -1.000000000000000888 ) ) ;
#289 = CARTESIAN_POINT ( 'NONE',  ( 19.31195532028328898, 4.097564456466368021, 1.000000000000000444 ) ) ;
#290 = ADVANCED_FACE ( 'NONE', ( #30 ), #201, .T. ) ;
#291 = ORIENTED_EDGE ( 'NONE', *, *, #61, .F. ) ;
#292 = CARTESIAN_POINT ( 'NONE',  ( 5.500000000000000000, 0.0000000000000000000, 0.0000000000000000000 ) ) ;
#293 = FACE_OUTER_BOUND ( 'NONE', #63, .T. ) ;
#294 = PRESENTATION_LAYER_ASSIGNMENT (  '', '', ( #163 ) ) ;
#295 = CARTESIAN_POINT ( 'NONE',  ( 5.500000000000000000, 0.0000000000000000000, 0.0000000000000000000 ) ) ;
#296 = EDGE_LOOP ( 'NONE', ( #182, #344, #49, #287 ) ) ;
#297 = DIRECTION ( 'NONE',  ( -1.000000000000000000, -0.0000000000000000000, -0.0000000000000000000 ) ) ;
#298 = EDGE_CURVE ( 'NONE', #188, #284, #314, .T. ) ;
#299 = VERTEX_POINT ( 'NONE', #374 ) ;
#300 = FACE_OUTER_BOUND ( 'NONE', #364, .T. ) ;
#301 = VECTOR ( 'NONE', #375, 1000.000000000000000 ) ;
#302 = CARTESIAN_POINT ( 'NONE',  ( 19.00000000000000355, -4.138974924243582265, 0.9999999999999995559 ) ) ;
#303 = AXIS2_PLACEMENT_3D ( 'NONE', #254, #196, #384 ) ;
#304 = CARTESIAN_POINT ( 'NONE',  ( 21.00000000000000000, 4.898587196589412829E-16, -4.000000000000000000 ) ) ;
#305 = ORIENTED_EDGE ( 'NONE', *, *, #39, .F. ) ;
#306 =( NAMED_UNIT ( * ) PLANE_ANGLE_UNIT ( ) SI_UNIT ( $, .RADIAN. ) );
#307 =( GEOMETRIC_REPRESENTATION_CONTEXT ( 3 ) GLOBAL_UNCERTAINTY_ASSIGNED_CONTEXT ( ( #276 ) ) GLOBAL_UNIT_ASSIGNED_CONTEXT ( ( #69, #103, #75 ) ) REPRESENTATION_CONTEXT ( 'NONE', 'WORKASPACE' ) );
#308 = UNCERTAINTY_MEASURE_WITH_UNIT (LENGTH_MEASURE( 1.000000000000000082E-05 ), #88, 'distance_accuracy_value', 'NONE');
#309 = DIRECTION ( 'NONE',  ( -1.000000000000000000, 0.0000000000000000000, -0.0000000000000000000 ) ) ;
#310 = B_SPLINE_CURVE_WITH_KNOTS ( 'NONE', 3,
 ( #355, #77, #168, #80, #356, #289, #140 ),
 .UNSPECIFIED., .F., .F.,
 ( 4, 3, 4 ),
 ( 0.006262312645406147710, 0.007335846951037747719, 0.008279922001959203956 ),
 .UNSPECIFIED. ) ;
#311 = ORIENTED_EDGE ( 'NONE', *, *, #272, .F. ) ;
#312 = VERTEX_POINT ( 'NONE', #31 ) ;
#313 = CARTESIAN_POINT ( 'NONE',  ( 19.66668849974298539, 4.050475447424351394, -0.9999999999999995559 ) ) ;
#314 = CIRCLE ( 'NONE', #132, 4.000000000000000000 ) ;
#315 = DIRECTION ( 'NONE',  ( 1.000000000000000000, 0.0000000000000000000, 0.0000000000000000000 ) ) ;
#316 = CARTESIAN_POINT ( 'NONE',  ( 19.00000000000000355, 6.000000000000000000, -0.9999999999999993339 ) ) ;
#317 = AXIS2_PLACEMENT_3D ( 'NONE', #40, #134, #249 ) ;
#318 = CARTESIAN_POINT ( 'NONE',  ( 19.00000000000000355, 4.138974924243582265, -0.9999999999999995559 ) ) ;
#319 = ORIENTED_EDGE ( 'NONE', *, *, #74, .T. ) ;
#320 = APPLICATION_CONTEXT ( 'automotive_design' ) ;
#321 = EDGE_CURVE ( 'NONE', #2, #188, #156, .T. ) ;
#322 = DIRECTION ( 'NONE',  ( 1.000000000000000000, 0.0000000000000000000, 0.0000000000000000000 ) ) ;
#323 = ORIENTED_EDGE ( 'NONE', *, *, #341, .T. ) ;
#324 = DIRECTION ( 'NONE',  ( 1.000000000000000000, 0.0000000000000000000, 0.0000000000000000000 ) ) ;
#325 = CARTESIAN_POINT ( 'NONE',  ( 21.00000000000000000, 0.0000000000000000000, 4.000000000000000000 ) ) ;
#326 = ADVANCED_FACE ( 'NONE', ( #293 ), #281, .F. ) ;
#327 = CARTESIAN_POINT ( 'NONE',  ( 19.00000000000000355, 5.999999999999999112, 1.000000000000000666 ) ) ;
#328 = ORIENTED_EDGE ( 'NONE', *, *, #12, .T. ) ;
#329 = MECHANICAL_DESIGN_GEOMETRIC_PRESENTATION_REPRESENTATION (  '', ( #139 ), #96 ) ;
#330 = DIRECTION ( 'NONE',  ( 0.0000000000000000000, 0.0000000000000000000, 1.000000000000000000 ) ) ;
#331 = ORIENTED_EDGE ( 'NONE', *, *, #341, .F. ) ;
#332 = ORIENTED_EDGE ( 'NONE', *, *, #61, .T. ) ;
#333 = UNCERTAINTY_MEASURE_WITH_UNIT (LENGTH_MEASURE( 1.000000000000000082E-05 ), #271, 'distance_accuracy_value', 'NONE');
#334 = CARTESIAN_POINT ( 'NONE',  ( 21.00000000000000000, 4.000000000000000000, -0.9999999999999995559 ) ) ;
#335 = VERTEX_POINT ( 'NONE', #219 ) ;
#336 = PRESENTATION_STYLE_ASSIGNMENT (( #238 ) ) ;
#337 =( NAMED_UNIT ( * ) SI_UNIT ( $, .STERADIAN. ) SOLID_ANGLE_UNIT ( ) );
#338 = PRESENTATION_LAYER_ASSIGNMENT (  '', '', ( #155 ) ) ;
#339 = CARTESIAN_POINT ( 'NONE',  ( 20.33335683426584239, -3.961822843110689885, 0.9999999999999993339 ) ) ;
#340 = DIRECTION ( 'NONE',  ( 0.0000000000000000000, -1.000000000000000000, -1.445602896647339163E-16 ) ) ;
#341 = EDGE_CURVE ( 'NONE', #79, #352, #197, .T. ) ;
#342 = ORIENTED_EDGE ( 'NONE', *, *, #321, .T. ) ;
#343 = CIRCLE ( 'NONE', #115, 4.849999999999999645 ) ;
#344 = ORIENTED_EDGE ( 'NONE', *, *, #386, .T. ) ;
#345 = FILL_AREA_STYLE_COLOUR ( '', #114 ) ;
#346 = CARTESIAN_POINT ( 'NONE',  ( 19.00000000000000355, 0.0000000000000000000, 0.0000000000000000000 ) ) ;
#347 = DIRECTION ( 'NONE',  ( -1.000000000000000000, -0.0000000000000000000, -0.0000000000000000000 ) ) ;
#348 = CARTESIAN_POINT ( 'NONE',  ( 20.64529087084004288, -3.920253283411176959, -1.000000000000000888 ) ) ;
#349 = APPLICATION_CONTEXT ( 'automotive_design' ) ;
#350 = AXIS2_PLACEMENT_3D ( 'NONE', #173, #200, #389 ) ;
#351 = ORIENTED_EDGE ( 'NONE', *, *, #179, .F. ) ;
#352 = VERTEX_POINT ( 'NONE', #67 ) ;
#353 = UNCERTAINTY_MEASURE_WITH_UNIT (LENGTH_MEASURE( 1.000000000000000082E-05 ), #159, 'distance_accuracy_value', 'NONE');
#354 = CARTESIAN_POINT ( 'NONE',  ( 21.00000000000000000, 4.000000000000000000, 1.000000000000000444 ) ) ;
#355 = CARTESIAN_POINT ( 'NONE',  ( 21.00000000000000000, 3.872983346207417021, 1.000000000000000444 ) ) ;
#356 = CARTESIAN_POINT ( 'NONE',  ( 19.62390617585904451, 4.056120338277206194, 1.000000000000000444 ) ) ;
#357 = EDGE_CURVE ( 'NONE', #367, #299, #265, .T. ) ;
#358 = EDGE_LOOP ( 'NONE', ( #111, #244, #11 ) ) ;
#359 = CARTESIAN_POINT ( 'NONE',  ( 21.00000000000000000, 3.872983346207417021, 1.000000000000000444 ) ) ;
#360 = VECTOR ( 'NONE', #347, 1000.000000000000000 ) ;
#361 =( GEOMETRIC_REPRESENTATION_CONTEXT ( 3 ) GLOBAL_UNCERTAINTY_ASSIGNED_CONTEXT ( ( #353 ) ) GLOBAL_UNIT_ASSIGNED_CONTEXT ( ( #159, #248, #221 ) ) REPRESENTATION_CONTEXT ( 'NONE', 'WORKASPACE' ) );
#362 = ADVANCED_FACE ( 'NONE', ( #7 ), #43, .F. ) ;
#363 = DIRECTION ( 'NONE',  ( 0.0000000000000000000, 0.0000000000000000000, -1.000000000000000000 ) ) ;
#364 = EDGE_LOOP ( 'NONE', ( #227, #29, #311 ) ) ;
#365 = EDGE_CURVE ( 'NONE', #392, #2, #118, .T. ) ;
#366 = LINE ( 'NONE', #354, #129 ) ;
#367 = VERTEX_POINT ( 'NONE', #38 ) ;
#368 = EDGE_LOOP ( 'NONE', ( #165, #255, #112, #21 ) ) ;
#369 = CARTESIAN_POINT ( 'NONE',  ( 5.500000000000000000, 0.0000000000000000000, 0.0000000000000000000 ) ) ;
#370 = SURFACE_STYLE_FILL_AREA ( #46 ) ;
#371 =( NAMED_UNIT ( * ) PLANE_ANGLE_UNIT ( ) SI_UNIT ( $, .RADIAN. ) );
#372 = DIRECTION ( 'NONE',  ( -1.000000000000000000, -0.0000000000000000000, -0.0000000000000000000 ) ) ;
#373 = CARTESIAN_POINT ( 'NONE',  ( 0.0000000000000000000, 0.0000000000000000000, 0.0000000000000000000 ) ) ;
#374 = CARTESIAN_POINT ( 'NONE',  ( 0.0000000000000000000, 0.0000000000000000000, 4.849999999999999645 ) ) ;
#375 = DIRECTION ( 'NONE',  ( -0.0000000000000000000, 1.000000000000000000, 1.445602896647339163E-16 ) ) ;
#376 = DIRECTION ( 'NONE',  ( -1.000000000000000000, -0.0000000000000000000, -0.0000000000000000000 ) ) ;
#377 = ORIENTED_EDGE ( 'NONE', *, *, #379, .T. ) ;
#378 = LINE ( 'NONE', #304, #93 ) ;
#379 = EDGE_CURVE ( 'NONE', #194, #299, #55, .T. ) ;
#380 = PLANE ( 'NONE',  #279 ) ;
#381 = CARTESIAN_POINT ( 'NONE',  ( 21.00000000000000000, 0.0000000000000000000, 0.0000000000000000000 ) ) ;
#382 = CARTESIAN_POINT ( 'NONE',  ( 0.0000000000000000000, 0.0000000000000000000, 0.0000000000000000000 ) ) ;
#383 = PRESENTATION_LAYER_ASSIGNMENT (  '', '', ( #139 ) ) ;
#384 = DIRECTION ( 'NONE',  ( 0.0000000000000000000, 0.0000000000000000000, 1.000000000000000000 ) ) ;
#385 = MANIFOLD_SOLID_BREP ( 'Cut-Extrude1', #231 ) ;
#386 = EDGE_CURVE ( 'NONE', #101, #194, #18, .T. ) ;
#387 = CARTESIAN_POINT ( 'NONE',  ( 19.00000000000000355, -4.138974924243582265, -1.000000000000000888 ) ) ;
#388 = DIRECTION ( 'NONE',  ( 0.0000000000000000000, 0.0000000000000000000, -1.000000000000000000 ) ) ;
#389 = DIRECTION ( 'NONE',  ( 0.0000000000000000000, -1.000000000000000000, -1.264902534566421675E-16 ) ) ;
#390 = ORIENTED_EDGE ( 'NONE', *, *, #365, .F. ) ;
#391 = ADVANCED_FACE ( 'NONE', ( #257 ), #380, .T. ) ;
#392 = VERTEX_POINT ( 'NONE', #161 ) ;
#393 = AXIS2_PLACEMENT_3D ( 'NONE', #108, #324, #363 ) ;
#394 = ORIENTED_EDGE ( 'NONE', *, *, #192, .T. ) ;
#395 = EDGE_CURVE ( 'NONE', #299, #194, #236, .T. ) ;
#396 = CARTESIAN_POINT ( 'NONE',  ( 21.00000000000000000, 3.872983346207417021, -0.9999999999999995559 ) ) ;
ENDSEC;
END-ISO-10303-21;
