ISO-10303-21;
HEADER;
FILE_DESCRIPTION (( 'STEP AP214' ),
    '1' );
FILE_NAME ('AZ-SCT3.STEP',
    '2018-09-03T08:56:22',
    ( '' ),
    ( '' ),
    'SwSTEP 2.0',
    'SolidWorks 2018',
    '' );
FILE_SCHEMA (( 'AUTOMOTIVE_DESIGN' ));
ENDSEC;

DATA;
#1 = CARTESIAN_POINT ( 'NONE',  ( 8.500000000000000000, 9.797174393178827630E-16, -8.000000000000000000 ) ) ;
#2 = CLOSED_SHELL ( 'NONE', ( #22, #88, #119, #123, #180, #330, #243, #213, #125, #151, #272 ) ) ;
#3 = EDGE_CURVE ( 'NONE', #360, #339, #258, .T. ) ;
#4 = CARTESIAN_POINT ( 'NONE',  ( 0.0000000000000000000, 8.082668874372531019E-16, -6.599999999999999645 ) ) ;
#5 = DIRECTION ( 'NONE',  ( 0.0000000000000000000, 0.0000000000000000000, 1.000000000000000000 ) ) ;
#6 = AXIS2_PLACEMENT_3D ( 'NONE', #294, #256, #252 ) ;
#7 = CARTESIAN_POINT ( 'NONE',  ( 27.00000000000000000, 0.0000000000000000000, 0.0000000000000000000 ) ) ;
#8 = FACE_BOUND ( 'NONE', #293, .T. ) ;
#9 = CIRCLE ( 'NONE', #176, 5.000000000000000000 ) ;
#10 = CARTESIAN_POINT ( 'NONE',  ( 27.00000000000000000, 4.898979485566356651, 1.000000000000000444 ) ) ;
#11 = CARTESIAN_POINT ( 'NONE',  ( 27.00000000000000000, 5.000000000000000000, 0.0000000000000000000 ) ) ;
#12 = EDGE_CURVE ( 'NONE', #271, #26, #317, .T. ) ;
#13 = CARTESIAN_POINT ( 'NONE',  ( 26.69708462977771646, 4.949113816126549992, 1.000000000000000444 ) ) ;
#14 =( LENGTH_UNIT ( ) NAMED_UNIT ( * ) SI_UNIT ( .MILLI., .METRE. ) );
#15 = VERTEX_POINT ( 'NONE', #32 ) ;
#16 = DIRECTION ( 'NONE',  ( -0.9871054777475851694, 0.0000000000000000000, 0.1600711585536624681 ) ) ;
#17 =( LENGTH_UNIT ( ) NAMED_UNIT ( * ) SI_UNIT ( .MILLI., .METRE. ) );
#18 = ORIENTED_EDGE ( 'NONE', *, *, #351, .F. ) ;
#19 = ORIENTED_EDGE ( 'NONE', *, *, #69, .T. ) ;
#20 = VECTOR ( 'NONE', #106, 1000.000000000000000 ) ;
#21 = DIRECTION ( 'NONE',  ( 1.000000000000000000, 0.0000000000000000000, 0.0000000000000000000 ) ) ;
#22 = ADVANCED_FACE ( 'NONE', ( #265 ), #214, .T. ) ;
#23 = ORIENTED_EDGE ( 'NONE', *, *, #307, .F. ) ;
#24 = AXIS2_PLACEMENT_3D ( 'NONE', #311, #133, #342 ) ;
#25 = ORIENTED_EDGE ( 'NONE', *, *, #391, .T. ) ;
#26 = VERTEX_POINT ( 'NONE', #340 ) ;
#27 = EDGE_CURVE ( 'NONE', #40, #89, #336, .T. ) ;
#28 = PRODUCT_CONTEXT ( 'NONE', #325, 'mechanical' ) ;
#29 = ORIENTED_EDGE ( 'NONE', *, *, #27, .F. ) ;
#30 = AXIS2_PLACEMENT_3D ( 'NONE', #295, #240, #175 ) ;
#31 = CARTESIAN_POINT ( 'NONE',  ( 25.00000000000000000, 6.000000000000000000, -0.9999999999999993339 ) ) ;
#32 = CARTESIAN_POINT ( 'NONE',  ( 8.500000000000000000, 0.0000000000000000000, 6.599999999999999645 ) ) ;
#33 = VERTEX_POINT ( 'NONE', #246 ) ;
#34 = EDGE_CURVE ( 'NONE', #339, #40, #137, .T. ) ;
#35 = LINE ( 'NONE', #4, #58 ) ;
#36 = ORIENTED_EDGE ( 'NONE', *, *, #307, .T. ) ;
#37 = FILL_AREA_STYLE ('',( #65 ) ) ;
#38 = CARTESIAN_POINT ( 'NONE',  ( 27.00000000000000000, 0.0000000000000000000, 5.000000000000000000 ) ) ;
#39 = CARTESIAN_POINT ( 'NONE',  ( 27.00000000000000000, 4.898979485566356651, -0.9999999999999995559 ) ) ;
#40 = VERTEX_POINT ( 'NONE', #219 ) ;
#41 = MANIFOLD_SOLID_BREP ( 'Cut-Extrude1', #2 ) ;
#42 = CIRCLE ( 'NONE', #229, 5.324324324324322788 ) ;
#43 = CARTESIAN_POINT ( 'NONE',  ( 25.00000000000000000, 5.999999999999999112, 1.000000000000000666 ) ) ;
#44 = PRESENTATION_LAYER_ASSIGNMENT (  '', '', ( #116 ) ) ;
#45 = EDGE_LOOP ( 'NONE', ( #310, #147, #250, #392, #196, #241, #267, #113 ) ) ;
#46 = CARTESIAN_POINT ( 'NONE',  ( 27.00000000000000000, 7.960204194457795477E-16, -5.000000000000000000 ) ) ;
#47 = PRESENTATION_STYLE_ASSIGNMENT (( #191 ) ) ;
#48 =( GEOMETRIC_REPRESENTATION_CONTEXT ( 3 ) GLOBAL_UNCERTAINTY_ASSIGNED_CONTEXT ( ( #381 ) ) GLOBAL_UNIT_ASSIGNED_CONTEXT ( ( #255, #169, #289 ) ) REPRESENTATION_CONTEXT ( 'NONE', 'WORKASPACE' ) );
#49 = ORIENTED_EDGE ( 'NONE', *, *, #178, .T. ) ;
#50 = PRESENTATION_STYLE_ASSIGNMENT (( #203 ) ) ;
#51 = FILL_AREA_STYLE_COLOUR ( '', #131 ) ;
#52 = DIRECTION ( 'NONE',  ( 0.0000000000000000000, 0.0000000000000000000, 1.000000000000000000 ) ) ;
#53 = EDGE_CURVE ( 'NONE', #126, #59, #70, .T. ) ;
#54 = EDGE_LOOP ( 'NONE', ( #97, #153, #210 ) ) ;
#55 = APPLICATION_PROTOCOL_DEFINITION ( 'draft international standard', 'automotive_design', 1998, #325 ) ;
#56 = SURFACE_STYLE_FILL_AREA ( #67 ) ;
#57 = CARTESIAN_POINT ( 'NONE',  ( 25.72749926941503773, -5.109425808441958594, -1.000000000000000888 ) ) ;
#58 = VECTOR ( 'NONE', #343, 1000.000000000000000 ) ;
#59 = VERTEX_POINT ( 'NONE', #68 ) ;
#60 = APPLICATION_PROTOCOL_DEFINITION ( 'draft international standard', 'automotive_design', 1998, #388 ) ;
#61 = AXIS2_PLACEMENT_3D ( 'NONE', #11, #172, #228 ) ;
#62 = COLOUR_RGB ( '',0.3176470588235293935, 0.2470588235294117752, 0.2078431372549019440 ) ;
#63 = CARTESIAN_POINT ( 'NONE',  ( 26.33335590177265928, -5.009313126153843498, 0.9999999999999993339 ) ) ;
#64 = ORIENTED_EDGE ( 'NONE', *, *, #382, .F. ) ;
#65 = FILL_AREA_STYLE_COLOUR ( '', #273 ) ;
#66 = PRODUCT_DEFINITION ( 'UNKNOWN', '', #354, #110 ) ;
#67 = FILL_AREA_STYLE ('',( #96 ) ) ;
#68 = CARTESIAN_POINT ( 'NONE',  ( 27.00000000000000000, 4.898979485566356651, 1.000000000000000444 ) ) ;
#69 = EDGE_CURVE ( 'NONE', #128, #284, #35, .T. ) ;
#70 = CIRCLE ( 'NONE', #161, 5.000000000000000000 ) ;
#71 = CARTESIAN_POINT ( 'NONE',  ( 27.00000000000000000, 0.0000000000000000000, 0.0000000000000000000 ) ) ;
#72 = DIRECTION ( 'NONE',  ( 0.0000000000000000000, -1.000000000000000000, -1.445602896647339163E-16 ) ) ;
#73 =( GEOMETRIC_REPRESENTATION_CONTEXT ( 3 ) GLOBAL_UNCERTAINTY_ASSIGNED_CONTEXT ( ( #120 ) ) GLOBAL_UNIT_ASSIGNED_CONTEXT ( ( #186, #283, #94 ) ) REPRESENTATION_CONTEXT ( 'NONE', 'WORKASPACE' ) );
#74 = B_SPLINE_CURVE_WITH_KNOTS ( 'NONE', 3,
 ( #10, #13, #168, #348, #76, #138, #355 ),
 .UNSPECIFIED., .F., .F.,
 ( 4, 3, 4 ),
 ( 0.007953124672953131372, 0.008874232524136937972, 0.009980262503619167364 ),
 .UNSPECIFIED. ) ;
#75 = VERTEX_POINT ( 'NONE', #247 ) ;
#76 = CARTESIAN_POINT ( 'NONE',  ( 25.72749926941504484, 5.109425808441958594, 1.000000000000000444 ) ) ;
#77 = SURFACE_STYLE_USAGE ( .BOTH. , #375 ) ;
#78 = CYLINDRICAL_SURFACE ( 'NONE', #338, 6.599999999999999645 ) ;
#79 = EDGE_CURVE ( 'NONE', #40, #189, #279, .T. ) ;
#80 = DIRECTION ( 'NONE',  ( 0.0000000000000000000, 0.0000000000000000000, 1.000000000000000000 ) ) ;
#81 = EDGE_LOOP ( 'NONE', ( #301, #181, #225, #105 ) ) ;
#82 = PRESENTATION_LAYER_ASSIGNMENT (  '', '', ( #130 ) ) ;
#83 = CARTESIAN_POINT ( 'NONE',  ( 0.0000000000000000000, 8.082668874372531019E-16, -6.599999999999999645 ) ) ;
#84 = DIRECTION ( 'NONE',  ( 0.0000000000000000000, 0.0000000000000000000, 1.000000000000000000 ) ) ;
#85 =( NAMED_UNIT ( * ) PLANE_ANGLE_UNIT ( ) SI_UNIT ( $, .RADIAN. ) );
#86 = STYLED_ITEM ( 'NONE', ( #292 ), #88 ) ;
#87 = ORIENTED_EDGE ( 'NONE', *, *, #184, .T. ) ;
#88 = ADVANCED_FACE ( 'NONE', ( #199 ), #190, .T. ) ;
#89 = VERTEX_POINT ( 'NONE', #185 ) ;
#90 =( GEOMETRIC_REPRESENTATION_CONTEXT ( 3 ) GLOBAL_UNCERTAINTY_ASSIGNED_CONTEXT ( ( #313 ) ) GLOBAL_UNIT_ASSIGNED_CONTEXT ( ( #17, #85, #233 ) ) REPRESENTATION_CONTEXT ( 'NONE', 'WORKASPACE' ) );
#91 = VECTOR ( 'NONE', #290, 1000.000000000000000 ) ;
#92 = LINE ( 'NONE', #104, #91 ) ;
#93 = DIRECTION ( 'NONE',  ( 0.0000000000000000000, 0.0000000000000000000, 1.000000000000000000 ) ) ;
#94 =( NAMED_UNIT ( * ) SI_UNIT ( $, .STERADIAN. ) SOLID_ANGLE_UNIT ( ) );
#95 =( GEOMETRIC_REPRESENTATION_CONTEXT ( 3 ) GLOBAL_UNCERTAINTY_ASSIGNED_CONTEXT ( ( #194 ) ) GLOBAL_UNIT_ASSIGNED_CONTEXT ( ( #249, #224, #136 ) ) REPRESENTATION_CONTEXT ( 'NONE', 'WORKASPACE' ) );
#96 = FILL_AREA_STYLE_COLOUR ( '', #62 ) ;
#97 = ORIENTED_EDGE ( 'NONE', *, *, #184, .F. ) ;
#98 = PLANE ( 'NONE',  #377 ) ;
#99 = DIRECTION ( 'NONE',  ( 1.000000000000000000, 0.0000000000000000000, 0.0000000000000000000 ) ) ;
#100 = B_SPLINE_CURVE_WITH_KNOTS ( 'NONE', 3,
 ( #327, #238, #260, #286, #57, #146, #296 ),
 .UNSPECIFIED., .F., .F.,
 ( 4, 3, 4 ),
 ( 0.007953124672953131372, 0.008874232524136944911, 0.009980262503619167364 ),
 .UNSPECIFIED. ) ;
#101 = VECTOR ( 'NONE', #72, 1000.000000000000000 ) ;
#102 = FACE_OUTER_BOUND ( 'NONE', #174, .T. ) ;
#103 = DIRECTION ( 'NONE',  ( 0.0000000000000000000, 0.0000000000000000000, 1.000000000000000000 ) ) ;
#104 = CARTESIAN_POINT ( 'NONE',  ( 0.0000000000000000000, 0.0000000000000000000, 6.599999999999999645 ) ) ;
#105 = ORIENTED_EDGE ( 'NONE', *, *, #12, .F. ) ;
#106 = DIRECTION ( 'NONE',  ( 0.0000000000000000000, 1.000000000000000000, 1.264902534566421675E-16 ) ) ;
#107 = AXIS2_PLACEMENT_3D ( 'NONE', #259, #21, #237 ) ;
#108 = DIRECTION ( 'NONE',  ( 0.0000000000000000000, 0.0000000000000000000, 1.000000000000000000 ) ) ;
#109 = VERTEX_POINT ( 'NONE', #1 ) ;
#110 = PRODUCT_DEFINITION_CONTEXT ( 'detailed design', #388, 'design' ) ;
#111 = CARTESIAN_POINT ( 'NONE',  ( 0.0000000000000000000, 0.0000000000000000000, 0.0000000000000000000 ) ) ;
#112 = DIRECTION ( 'NONE',  ( 0.0000000000000000000, 1.445602896647339163E-16, -1.000000000000000000 ) ) ;
#113 = ORIENTED_EDGE ( 'NONE', *, *, #34, .T. ) ;
#114 = PLANE ( 'NONE',  #206 ) ;
#115 = EDGE_LOOP ( 'NONE', ( #29, #124, #347, #324 ) ) ;
#116 = STYLED_ITEM ( 'NONE', ( #50 ), #242 ) ;
#117 = SURFACE_STYLE_FILL_AREA ( #140 ) ;
#118 = ORIENTED_EDGE ( 'NONE', *, *, #202, .T. ) ;
#119 = ADVANCED_FACE ( 'NONE', ( #149 ), #98, .F. ) ;
#120 = UNCERTAINTY_MEASURE_WITH_UNIT (LENGTH_MEASURE( 1.000000000000000082E-05 ), #186, 'distance_accuracy_value', 'NONE');
#121 = ORIENTED_EDGE ( 'NONE', *, *, #155, .T. ) ;
#122 = ORIENTED_EDGE ( 'NONE', *, *, #281, .F. ) ;
#123 = ADVANCED_FACE ( 'NONE', ( #102 ), #344, .F. ) ;
#124 = ORIENTED_EDGE ( 'NONE', *, *, #34, .F. ) ;
#125 = ADVANCED_FACE ( 'NONE', ( #306 ), #167, .T. ) ;
#126 = VERTEX_POINT ( 'NONE', #38 ) ;
#127 = FACE_OUTER_BOUND ( 'NONE', #305, .T. ) ;
#128 = VERTEX_POINT ( 'NONE', #134 ) ;
#129 = DIRECTION ( 'NONE',  ( -1.000000000000000000, -0.0000000000000000000, -0.0000000000000000000 ) ) ;
#130 = STYLED_ITEM ( 'NONE', ( #135 ), #180 ) ;
#131 = COLOUR_RGB ( '',0.3176470588235293935, 0.2470588235294117752, 0.2078431372549019440 ) ;
#132 = DIRECTION ( 'NONE',  ( -1.000000000000000000, -0.0000000000000000000, -0.0000000000000000000 ) ) ;
#133 = DIRECTION ( 'NONE',  ( -1.000000000000000000, -0.0000000000000000000, -0.0000000000000000000 ) ) ;
#134 = CARTESIAN_POINT ( 'NONE',  ( 8.500000000000000000, 8.082668874372531019E-16, -6.599999999999999645 ) ) ;
#135 = PRESENTATION_STYLE_ASSIGNMENT (( #77 ) ) ;
#136 =( NAMED_UNIT ( * ) SI_UNIT ( $, .STERADIAN. ) SOLID_ANGLE_UNIT ( ) );
#137 = B_SPLINE_CURVE_WITH_KNOTS ( 'NONE', 3,
 ( #280, #369, #248, #39 ),
 .UNSPECIFIED., .F., .F.,
 ( 4, 4 ),
 ( 0.007768197290563422404, 0.009795335830864922502 ),
 .UNSPECIFIED. ) ;
#138 = CARTESIAN_POINT ( 'NONE',  ( 25.36375256240901876, 5.169516940455102016, 1.000000000000000666 ) ) ;
#139 = DIRECTION ( 'NONE',  ( -1.000000000000000000, -0.0000000000000000000, -0.0000000000000000000 ) ) ;
#140 = FILL_AREA_STYLE ('',( #353 ) ) ;
#141 = DIRECTION ( 'NONE',  ( -1.000000000000000000, -0.0000000000000000000, -0.0000000000000000000 ) ) ;
#142 = DIRECTION ( 'NONE',  ( 0.0000000000000000000, -1.264902534566421675E-16, 1.000000000000000000 ) ) ;
#143 = DIRECTION ( 'NONE',  ( 0.0000000000000000000, 0.0000000000000000000, 1.000000000000000000 ) ) ;
#144 = AXIS2_PLACEMENT_3D ( 'NONE', #71, #221, #93 ) ;
#145 = CARTESIAN_POINT ( 'NONE',  ( 25.00000000000000000, -5.229572593490948940, 0.9999999999999993339 ) ) ;
#146 = CARTESIAN_POINT ( 'NONE',  ( 25.36375256240901521, -5.169516940455102016, -1.000000000000000888 ) ) ;
#147 = ORIENTED_EDGE ( 'NONE', *, *, #382, .T. ) ;
#148 = DIRECTION ( 'NONE',  ( -1.000000000000000000, -0.0000000000000000000, -0.0000000000000000000 ) ) ;
#149 = FACE_OUTER_BOUND ( 'NONE', #54, .T. ) ;
#150 = CIRCLE ( 'NONE', #244, 6.599999999999999645 ) ;
#151 = ADVANCED_FACE ( 'NONE', ( #285 ), #287, .F. ) ;
#152 = PRODUCT_RELATED_PRODUCT_CATEGORY ( 'part', '', ( #193 ) ) ;
#153 = ORIENTED_EDGE ( 'NONE', *, *, #164, .T. ) ;
#154 = ORIENTED_EDGE ( 'NONE', *, *, #69, .F. ) ;
#155 = EDGE_CURVE ( 'NONE', #211, #284, #376, .T. ) ;
#156 = CARTESIAN_POINT ( 'NONE',  ( 27.00000000000000000, 5.000000000000000000, -0.9999999999999995559 ) ) ;
#157 = EDGE_CURVE ( 'NONE', #59, #33, #74, .T. ) ;
#158 = ORIENTED_EDGE ( 'NONE', *, *, #351, .T. ) ;
#159 = CARTESIAN_POINT ( 'NONE',  ( 27.00000000000000000, 5.000000000000000000, 0.0000000000000000000 ) ) ;
#160 = DIRECTION ( 'NONE',  ( -1.000000000000000000, 0.0000000000000000000, -0.0000000000000000000 ) ) ;
#161 = AXIS2_PLACEMENT_3D ( 'NONE', #309, #132, #5 ) ;
#162 = CARTESIAN_POINT ( 'NONE',  ( 0.0000000000000000000, 0.0000000000000000000, 0.0000000000000000000 ) ) ;
#163 = SURFACE_STYLE_USAGE ( .BOTH. , #346 ) ;
#164 = EDGE_CURVE ( 'NONE', #26, #59, #215, .T. ) ;
#165 = LINE ( 'NONE', #326, #393 ) ;
#166 = CIRCLE ( 'NONE', #345, 6.599999999999999645 ) ;
#167 = PLANE ( 'NONE',  #269 ) ;
#168 = CARTESIAN_POINT ( 'NONE',  ( 26.39416430375729306, 4.999218211021381642, 1.000000000000000444 ) ) ;
#169 =( NAMED_UNIT ( * ) PLANE_ANGLE_UNIT ( ) SI_UNIT ( $, .RADIAN. ) );
#170 = SURFACE_SIDE_STYLE ('',( #308 ) ) ;
#171 = ORIENTED_EDGE ( 'NONE', *, *, #363, .T. ) ;
#172 = DIRECTION ( 'NONE',  ( -1.000000000000000000, 0.0000000000000000000, -0.0000000000000000000 ) ) ;
#173 = PLANE ( 'NONE',  #216 ) ;
#174 = EDGE_LOOP ( 'NONE', ( #121, #158 ) ) ;
#175 = DIRECTION ( 'NONE',  ( 0.0000000000000000000, 0.0000000000000000000, 1.000000000000000000 ) ) ;
#176 = AXIS2_PLACEMENT_3D ( 'NONE', #177, #148, #80 ) ;
#177 = CARTESIAN_POINT ( 'NONE',  ( 27.00000000000000000, 0.0000000000000000000, 0.0000000000000000000 ) ) ;
#178 = EDGE_CURVE ( 'NONE', #75, #109, #303, .T. ) ;
#179 = AXIS2_PLACEMENT_3D ( 'NONE', #320, #230, #315 ) ;
#180 = ADVANCED_FACE ( 'NONE', ( #274 ), #78, .T. ) ;
#181 = ORIENTED_EDGE ( 'NONE', *, *, #157, .F. ) ;
#182 = VECTOR ( 'NONE', #16, 1000.000000000000114 ) ;
#183 = CARTESIAN_POINT ( 'NONE',  ( 27.00000000000000000, -4.898979485566356651, 0.9999999999999993339 ) ) ;
#184 = EDGE_CURVE ( 'NONE', #26, #126, #387, .T. ) ;
#185 = CARTESIAN_POINT ( 'NONE',  ( 27.00000000000000000, -4.898979485566356651, -1.000000000000000888 ) ) ;
#186 =( LENGTH_UNIT ( ) NAMED_UNIT ( * ) SI_UNIT ( .MILLI., .METRE. ) );
#187 = DIRECTION ( 'NONE',  ( -0.0000000000000000000, 0.0000000000000000000, 1.000000000000000000 ) ) ;
#188 = DIRECTION ( 'NONE',  ( 1.000000000000000000, 0.0000000000000000000, 0.0000000000000000000 ) ) ;
#189 = VERTEX_POINT ( 'NONE', #46 ) ;
#190 = CYLINDRICAL_SURFACE ( 'NONE', #24, 6.599999999999999645 ) ;
#191 = SURFACE_STYLE_USAGE ( .BOTH. , #278 ) ;
#192 = MECHANICAL_DESIGN_GEOMETRIC_PRESENTATION_REPRESENTATION (  '', ( #116 ), #275 ) ;
#193 = PRODUCT ( 'AZ-SCT3', 'AZ-SCT3', '', ( #28 ) ) ;
#194 = UNCERTAINTY_MEASURE_WITH_UNIT (LENGTH_MEASURE( 1.000000000000000082E-05 ), #249, 'distance_accuracy_value', 'NONE');
#195 = CARTESIAN_POINT ( 'NONE',  ( 25.00000000000000000, 0.0000000000000000000, 0.0000000000000000000 ) ) ;
#196 = ORIENTED_EDGE ( 'NONE', *, *, #53, .T. ) ;
#197 = DIRECTION ( 'NONE',  ( 0.0000000000000000000, 0.0000000000000000000, 1.000000000000000000 ) ) ;
#198 = DIRECTION ( 'NONE',  ( 0.0000000000000000000, -1.000000000000000000, -1.264902534566421675E-16 ) ) ;
#199 = FACE_OUTER_BOUND ( 'NONE', #253, .T. ) ;
#200 = ORIENTED_EDGE ( 'NONE', *, *, #27, .T. ) ;
#201 = CARTESIAN_POINT ( 'NONE',  ( 0.0000000000000000000, 0.0000000000000000000, 6.599999999999999645 ) ) ;
#202 = EDGE_CURVE ( 'NONE', #15, #211, #92, .T. ) ;
#203 = SURFACE_STYLE_USAGE ( .BOTH. , #170 ) ;
#204 = CARTESIAN_POINT ( 'NONE',  ( 27.00000000000000000, 0.0000000000000000000, 5.000000000000000000 ) ) ;
#205 = DIRECTION ( 'NONE',  ( 0.0000000000000000000, 0.0000000000000000000, 1.000000000000000000 ) ) ;
#206 = AXIS2_PLACEMENT_3D ( 'NONE', #298, #112, #357 ) ;
#207 = DIRECTION ( 'NONE',  ( -1.000000000000000000, -0.0000000000000000000, -0.0000000000000000000 ) ) ;
#208 = FACE_OUTER_BOUND ( 'NONE', #332, .T. ) ;
#209 = DIRECTION ( 'NONE',  ( -0.9871054777475851694, 1.960306319585512039E-17, -0.1600711585536624681 ) ) ;
#210 = ORIENTED_EDGE ( 'NONE', *, *, #53, .F. ) ;
#211 = VERTEX_POINT ( 'NONE', #201 ) ;
#212 = ORIENTED_EDGE ( 'NONE', *, *, #322, .T. ) ;
#213 = ADVANCED_FACE ( 'NONE', ( #266 ), #349, .F. ) ;
#214 = CONICAL_SURFACE ( 'NONE', #236, 5.000000000000000000, 0.1607627406258347325 ) ;
#215 = LINE ( 'NONE', #227, #20 ) ;
#216 = AXIS2_PLACEMENT_3D ( 'NONE', #361, #380, #264 ) ;
#217 = EDGE_LOOP ( 'NONE', ( #277, #367, #171, #222 ) ) ;
#218 = COLOUR_RGB ( '',0.3176470588235293935, 0.2470588235294117752, 0.2078431372549019440 ) ;
#219 = CARTESIAN_POINT ( 'NONE',  ( 27.00000000000000000, 4.898979485566356651, -0.9999999999999995559 ) ) ;
#220 = EDGE_CURVE ( 'NONE', #126, #75, #386, .T. ) ;
#221 = DIRECTION ( 'NONE',  ( -1.000000000000000000, -0.0000000000000000000, -0.0000000000000000000 ) ) ;
#222 = ORIENTED_EDGE ( 'NONE', *, *, #3, .T. ) ;
#223 = MECHANICAL_DESIGN_GEOMETRIC_PRESENTATION_REPRESENTATION (  '', ( #86 ), #73 ) ;
#224 =( NAMED_UNIT ( * ) PLANE_ANGLE_UNIT ( ) SI_UNIT ( $, .RADIAN. ) );
#225 = ORIENTED_EDGE ( 'NONE', *, *, #164, .F. ) ;
#226 = CIRCLE ( 'NONE', #261, 6.599999999999999645 ) ;
#227 = CARTESIAN_POINT ( 'NONE',  ( 27.00000000000000000, 5.000000000000000000, 1.000000000000000444 ) ) ;
#228 = DIRECTION ( 'NONE',  ( -0.0000000000000000000, 0.0000000000000000000, 1.000000000000000000 ) ) ;
#229 = AXIS2_PLACEMENT_3D ( 'NONE', #262, #99, #263 ) ;
#230 = DIRECTION ( 'NONE',  ( -1.000000000000000000, -0.0000000000000000000, -0.0000000000000000000 ) ) ;
#231 = DIRECTION ( 'NONE',  ( 0.0000000000000000000, -1.000000000000000000, -1.264902534566421675E-16 ) ) ;
#232 = DIRECTION ( 'NONE',  ( -1.000000000000000000, -0.0000000000000000000, -0.0000000000000000000 ) ) ;
#233 =( NAMED_UNIT ( * ) SI_UNIT ( $, .STERADIAN. ) SOLID_ANGLE_UNIT ( ) );
#234 = ORIENTED_EDGE ( 'NONE', *, *, #371, .T. ) ;
#235 = CARTESIAN_POINT ( 'NONE',  ( 8.500000000000000000, 0.0000000000000000000, 0.0000000000000000000 ) ) ;
#236 = AXIS2_PLACEMENT_3D ( 'NONE', #7, #129, #370 ) ;
#237 = DIRECTION ( 'NONE',  ( 0.0000000000000000000, 0.0000000000000000000, -1.000000000000000000 ) ) ;
#238 = CARTESIAN_POINT ( 'NONE',  ( 26.69708462977771291, -4.949113816126549992, -1.000000000000000888 ) ) ;
#239 = AXIS2_PLACEMENT_3D ( 'NONE', #162, #188, #251 ) ;
#240 = DIRECTION ( 'NONE',  ( -1.000000000000000000, -0.0000000000000000000, -0.0000000000000000000 ) ) ;
#241 = ORIENTED_EDGE ( 'NONE', *, *, #157, .T. ) ;
#242 = ADVANCED_BREP_SHAPE_REPRESENTATION ( 'AZ-SCT3', ( #41, #396 ), #90 ) ;
#243 = ADVANCED_FACE ( 'NONE', ( #208 ), #329, .T. ) ;
#244 = AXIS2_PLACEMENT_3D ( 'NONE', #235, #232, #52 ) ;
#245 = CIRCLE ( 'NONE', #107, 5.324324324324322788 ) ;
#246 = CARTESIAN_POINT ( 'NONE',  ( 25.00000000000000000, 5.229572593490948940, 1.000000000000000666 ) ) ;
#247 = CARTESIAN_POINT ( 'NONE',  ( 8.500000000000000000, 0.0000000000000000000, 8.000000000000000000 ) ) ;
#248 = CARTESIAN_POINT ( 'NONE',  ( 26.33335590177265928, 5.009313126153843498, -0.9999999999999995559 ) ) ;
#249 =( LENGTH_UNIT ( ) NAMED_UNIT ( * ) SI_UNIT ( .MILLI., .METRE. ) );
#250 = ORIENTED_EDGE ( 'NONE', *, *, #178, .F. ) ;
#251 = DIRECTION ( 'NONE',  ( 0.0000000000000000000, 0.0000000000000000000, -1.000000000000000000 ) ) ;
#252 = DIRECTION ( 'NONE',  ( 0.0000000000000000000, 0.0000000000000000000, 1.000000000000000000 ) ) ;
#253 = EDGE_LOOP ( 'NONE', ( #25, #19, #373, #314 ) ) ;
#254 = MECHANICAL_DESIGN_GEOMETRIC_PRESENTATION_REPRESENTATION (  '', ( #130 ), #48 ) ;
#255 =( LENGTH_UNIT ( ) NAMED_UNIT ( * ) SI_UNIT ( .MILLI., .METRE. ) );
#256 = DIRECTION ( 'NONE',  ( -1.000000000000000000, -0.0000000000000000000, -0.0000000000000000000 ) ) ;
#257 = DIRECTION ( 'NONE',  ( 1.000000000000000000, 0.0000000000000000000, 0.0000000000000000000 ) ) ;
#258 = LINE ( 'NONE', #31, #366 ) ;
#259 = CARTESIAN_POINT ( 'NONE',  ( 25.00000000000000000, 0.0000000000000000000, 0.0000000000000000000 ) ) ;
#260 = CARTESIAN_POINT ( 'NONE',  ( 26.39416430375728950, -4.999218211021381642, -1.000000000000000888 ) ) ;
#261 = AXIS2_PLACEMENT_3D ( 'NONE', #299, #384, #143 ) ;
#262 = CARTESIAN_POINT ( 'NONE',  ( 25.00000000000000000, 0.0000000000000000000, 0.0000000000000000000 ) ) ;
#263 = DIRECTION ( 'NONE',  ( 0.0000000000000000000, 0.0000000000000000000, -1.000000000000000000 ) ) ;
#264 = DIRECTION ( 'NONE',  ( 0.0000000000000000000, 0.0000000000000000000, -1.000000000000000000 ) ) ;
#265 = FACE_OUTER_BOUND ( 'NONE', #45, .T. ) ;
#266 = FACE_OUTER_BOUND ( 'NONE', #288, .T. ) ;
#267 = ORIENTED_EDGE ( 'NONE', *, *, #291, .F. ) ;
#268 = ORIENTED_EDGE ( 'NONE', *, *, #220, .T. ) ;
#269 = AXIS2_PLACEMENT_3D ( 'NONE', #195, #257, #350 ) ;
#270 = DIRECTION ( 'NONE',  ( -0.0000000000000000000, 1.000000000000000000, 1.445602896647339163E-16 ) ) ;
#271 = VERTEX_POINT ( 'NONE', #145 ) ;
#272 = ADVANCED_FACE ( 'NONE', ( #337 ), #114, .F. ) ;
#273 = COLOUR_RGB ( '',0.3176470588235293935, 0.2470588235294117752, 0.2078431372549019440 ) ;
#274 = FACE_OUTER_BOUND ( 'NONE', #362, .T. ) ;
#275 =( GEOMETRIC_REPRESENTATION_CONTEXT ( 3 ) GLOBAL_UNCERTAINTY_ASSIGNED_CONTEXT ( ( #372 ) ) GLOBAL_UNIT_ASSIGNED_CONTEXT ( ( #14, #323, #356 ) ) REPRESENTATION_CONTEXT ( 'NONE', 'WORKASPACE' ) );
#276 = SHAPE_DEFINITION_REPRESENTATION ( #331, #242 ) ;
#277 = ORIENTED_EDGE ( 'NONE', *, *, #291, .T. ) ;
#278 = SURFACE_SIDE_STYLE ('',( #352 ) ) ;
#279 = CIRCLE ( 'NONE', #144, 5.000000000000000000 ) ;
#280 = CARTESIAN_POINT ( 'NONE',  ( 25.00000000000000000, 5.229572593490948940, -0.9999999999999995559 ) ) ;
#281 = EDGE_CURVE ( 'NONE', #128, #15, #150, .T. ) ;
#282 = ORIENTED_EDGE ( 'NONE', *, *, #322, .F. ) ;
#283 =( NAMED_UNIT ( * ) PLANE_ANGLE_UNIT ( ) SI_UNIT ( $, .RADIAN. ) );
#284 = VERTEX_POINT ( 'NONE', #83 ) ;
#285 = FACE_OUTER_BOUND ( 'NONE', #81, .T. ) ;
#286 = CARTESIAN_POINT ( 'NONE',  ( 26.09123945908484998, -5.049295262629899028, -1.000000000000000888 ) ) ;
#287 = PLANE ( 'NONE',  #333 ) ;
#288 = EDGE_LOOP ( 'NONE', ( #364, #200, #23 ) ) ;
#289 =( NAMED_UNIT ( * ) SI_UNIT ( $, .STERADIAN. ) SOLID_ANGLE_UNIT ( ) );
#290 = DIRECTION ( 'NONE',  ( -1.000000000000000000, -0.0000000000000000000, -0.0000000000000000000 ) ) ;
#291 = EDGE_CURVE ( 'NONE', #339, #33, #42, .T. ) ;
#292 = PRESENTATION_STYLE_ASSIGNMENT (( #163 ) ) ;
#293 = EDGE_LOOP ( 'NONE', ( #297, #122 ) ) ;
#294 = CARTESIAN_POINT ( 'NONE',  ( 27.00000000000000000, 0.0000000000000000000, 0.0000000000000000000 ) ) ;
#295 = CARTESIAN_POINT ( 'NONE',  ( 8.500000000000000000, 0.0000000000000000000, 0.0000000000000000000 ) ) ;
#296 = CARTESIAN_POINT ( 'NONE',  ( 25.00000000000000000, -5.229572593490948940, -1.000000000000000888 ) ) ;
#297 = ORIENTED_EDGE ( 'NONE', *, *, #391, .F. ) ;
#298 = CARTESIAN_POINT ( 'NONE',  ( 25.00000000000000000, 6.000000000000000000, -0.9999999999999993339 ) ) ;
#299 = CARTESIAN_POINT ( 'NONE',  ( 0.0000000000000000000, 0.0000000000000000000, 0.0000000000000000000 ) ) ;
#300 = FILL_AREA_STYLE ('',( #51 ) ) ;
#301 = ORIENTED_EDGE ( 'NONE', *, *, #368, .F. ) ;
#302 = DIRECTION ( 'NONE',  ( 1.000000000000000000, 0.0000000000000000000, 0.0000000000000000000 ) ) ;
#303 = CIRCLE ( 'NONE', #179, 8.000000000000000000 ) ;
#304 = STYLED_ITEM ( 'NONE', ( #47 ), #41 ) ;
#305 = EDGE_LOOP ( 'NONE', ( #49, #212 ) ) ;
#306 = FACE_OUTER_BOUND ( 'NONE', #217, .T. ) ;
#307 = EDGE_CURVE ( 'NONE', #189, #89, #9, .T. ) ;
#308 = SURFACE_STYLE_FILL_AREA ( #300 ) ;
#309 = CARTESIAN_POINT ( 'NONE',  ( 27.00000000000000000, 0.0000000000000000000, 0.0000000000000000000 ) ) ;
#310 = ORIENTED_EDGE ( 'NONE', *, *, #79, .T. ) ;
#311 = CARTESIAN_POINT ( 'NONE',  ( 0.0000000000000000000, 0.0000000000000000000, 0.0000000000000000000 ) ) ;
#312 = MECHANICAL_DESIGN_GEOMETRIC_PRESENTATION_REPRESENTATION (  '', ( #304 ), #95 ) ;
#313 = UNCERTAINTY_MEASURE_WITH_UNIT (LENGTH_MEASURE( 1.000000000000000082E-05 ), #17, 'distance_accuracy_value', 'NONE');
#314 = ORIENTED_EDGE ( 'NONE', *, *, #202, .F. ) ;
#315 = DIRECTION ( 'NONE',  ( 0.0000000000000000000, 0.0000000000000000000, 1.000000000000000000 ) ) ;
#316 = PRESENTATION_LAYER_ASSIGNMENT (  '', '', ( #86 ) ) ;
#317 = B_SPLINE_CURVE_WITH_KNOTS ( 'NONE', 3,
 ( #334, #390, #63, #183 ),
 .UNSPECIFIED., .F., .F.,
 ( 4, 4 ),
 ( 0.007768197290563422404, 0.009795335830864922502 ),
 .UNSPECIFIED. ) ;
#318 = LINE ( 'NONE', #358, #395 ) ;
#319 = CARTESIAN_POINT ( 'NONE',  ( 0.0000000000000000000, 0.0000000000000000000, 0.0000000000000000000 ) ) ;
#320 = CARTESIAN_POINT ( 'NONE',  ( 8.500000000000000000, 0.0000000000000000000, 0.0000000000000000000 ) ) ;
#321 = CARTESIAN_POINT ( 'NONE',  ( 27.00000000000000000, 0.0000000000000000000, 0.0000000000000000000 ) ) ;
#322 = EDGE_CURVE ( 'NONE', #109, #75, #328, .T. ) ;
#323 =( NAMED_UNIT ( * ) PLANE_ANGLE_UNIT ( ) SI_UNIT ( $, .RADIAN. ) );
#324 = ORIENTED_EDGE ( 'NONE', *, *, #371, .F. ) ;
#325 = APPLICATION_CONTEXT ( 'automotive_design' ) ;
#326 = CARTESIAN_POINT ( 'NONE',  ( 27.00000000000000000, 6.123233995736766282E-16, -5.000000000000000000 ) ) ;
#327 = CARTESIAN_POINT ( 'NONE',  ( 27.00000000000000000, -4.898979485566356651, -1.000000000000000888 ) ) ;
#328 = CIRCLE ( 'NONE', #30, 8.000000000000000000 ) ;
#329 = CONICAL_SURFACE ( 'NONE', #365, 5.000000000000000000, 0.1607627406258347325 ) ;
#330 = ADVANCED_FACE ( 'NONE', ( #8, #127 ), #173, .F. ) ;
#331 = PRODUCT_DEFINITION_SHAPE ( 'NONE', 'NONE',  #66 ) ;
#332 = EDGE_LOOP ( 'NONE', ( #64, #36, #234, #335, #341, #87, #268, #282 ) ) ;
#333 = AXIS2_PLACEMENT_3D ( 'NONE', #43, #142, #198 ) ;
#334 = CARTESIAN_POINT ( 'NONE',  ( 25.00000000000000000, -5.229572593490948940, 0.9999999999999993339 ) ) ;
#335 = ORIENTED_EDGE ( 'NONE', *, *, #363, .F. ) ;
#336 = LINE ( 'NONE', #156, #101 ) ;
#337 = FACE_OUTER_BOUND ( 'NONE', #115, .T. ) ;
#338 = AXIS2_PLACEMENT_3D ( 'NONE', #379, #378, #197 ) ;
#339 = VERTEX_POINT ( 'NONE', #385 ) ;
#340 = CARTESIAN_POINT ( 'NONE',  ( 27.00000000000000000, -4.898979485566356651, 0.9999999999999993339 ) ) ;
#341 = ORIENTED_EDGE ( 'NONE', *, *, #12, .T. ) ;
#342 = DIRECTION ( 'NONE',  ( 0.0000000000000000000, 0.0000000000000000000, 1.000000000000000000 ) ) ;
#343 = DIRECTION ( 'NONE',  ( -1.000000000000000000, -0.0000000000000000000, -0.0000000000000000000 ) ) ;
#344 = PLANE ( 'NONE',  #239 ) ;
#345 = AXIS2_PLACEMENT_3D ( 'NONE', #383, #207, #84 ) ;
#346 = SURFACE_SIDE_STYLE ('',( #56 ) ) ;
#347 = ORIENTED_EDGE ( 'NONE', *, *, #3, .F. ) ;
#348 = CARTESIAN_POINT ( 'NONE',  ( 26.09123945908485709, 5.049295262629898140, 1.000000000000000444 ) ) ;
#349 = PLANE ( 'NONE',  #61 ) ;
#350 = DIRECTION ( 'NONE',  ( 0.0000000000000000000, 0.0000000000000000000, -1.000000000000000000 ) ) ;
#351 = EDGE_CURVE ( 'NONE', #284, #211, #226, .T. ) ;
#352 = SURFACE_STYLE_FILL_AREA ( #37 ) ;
#353 = FILL_AREA_STYLE_COLOUR ( '', #218 ) ;
#354 = PRODUCT_DEFINITION_FORMATION_WITH_SPECIFIED_SOURCE ( 'ANY', '', #193, .NOT_KNOWN. ) ;
#355 = CARTESIAN_POINT ( 'NONE',  ( 25.00000000000000000, 5.229572593490948940, 1.000000000000000666 ) ) ;
#356 =( NAMED_UNIT ( * ) SI_UNIT ( $, .STERADIAN. ) SOLID_ANGLE_UNIT ( ) );
#357 = DIRECTION ( 'NONE',  ( 0.0000000000000000000, 1.000000000000000000, 1.445602896647339163E-16 ) ) ;
#358 = CARTESIAN_POINT ( 'NONE',  ( 25.00000000000000000, 5.999999999999999112, 1.000000000000000666 ) ) ;
#359 = CARTESIAN_POINT ( 'NONE',  ( 25.00000000000000000, -5.229572593490948940, -1.000000000000000888 ) ) ;
#360 = VERTEX_POINT ( 'NONE', #359 ) ;
#361 = CARTESIAN_POINT ( 'NONE',  ( 8.500000000000000000, 6.599999999999999645, 0.0000000000000000000 ) ) ;
#362 = EDGE_LOOP ( 'NONE', ( #154, #389, #118, #18 ) ) ;
#363 = EDGE_CURVE ( 'NONE', #271, #360, #245, .T. ) ;
#364 = ORIENTED_EDGE ( 'NONE', *, *, #79, .F. ) ;
#365 = AXIS2_PLACEMENT_3D ( 'NONE', #321, #139, #103 ) ;
#366 = VECTOR ( 'NONE', #270, 1000.000000000000000 ) ;
#367 = ORIENTED_EDGE ( 'NONE', *, *, #368, .T. ) ;
#368 = EDGE_CURVE ( 'NONE', #33, #271, #318, .T. ) ;
#369 = CARTESIAN_POINT ( 'NONE',  ( 25.66668768931482703, 5.119502263573266987, -0.9999999999999995559 ) ) ;
#370 = DIRECTION ( 'NONE',  ( 0.0000000000000000000, 0.0000000000000000000, 1.000000000000000000 ) ) ;
#371 = EDGE_CURVE ( 'NONE', #89, #360, #100, .T. ) ;
#372 = UNCERTAINTY_MEASURE_WITH_UNIT (LENGTH_MEASURE( 1.000000000000000082E-05 ), #14, 'distance_accuracy_value', 'NONE');
#373 = ORIENTED_EDGE ( 'NONE', *, *, #155, .F. ) ;
#374 = PRESENTATION_LAYER_ASSIGNMENT (  '', '', ( #304 ) ) ;
#375 = SURFACE_SIDE_STYLE ('',( #117 ) ) ;
#376 = CIRCLE ( 'NONE', #394, 6.599999999999999645 ) ;
#377 = AXIS2_PLACEMENT_3D ( 'NONE', #159, #160, #187 ) ;
#378 = DIRECTION ( 'NONE',  ( -1.000000000000000000, -0.0000000000000000000, -0.0000000000000000000 ) ) ;
#379 = CARTESIAN_POINT ( 'NONE',  ( 0.0000000000000000000, 0.0000000000000000000, 0.0000000000000000000 ) ) ;
#380 = DIRECTION ( 'NONE',  ( 1.000000000000000000, 0.0000000000000000000, 0.0000000000000000000 ) ) ;
#381 = UNCERTAINTY_MEASURE_WITH_UNIT (LENGTH_MEASURE( 1.000000000000000082E-05 ), #255, 'distance_accuracy_value', 'NONE');
#382 = EDGE_CURVE ( 'NONE', #189, #109, #165, .T. ) ;
#383 = CARTESIAN_POINT ( 'NONE',  ( 8.500000000000000000, 0.0000000000000000000, 0.0000000000000000000 ) ) ;
#384 = DIRECTION ( 'NONE',  ( -1.000000000000000000, -0.0000000000000000000, -0.0000000000000000000 ) ) ;
#385 = CARTESIAN_POINT ( 'NONE',  ( 25.00000000000000000, 5.229572593490948940, -0.9999999999999995559 ) ) ;
#386 = LINE ( 'NONE', #204, #182 ) ;
#387 = CIRCLE ( 'NONE', #6, 5.000000000000000000 ) ;
#388 = APPLICATION_CONTEXT ( 'automotive_design' ) ;
#389 = ORIENTED_EDGE ( 'NONE', *, *, #281, .T. ) ;
#390 = CARTESIAN_POINT ( 'NONE',  ( 25.66668768931482703, -5.119502263573267875, 0.9999999999999991118 ) ) ;
#391 = EDGE_CURVE ( 'NONE', #15, #128, #166, .T. ) ;
#392 = ORIENTED_EDGE ( 'NONE', *, *, #220, .F. ) ;
#393 = VECTOR ( 'NONE', #209, 1000.000000000000114 ) ;
#394 = AXIS2_PLACEMENT_3D ( 'NONE', #319, #141, #108 ) ;
#395 = VECTOR ( 'NONE', #231, 1000.000000000000000 ) ;
#396 = AXIS2_PLACEMENT_3D ( 'NONE', #111, #205, #302 ) ;
ENDSEC;
END-ISO-10303-21;
