ISO-10303-21;
HEADER;
FILE_DESCRIPTION (( 'STEP AP214' ),
    '1' );
FILE_NAME ('BH19.8550_IC.STEP',
    '2015-12-21T10:58:48',
    ( '' ),
    ( '' ),
    'SwSTEP 2.0',
    'SolidWorks 2015',
    '' );
FILE_SCHEMA (( 'AUTOMOTIVE_DESIGN' ));
ENDSEC;

DATA;
#1 =( NAMED_UNIT ( * ) SI_UNIT ( $, .STERADIAN. ) SOLID_ANGLE_UNIT ( ) );
#2 = FILL_AREA_STYLE ('',( #221 ) ) ;
#3 = APPLICATION_CONTEXT ( 'automotive_design' ) ;
#4 = AXIS2_PLACEMENT_3D ( 'NONE', #313, #173, #197 ) ;
#5 = ADVANCED_FACE ( 'NONE', ( #37, #130 ), #149, .T. ) ;
#6 = CIRCLE ( 'NONE', #131, 1.500000000000003100 ) ;
#7 = PRODUCT_DEFINITION_CONTEXT ( 'detailed design', #3, 'design' ) ;
#8 = VERTEX_POINT ( 'NONE', #287 ) ;
#9 = EDGE_LOOP ( 'NONE', ( #115 ) ) ;
#10 =( GEOMETRIC_REPRESENTATION_CONTEXT ( 3 ) GLOBAL_UNCERTAINTY_ASSIGNED_CONTEXT ( ( #252 ) ) GLOBAL_UNIT_ASSIGNED_CONTEXT ( ( #147, #175, #241 ) ) REPRESENTATION_CONTEXT ( 'NONE', 'WORKASPACE' ) );
#11 = VERTEX_POINT ( 'NONE', #248 ) ;
#12 = EDGE_LOOP ( 'NONE', ( #227 ) ) ;
#13 = EDGE_LOOP ( 'NONE', ( #28 ) ) ;
#14 = DIRECTION ( 'NONE',  ( 0.0000000000000000000, 0.0000000000000000000, 1.000000000000000000 ) ) ;
#15 = EDGE_LOOP ( 'NONE', ( #93 ) ) ;
#16 = DIRECTION ( 'NONE',  ( -0.0000000000000000000, 1.000000000000000000, -0.0000000000000000000 ) ) ;
#17 = DIRECTION ( 'NONE',  ( -0.0000000000000000000, 1.000000000000000000, -0.0000000000000000000 ) ) ;
#18 = CARTESIAN_POINT ( 'NONE',  ( 17.00000000000000400, 5.500000000000004400, 0.0000000000000000000 ) ) ;
#19 = AXIS2_PLACEMENT_3D ( 'NONE', #249, #171, #270 ) ;
#20 = DIRECTION ( 'NONE',  ( 0.0000000000000000000, -1.000000000000000000, 0.0000000000000000000 ) ) ;
#21 = CIRCLE ( 'NONE', #178, 20.88753919081468900 ) ;
#22 = CARTESIAN_POINT ( 'NONE',  ( 0.0000000000000000000, 33.75943905070119700, 0.0000000000000000000 ) ) ;
#23 = FILL_AREA_STYLE_COLOUR ( '', #259 ) ;
#24 = DIRECTION ( 'NONE',  ( 0.0000000000000000000, -1.000000000000000000, 0.0000000000000000000 ) ) ;
#25 = EDGE_CURVE ( 'NONE', #305, #305, #134, .T. ) ;
#26 = ORIENTED_EDGE ( 'NONE', *, *, #152, .T. ) ;
#27 = DIRECTION ( 'NONE',  ( 1.000000000000000000, 0.0000000000000000000, 0.0000000000000000000 ) ) ;
#28 = ORIENTED_EDGE ( 'NONE', *, *, #298, .F. ) ;
#29 = DIRECTION ( 'NONE',  ( 0.0000000000000000000, 0.0000000000000000000, 1.000000000000000000 ) ) ;
#30 = AXIS2_PLACEMENT_3D ( 'NONE', #144, #177, #27 ) ;
#31 = SURFACE_STYLE_FILL_AREA ( #2 ) ;
#32 = FACE_BOUND ( 'NONE', #65, .T. ) ;
#33 = ADVANCED_FACE ( 'NONE', ( #107, #204 ), #108, .F. ) ;
#34 = ORIENTED_EDGE ( 'NONE', *, *, #45, .F. ) ;
#35 = FACE_BOUND ( 'NONE', #189, .T. ) ;
#36 = PRESENTATION_LAYER_ASSIGNMENT (  '', '', ( #172 ) ) ;
#37 = FACE_OUTER_BOUND ( 'NONE', #88, .T. ) ;
#38 = EDGE_LOOP ( 'NONE', ( #293 ) ) ;
#39 = CARTESIAN_POINT ( 'NONE',  ( 0.0000000000000000000, 33.75943905070119700, 0.0000000000000000000 ) ) ;
#40 = CARTESIAN_POINT ( 'NONE',  ( 0.0000000000000000000, 15.00000000000000400, 0.0000000000000000000 ) ) ;
#41 = CARTESIAN_POINT ( 'NONE',  ( 0.0000000000000000000, 0.0000000000000000000, 0.0000000000000000000 ) ) ;
#42 = CIRCLE ( 'NONE', #4, 1.500000000000004200 ) ;
#43 = CARTESIAN_POINT ( 'NONE',  ( 0.0000000000000000000, 33.75943905070119700, 0.0000000000000000000 ) ) ;
#44 = CARTESIAN_POINT ( 'NONE',  ( 0.0000000000000000000, 10.00000000000000200, 26.50000000000000700 ) ) ;
#45 = EDGE_CURVE ( 'NONE', #78, #78, #103, .T. ) ;
#46 = DIRECTION ( 'NONE',  ( 0.0000000000000000000, 0.0000000000000000000, -1.000000000000000000 ) ) ;
#47 = CARTESIAN_POINT ( 'NONE',  ( 0.0000000000000000000, 27.00000000000000400, 17.00000000000000000 ) ) ;
#48 = FACE_OUTER_BOUND ( 'NONE', #62, .T. ) ;
#49 = DIRECTION ( 'NONE',  ( -0.0000000000000000000, 1.000000000000000000, -0.0000000000000000000 ) ) ;
#50 = ORIENTED_EDGE ( 'NONE', *, *, #190, .F. ) ;
#51 = APPLICATION_CONTEXT ( 'automotive_design' ) ;
#52 = APPLICATION_PROTOCOL_DEFINITION ( 'draft international standard', 'automotive_design', 1998, #51 ) ;
#53 = DIRECTION ( 'NONE',  ( -0.0000000000000000000, 1.000000000000000000, -0.0000000000000000000 ) ) ;
#54 = ORIENTED_EDGE ( 'NONE', *, *, #169, .T. ) ;
#55 = ADVANCED_FACE ( 'NONE', ( #233, #301 ), #82, .F. ) ;
#56 = ADVANCED_FACE ( 'NONE', ( #85, #264 ), #117, .F. ) ;
#57 =( GEOMETRIC_REPRESENTATION_CONTEXT ( 3 ) GLOBAL_UNCERTAINTY_ASSIGNED_CONTEXT ( ( #158 ) ) GLOBAL_UNIT_ASSIGNED_CONTEXT ( ( #294, #148, #1 ) ) REPRESENTATION_CONTEXT ( 'NONE', 'WORKASPACE' ) );
#58 = EDGE_LOOP ( 'NONE', ( #104 ) ) ;
#59 = EDGE_LOOP ( 'NONE', ( #224 ) ) ;
#60 = EDGE_CURVE ( 'NONE', #135, #135, #109, .T. ) ;
#61 = AXIS2_PLACEMENT_3D ( 'NONE', #216, #212, #164 ) ;
#62 = EDGE_LOOP ( 'NONE', ( #143 ) ) ;
#63 = DIRECTION ( 'NONE',  ( 0.0000000000000000000, -0.0000000000000000000, -1.000000000000000000 ) ) ;
#64 = AXIS2_PLACEMENT_3D ( 'NONE', #310, #165, #191 ) ;
#65 = EDGE_LOOP ( 'NONE', ( #121 ) ) ;
#66 = VERTEX_POINT ( 'NONE', #44 ) ;
#67 = DIRECTION ( 'NONE',  ( 0.0000000000000000000, -0.0000000000000000000, -1.000000000000000000 ) ) ;
#68 = DIRECTION ( 'NONE',  ( 0.0000000000000000000, 0.0000000000000000000, 1.000000000000000000 ) ) ;
#69 = PRODUCT_DEFINITION_SHAPE ( 'NONE', 'NONE',  #251 ) ;
#70 = CARTESIAN_POINT ( 'NONE',  ( 0.0000000000000000000, 25.61246080918532500, 20.88753919081468500 ) ) ;
#71 = CONICAL_SURFACE ( 'NONE', #156, 27.50000000000000400, 0.7853981633974466100 ) ;
#72 = DIRECTION ( 'NONE',  ( 0.0000000000000000000, 0.0000000000000000000, 1.000000000000000000 ) ) ;
#73 = FACE_OUTER_BOUND ( 'NONE', #306, .T. ) ;
#74 = CARTESIAN_POINT ( 'NONE',  ( 0.0000000000000000000, 15.00000000000000400, 19.50000000000000400 ) ) ;
#75 = DIRECTION ( 'NONE',  ( 0.0000000000000000000, 0.0000000000000000000, 1.000000000000000000 ) ) ;
#76 = EDGE_CURVE ( 'NONE', #8, #8, #167, .T. ) ;
#77 = SURFACE_STYLE_USAGE ( .BOTH. , #120 ) ;
#78 = VERTEX_POINT ( 'NONE', #97 ) ;
#79 = ORIENTED_EDGE ( 'NONE', *, *, #298, .T. ) ;
#80 = AXIS2_PLACEMENT_3D ( 'NONE', #146, #24, #46 ) ;
#81 = VERTEX_POINT ( 'NONE', #100 ) ;
#82 = CYLINDRICAL_SURFACE ( 'NONE', #123, 1.500000000000003600 ) ;
#83 = ADVANCED_FACE ( 'NONE', ( #73, #276 ), #195, .T. ) ;
#84 = AXIS2_PLACEMENT_3D ( 'NONE', #262, #188, #237 ) ;
#85 = FACE_BOUND ( 'NONE', #126, .T. ) ;
#86 = ORIENTED_EDGE ( 'NONE', *, *, #116, .T. ) ;
#87 = CIRCLE ( 'NONE', #286, 19.50000000000000400 ) ;
#88 = EDGE_LOOP ( 'NONE', ( #34 ) ) ;
#89 = DIRECTION ( 'NONE',  ( 0.0000000000000000000, 0.0000000000000000000, 1.000000000000000000 ) ) ;
#90 = STYLED_ITEM ( 'NONE', ( #181 ), #274 ) ;
#91 = CARTESIAN_POINT ( 'NONE',  ( 19.50000000000000700, 27.00000000000000400, 0.0000000000000000000 ) ) ;
#92 = CARTESIAN_POINT ( 'NONE',  ( 0.0000000000000000000, 5.500000000000005300, 0.0000000000000000000 ) ) ;
#93 = ORIENTED_EDGE ( 'NONE', *, *, #291, .T. ) ;
#94 = DIRECTION ( 'NONE',  ( 0.0000000000000000000, 0.0000000000000000000, 1.000000000000000000 ) ) ;
#95 = DIRECTION ( 'NONE',  ( -0.0000000000000000000, 1.000000000000000000, -0.0000000000000000000 ) ) ;
#96 = CARTESIAN_POINT ( 'NONE',  ( 0.0000000000000000000, 33.75943905070119700, 0.0000000000000000000 ) ) ;
#97 = CARTESIAN_POINT ( 'NONE',  ( 0.0000000000000000000, 9.000000000000001800, 27.50000000000000400 ) ) ;
#98 = FACE_OUTER_BOUND ( 'NONE', #246, .T. ) ;
#99 = SURFACE_SIDE_STYLE ('',( #101 ) ) ;
#100 = CARTESIAN_POINT ( 'NONE',  ( 0.0000000000000000000, 16.38753919081468200, 20.88753919081468900 ) ) ;
#101 = SURFACE_STYLE_FILL_AREA ( #198 ) ;
#102 = CYLINDRICAL_SURFACE ( 'NONE', #145, 19.50000000000000400 ) ;
#103 = CIRCLE ( 'NONE', #64, 27.50000000000000400 ) ;
#104 = ORIENTED_EDGE ( 'NONE', *, *, #281, .T. ) ;
#105 = AXIS2_PLACEMENT_3D ( 'NONE', #91, #20, #119 ) ;
#106 = PRESENTATION_LAYER_ASSIGNMENT (  '', '', ( #90 ) ) ;
#107 = FACE_BOUND ( 'NONE', #185, .T. ) ;
#108 = PLANE ( 'NONE',  #218 ) ;
#109 = CIRCLE ( 'NONE', #256, 20.88753919081468500 ) ;
#110 = EDGE_LOOP ( 'NONE', ( #236 ) ) ;
#111 = DIRECTION ( 'NONE',  ( -0.0000000000000000000, 1.000000000000000000, -0.0000000000000000000 ) ) ;
#112 = DIRECTION ( 'NONE',  ( -0.0000000000000000000, 1.000000000000000000, -0.0000000000000000000 ) ) ;
#113 = SHAPE_DEFINITION_REPRESENTATION ( #69, #193 ) ;
#114 = CARTESIAN_POINT ( 'NONE',  ( 0.0000000000000000000, 25.61246080918532500, 0.0000000000000000000 ) ) ;
#115 = ORIENTED_EDGE ( 'NONE', *, *, #25, .F. ) ;
#116 = EDGE_CURVE ( 'NONE', #296, #296, #302, .T. ) ;
#117 = PLANE ( 'NONE',  #304 ) ;
#118 = CARTESIAN_POINT ( 'NONE',  ( 0.0000000000000000000, 10.00000000000000200, 0.0000000000000000000 ) ) ;
#119 = DIRECTION ( 'NONE',  ( 0.0000000000000000000, -0.0000000000000000000, -1.000000000000000000 ) ) ;
#120 = SURFACE_SIDE_STYLE ('',( #31 ) ) ;
#121 = ORIENTED_EDGE ( 'NONE', *, *, #152, .F. ) ;
#122 = SURFACE_STYLE_USAGE ( .BOTH. , #99 ) ;
#123 = AXIS2_PLACEMENT_3D ( 'NONE', #168, #17, #238 ) ;
#124 =( NAMED_UNIT ( * ) SI_UNIT ( $, .STERADIAN. ) SOLID_ANGLE_UNIT ( ) );
#125 = MECHANICAL_DESIGN_GEOMETRIC_PRESENTATION_REPRESENTATION (  '', ( #90 ), #136 ) ;
#126 = EDGE_LOOP ( 'NONE', ( #205 ) ) ;
#127 = ADVANCED_FACE ( 'NONE', ( #223, #311 ), #307, .F. ) ;
#128 = APPLICATION_PROTOCOL_DEFINITION ( 'draft international standard', 'automotive_design', 1998, #3 ) ;
#129 = CIRCLE ( 'NONE', #273, 26.50000000000000700 ) ;
#130 = FACE_OUTER_BOUND ( 'NONE', #59, .T. ) ;
#131 = AXIS2_PLACEMENT_3D ( 'NONE', #92, #194, #138 ) ;
#132 = PRODUCT_RELATED_PRODUCT_CATEGORY ( 'part', '', ( #261 ) ) ;
#133 = VERTEX_POINT ( 'NONE', #309 ) ;
#134 = CIRCLE ( 'NONE', #184, 26.50000000000000700 ) ;
#135 = VERTEX_POINT ( 'NONE', #70 ) ;
#136 =( GEOMETRIC_REPRESENTATION_CONTEXT ( 3 ) GLOBAL_UNCERTAINTY_ASSIGNED_CONTEXT ( ( #215 ) ) GLOBAL_UNIT_ASSIGNED_CONTEXT ( ( #267, #312, #124 ) ) REPRESENTATION_CONTEXT ( 'NONE', 'WORKASPACE' ) );
#137 = DIRECTION ( 'NONE',  ( 0.0000000000000000000, 0.0000000000000000000, 1.000000000000000000 ) ) ;
#138 = DIRECTION ( 'NONE',  ( 0.0000000000000000000, 0.0000000000000000000, 1.000000000000000000 ) ) ;
#139 = PRODUCT_DEFINITION_FORMATION_WITH_SPECIFIED_SOURCE ( 'ANY', '', #261, .NOT_KNOWN. ) ;
#140 = VERTEX_POINT ( 'NONE', #295 ) ;
#141 = DIRECTION ( 'NONE',  ( -0.0000000000000000000, 1.000000000000000000, -0.0000000000000000000 ) ) ;
#142 = EDGE_LOOP ( 'NONE', ( #202 ) ) ;
#143 = ORIENTED_EDGE ( 'NONE', *, *, #169, .F. ) ;
#144 = CARTESIAN_POINT ( 'NONE',  ( 0.0000000000000000000, 0.0000000000000000000, 0.0000000000000000000 ) ) ;
#145 = AXIS2_PLACEMENT_3D ( 'NONE', #43, #141, #89 ) ;
#146 = CARTESIAN_POINT ( 'NONE',  ( 0.0000000000000000000, 25.61246080918532500, 0.0000000000000000000 ) ) ;
#147 =( LENGTH_UNIT ( ) NAMED_UNIT ( * ) SI_UNIT ( .MILLI., .METRE. ) );
#148 =( NAMED_UNIT ( * ) PLANE_ANGLE_UNIT ( ) SI_UNIT ( $, .RADIAN. ) );
#149 = CYLINDRICAL_SURFACE ( 'NONE', #235, 27.50000000000000400 ) ;
#150 = EDGE_LOOP ( 'NONE', ( #300 ) ) ;
#151 = ADVANCED_FACE ( 'NONE', ( #32, #182 ), #192, .F. ) ;
#152 = EDGE_CURVE ( 'NONE', #275, #275, #209, .T. ) ;
#153 = CIRCLE ( 'NONE', #231, 19.50000000000000400 ) ;
#154 = ADVANCED_FACE ( 'NONE', ( #48, #217 ), #102, .T. ) ;
#155 = EDGE_LOOP ( 'NONE', ( #254 ) ) ;
#156 = AXIS2_PLACEMENT_3D ( 'NONE', #288, #220, #290 ) ;
#157 = VERTEX_POINT ( 'NONE', #269 ) ;
#158 = UNCERTAINTY_MEASURE_WITH_UNIT (LENGTH_MEASURE( 1.000000000000000100E-005 ), #294, 'distance_accuracy_value', 'NONE');
#159 = CARTESIAN_POINT ( 'NONE',  ( 0.0000000000000000000, 0.0000000000000000000, 0.0000000000000000000 ) ) ;
#160 = EDGE_CURVE ( 'NONE', #133, #133, #6, .T. ) ;
#161 = CYLINDRICAL_SURFACE ( 'NONE', #247, 17.00000000000000000 ) ;
#162 = ORIENTED_EDGE ( 'NONE', *, *, #291, .F. ) ;
#163 = CARTESIAN_POINT ( 'NONE',  ( 26.50000000000000700, 10.00000000000000200, 0.0000000000000000000 ) ) ;
#164 = DIRECTION ( 'NONE',  ( 0.0000000000000000000, 0.0000000000000000000, 1.000000000000000000 ) ) ;
#165 = DIRECTION ( 'NONE',  ( -0.0000000000000000000, 1.000000000000000000, -0.0000000000000000000 ) ) ;
#166 = CIRCLE ( 'NONE', #19, 19.50000000000000700 ) ;
#167 = CIRCLE ( 'NONE', #207, 27.50000000000000400 ) ;
#168 = CARTESIAN_POINT ( 'NONE',  ( 0.0000000000000000000, 33.75943905070119700, 0.0000000000000000000 ) ) ;
#169 = EDGE_CURVE ( 'NONE', #208, #208, #153, .T. ) ;
#170 = DIRECTION ( 'NONE',  ( -0.0000000000000000000, 1.000000000000000000, -0.0000000000000000000 ) ) ;
#171 = DIRECTION ( 'NONE',  ( -0.0000000000000000000, 1.000000000000000000, -0.0000000000000000000 ) ) ;
#172 = STYLED_ITEM ( 'NONE', ( #200 ), #193 ) ;
#173 = DIRECTION ( 'NONE',  ( -0.0000000000000000000, 1.000000000000000000, -0.0000000000000000000 ) ) ;
#174 = CONICAL_SURFACE ( 'NONE', #80, 20.88753919081468500, 0.7853981633974482800 ) ;
#175 =( NAMED_UNIT ( * ) PLANE_ANGLE_UNIT ( ) SI_UNIT ( $, .RADIAN. ) );
#176 = EDGE_LOOP ( 'NONE', ( #54 ) ) ;
#177 = DIRECTION ( 'NONE',  ( 0.0000000000000000000, 0.0000000000000000000, 1.000000000000000000 ) ) ;
#178 = AXIS2_PLACEMENT_3D ( 'NONE', #225, #201, #314 ) ;
#179 = FACE_OUTER_BOUND ( 'NONE', #58, .T. ) ;
#180 = ADVANCED_FACE ( 'NONE', ( #292, #179 ), #245, .T. ) ;
#181 = PRESENTATION_STYLE_ASSIGNMENT (( #77 ) ) ;
#182 = FACE_OUTER_BOUND ( 'NONE', #250, .T. ) ;
#183 = EDGE_LOOP ( 'NONE', ( #266 ) ) ;
#184 = AXIS2_PLACEMENT_3D ( 'NONE', #159, #111, #234 ) ;
#185 = EDGE_LOOP ( 'NONE', ( #162 ) ) ;
#186 = ORIENTED_EDGE ( 'NONE', *, *, #211, .F. ) ;
#187 = DIRECTION ( 'NONE',  ( 0.0000000000000000000, -1.000000000000000000, 0.0000000000000000000 ) ) ;
#188 = DIRECTION ( 'NONE',  ( -0.0000000000000000000, 1.000000000000000000, -0.0000000000000000000 ) ) ;
#189 = EDGE_LOOP ( 'NONE', ( #186 ) ) ;
#190 = EDGE_CURVE ( 'NONE', #157, #157, #42, .T. ) ;
#191 = DIRECTION ( 'NONE',  ( 0.0000000000000000000, 0.0000000000000000000, 1.000000000000000000 ) ) ;
#192 = PLANE ( 'NONE',  #105 ) ;
#193 = ADVANCED_BREP_SHAPE_REPRESENTATION ( 'BH19.8550_IC', ( #274, #30 ), #10 ) ;
#194 = DIRECTION ( 'NONE',  ( -0.0000000000000000000, 1.000000000000000000, -0.0000000000000000000 ) ) ;
#195 = CONICAL_SURFACE ( 'NONE', #203, 26.50000000000000700, 0.7853981633974466100 ) ;
#196 = DIRECTION ( 'NONE',  ( 0.0000000000000000000, 0.0000000000000000000, 1.000000000000000000 ) ) ;
#197 = DIRECTION ( 'NONE',  ( 0.0000000000000000000, 0.0000000000000000000, 1.000000000000000000 ) ) ;
#198 = FILL_AREA_STYLE ('',( #23 ) ) ;
#199 = CARTESIAN_POINT ( 'NONE',  ( 0.0000000000000000000, 15.00000000000000400, 0.0000000000000000000 ) ) ;
#200 = PRESENTATION_STYLE_ASSIGNMENT (( #122 ) ) ;
#201 = DIRECTION ( 'NONE',  ( -0.0000000000000000000, 1.000000000000000000, -0.0000000000000000000 ) ) ;
#202 = ORIENTED_EDGE ( 'NONE', *, *, #25, .T. ) ;
#203 = AXIS2_PLACEMENT_3D ( 'NONE', #41, #170, #137 ) ;
#204 = FACE_OUTER_BOUND ( 'NONE', #150, .T. ) ;
#205 = ORIENTED_EDGE ( 'NONE', *, *, #160, .F. ) ;
#206 = EDGE_LOOP ( 'NONE', ( #26 ) ) ;
#207 = AXIS2_PLACEMENT_3D ( 'NONE', #243, #285, #284 ) ;
#208 = VERTEX_POINT ( 'NONE', #74 ) ;
#209 = CIRCLE ( 'NONE', #61, 17.00000000000000000 ) ;
#210 = EDGE_LOOP ( 'NONE', ( #50 ) ) ;
#211 = EDGE_CURVE ( 'NONE', #66, #66, #129, .T. ) ;
#212 = DIRECTION ( 'NONE',  ( -0.0000000000000000000, 1.000000000000000000, -0.0000000000000000000 ) ) ;
#213 = DIRECTION ( 'NONE',  ( -0.0000000000000000000, 1.000000000000000000, 0.0000000000000000000 ) ) ;
#214 = CARTESIAN_POINT ( 'NONE',  ( 1.500000000000004200, 0.0000000000000000000, 0.0000000000000000000 ) ) ;
#215 = UNCERTAINTY_MEASURE_WITH_UNIT (LENGTH_MEASURE( 1.000000000000000100E-005 ), #267, 'distance_accuracy_value', 'NONE');
#216 = CARTESIAN_POINT ( 'NONE',  ( 0.0000000000000000000, 27.00000000000000400, 0.0000000000000000000 ) ) ;
#217 = FACE_OUTER_BOUND ( 'NONE', #15, .T. ) ;
#218 = AXIS2_PLACEMENT_3D ( 'NONE', #163, #187, #63 ) ;
#219 = DIRECTION ( 'NONE',  ( -0.0000000000000000000, 1.000000000000000000, -0.0000000000000000000 ) ) ;
#220 = DIRECTION ( 'NONE',  ( 0.0000000000000000000, -1.000000000000000000, 0.0000000000000000000 ) ) ;
#221 = FILL_AREA_STYLE_COLOUR ( '', #297 ) ;
#222 = DIRECTION ( 'NONE',  ( 0.0000000000000000000, 0.0000000000000000000, 1.000000000000000000 ) ) ;
#223 = FACE_OUTER_BOUND ( 'NONE', #9, .T. ) ;
#224 = ORIENTED_EDGE ( 'NONE', *, *, #76, .T. ) ;
#225 = CARTESIAN_POINT ( 'NONE',  ( 0.0000000000000000000, 16.38753919081468200, 0.0000000000000000000 ) ) ;
#226 = AXIS2_PLACEMENT_3D ( 'NONE', #214, #213, #68 ) ;
#227 = ORIENTED_EDGE ( 'NONE', *, *, #190, .T. ) ;
#228 = ADVANCED_FACE ( 'NONE', ( #253, #232 ), #161, .F. ) ;
#229 = PRODUCT_CONTEXT ( 'NONE', #51, 'mechanical' ) ;
#230 = ADVANCED_FACE ( 'NONE', ( #282, #299 ), #174, .T. ) ;
#231 = AXIS2_PLACEMENT_3D ( 'NONE', #40, #112, #268 ) ;
#232 = FACE_OUTER_BOUND ( 'NONE', #206, .T. ) ;
#233 = FACE_OUTER_BOUND ( 'NONE', #210, .T. ) ;
#234 = DIRECTION ( 'NONE',  ( 0.0000000000000000000, 0.0000000000000000000, 1.000000000000000000 ) ) ;
#235 = AXIS2_PLACEMENT_3D ( 'NONE', #39, #16, #14 ) ;
#236 = ORIENTED_EDGE ( 'NONE', *, *, #45, .T. ) ;
#237 = DIRECTION ( 'NONE',  ( 0.0000000000000000000, 0.0000000000000000000, 1.000000000000000000 ) ) ;
#238 = DIRECTION ( 'NONE',  ( 0.0000000000000000000, 0.0000000000000000000, 1.000000000000000000 ) ) ;
#239 = AXIS2_PLACEMENT_3D ( 'NONE', #22, #219, #72 ) ;
#240 = FACE_BOUND ( 'NONE', #176, .T. ) ;
#241 =( NAMED_UNIT ( * ) SI_UNIT ( $, .STERADIAN. ) SOLID_ANGLE_UNIT ( ) );
#242 = MECHANICAL_DESIGN_GEOMETRIC_PRESENTATION_REPRESENTATION (  '', ( #172 ), #57 ) ;
#243 = CARTESIAN_POINT ( 'NONE',  ( 0.0000000000000000000, 1.000000000000000900, 0.0000000000000000000 ) ) ;
#244 = CARTESIAN_POINT ( 'NONE',  ( 0.0000000000000000000, 10.00000000000000200, 0.0000000000000000000 ) ) ;
#245 = CYLINDRICAL_SURFACE ( 'NONE', #239, 20.88753919081468900 ) ;
#246 = EDGE_LOOP ( 'NONE', ( #255 ) ) ;
#247 = AXIS2_PLACEMENT_3D ( 'NONE', #96, #289, #75 ) ;
#248 = CARTESIAN_POINT ( 'NONE',  ( 0.0000000000000000000, 27.00000000000000400, 19.50000000000000700 ) ) ;
#249 = CARTESIAN_POINT ( 'NONE',  ( 0.0000000000000000000, 27.00000000000000400, 0.0000000000000000000 ) ) ;
#250 = EDGE_LOOP ( 'NONE', ( #79 ) ) ;
#251 = PRODUCT_DEFINITION ( 'UNKNOWN', '', #139, #7 ) ;
#252 = UNCERTAINTY_MEASURE_WITH_UNIT (LENGTH_MEASURE( 1.000000000000000100E-005 ), #147, 'distance_accuracy_value', 'NONE');
#253 = FACE_OUTER_BOUND ( 'NONE', #279, .T. ) ;
#254 = ORIENTED_EDGE ( 'NONE', *, *, #160, .T. ) ;
#255 = ORIENTED_EDGE ( 'NONE', *, *, #281, .F. ) ;
#256 = AXIS2_PLACEMENT_3D ( 'NONE', #114, #265, #94 ) ;
#257 = ADVANCED_FACE ( 'NONE', ( #98, #240 ), #258, .T. ) ;
#258 = CONICAL_SURFACE ( 'NONE', #278, 19.50000000000000400, 0.7853981633974496100 ) ;
#259 = COLOUR_RGB ( '',0.7921568627450980000, 0.8196078431372548800, 0.9333333333333333500 ) ;
#260 = EDGE_LOOP ( 'NONE', ( #86 ) ) ;
#261 = PRODUCT ( 'BH19.8550_IC', 'BH19.8550_IC', '', ( #229 ) ) ;
#262 = CARTESIAN_POINT ( 'NONE',  ( 0.0000000000000000000, 5.500000000000005300, 0.0000000000000000000 ) ) ;
#263 = CARTESIAN_POINT ( 'NONE',  ( 0.0000000000000000000, 0.0000000000000000000, 26.50000000000000700 ) ) ;
#264 = FACE_OUTER_BOUND ( 'NONE', #260, .T. ) ;
#265 = DIRECTION ( 'NONE',  ( -0.0000000000000000000, 1.000000000000000000, -0.0000000000000000000 ) ) ;
#266 = ORIENTED_EDGE ( 'NONE', *, *, #60, .F. ) ;
#267 =( LENGTH_UNIT ( ) NAMED_UNIT ( * ) SI_UNIT ( .MILLI., .METRE. ) );
#268 = DIRECTION ( 'NONE',  ( 0.0000000000000000000, 0.0000000000000000000, 1.000000000000000000 ) ) ;
#269 = CARTESIAN_POINT ( 'NONE',  ( 0.0000000000000000000, 0.0000000000000000000, 1.500000000000004200 ) ) ;
#270 = DIRECTION ( 'NONE',  ( 0.0000000000000000000, 0.0000000000000000000, 1.000000000000000000 ) ) ;
#271 = CARTESIAN_POINT ( 'NONE',  ( 0.0000000000000000000, 5.500000000000005300, 17.00000000000000400 ) ) ;
#272 = ORIENTED_EDGE ( 'NONE', *, *, #116, .F. ) ;
#273 = AXIS2_PLACEMENT_3D ( 'NONE', #244, #49, #222 ) ;
#274 = MANIFOLD_SOLID_BREP ( 'Revolve1', #283 ) ;
#275 = VERTEX_POINT ( 'NONE', #47 ) ;
#276 = FACE_BOUND ( 'NONE', #142, .T. ) ;
#277 = ADVANCED_FACE ( 'NONE', ( #35, #280 ), #71, .T. ) ;
#278 = AXIS2_PLACEMENT_3D ( 'NONE', #199, #53, #29 ) ;
#279 = EDGE_LOOP ( 'NONE', ( #272 ) ) ;
#280 = FACE_OUTER_BOUND ( 'NONE', #110, .T. ) ;
#281 = EDGE_CURVE ( 'NONE', #81, #81, #21, .T. ) ;
#282 = FACE_BOUND ( 'NONE', #13, .T. ) ;
#283 = CLOSED_SHELL ( 'NONE', ( #83, #5, #277, #33, #154, #257, #180, #230, #151, #228, #56, #55, #127 ) ) ;
#284 = DIRECTION ( 'NONE',  ( 0.0000000000000000000, 0.0000000000000000000, 1.000000000000000000 ) ) ;
#285 = DIRECTION ( 'NONE',  ( -0.0000000000000000000, 1.000000000000000000, -0.0000000000000000000 ) ) ;
#286 = AXIS2_PLACEMENT_3D ( 'NONE', #118, #95, #196 ) ;
#287 = CARTESIAN_POINT ( 'NONE',  ( 0.0000000000000000000, 1.000000000000000900, 27.50000000000000400 ) ) ;
#288 = CARTESIAN_POINT ( 'NONE',  ( 0.0000000000000000000, 9.000000000000001800, 0.0000000000000000000 ) ) ;
#289 = DIRECTION ( 'NONE',  ( -0.0000000000000000000, 1.000000000000000000, -0.0000000000000000000 ) ) ;
#290 = DIRECTION ( 'NONE',  ( 0.0000000000000000000, 0.0000000000000000000, -1.000000000000000000 ) ) ;
#291 = EDGE_CURVE ( 'NONE', #140, #140, #87, .T. ) ;
#292 = FACE_OUTER_BOUND ( 'NONE', #183, .T. ) ;
#293 = ORIENTED_EDGE ( 'NONE', *, *, #60, .T. ) ;
#294 =( LENGTH_UNIT ( ) NAMED_UNIT ( * ) SI_UNIT ( .MILLI., .METRE. ) );
#295 = CARTESIAN_POINT ( 'NONE',  ( 0.0000000000000000000, 10.00000000000000200, 19.50000000000000400 ) ) ;
#296 = VERTEX_POINT ( 'NONE', #271 ) ;
#297 = COLOUR_RGB ( '',0.7921568627450980000, 0.8196078431372548800, 0.9333333333333333500 ) ;
#298 = EDGE_CURVE ( 'NONE', #11, #11, #166, .T. ) ;
#299 = FACE_OUTER_BOUND ( 'NONE', #38, .T. ) ;
#300 = ORIENTED_EDGE ( 'NONE', *, *, #211, .T. ) ;
#301 = FACE_OUTER_BOUND ( 'NONE', #155, .T. ) ;
#302 = CIRCLE ( 'NONE', #84, 17.00000000000000400 ) ;
#303 = ORIENTED_EDGE ( 'NONE', *, *, #76, .F. ) ;
#304 = AXIS2_PLACEMENT_3D ( 'NONE', #18, #308, #67 ) ;
#305 = VERTEX_POINT ( 'NONE', #263 ) ;
#306 = EDGE_LOOP ( 'NONE', ( #303 ) ) ;
#307 = PLANE ( 'NONE',  #226 ) ;
#308 = DIRECTION ( 'NONE',  ( 0.0000000000000000000, -1.000000000000000000, 0.0000000000000000000 ) ) ;
#309 = CARTESIAN_POINT ( 'NONE',  ( 0.0000000000000000000, 5.500000000000005300, 1.500000000000003100 ) ) ;
#310 = CARTESIAN_POINT ( 'NONE',  ( 0.0000000000000000000, 9.000000000000001800, 0.0000000000000000000 ) ) ;
#311 = FACE_BOUND ( 'NONE', #12, .T. ) ;
#312 =( NAMED_UNIT ( * ) PLANE_ANGLE_UNIT ( ) SI_UNIT ( $, .RADIAN. ) );
#313 = CARTESIAN_POINT ( 'NONE',  ( 0.0000000000000000000, 0.0000000000000000000, 0.0000000000000000000 ) ) ;
#314 = DIRECTION ( 'NONE',  ( 0.0000000000000000000, 0.0000000000000000000, 1.000000000000000000 ) ) ;
ENDSEC;
END-ISO-10303-21;
