ISO-10303-21;
HEADER;
/* Generated by software containing ST-Developer
 * from STEP Tools, Inc. (www.steptools.com) 
 */

FILE_DESCRIPTION(
/* description */ (''),
/* implementation_level */ '2;1');

FILE_NAME(
/* name */ 'H:\\CAD\\neutral\\3d\\73195\\dr_12_a-la.stp',
/* time_stamp */ '2017-07-24T14:02:17+02:00',
/* author */ ('leitheu\X\DFer'),
/* organization */ (''),
/* preprocessor_version */ 'ST-DEVELOPER v15.6',
/* originating_system */ 'Autodesk Inventor LT ',
/* authorisation */ '');

FILE_SCHEMA (('AUTOMOTIVE_DESIGN { 1 0 10303 214 3 1 1 }'));
ENDSEC;

DATA;
#10=MECHANICAL_DESIGN_GEOMETRIC_PRESENTATION_REPRESENTATION('',(#13),#103);
#11=SHAPE_REPRESENTATION_RELATIONSHIP('SRR','None',#112,#12);
#12=ADVANCED_BREP_SHAPE_REPRESENTATION($,(#14),#102);
#13=STYLED_ITEM('',(#121),#14);
#14=MANIFOLD_SOLID_BREP('Volumenk\X\F6rper1',#59);
#15=PLANE('',#67);
#16=PLANE('',#68);
#17=FACE_BOUND('',#26,.T.);
#18=FACE_BOUND('',#28,.T.);
#19=FACE_BOUND('',#30,.T.);
#20=FACE_BOUND('',#32,.T.);
#21=FACE_OUTER_BOUND('',#25,.T.);
#22=FACE_OUTER_BOUND('',#27,.T.);
#23=FACE_OUTER_BOUND('',#29,.T.);
#24=FACE_OUTER_BOUND('',#31,.T.);
#25=EDGE_LOOP('',(#45));
#26=EDGE_LOOP('',(#46));
#27=EDGE_LOOP('',(#47));
#28=EDGE_LOOP('',(#48));
#29=EDGE_LOOP('',(#49));
#30=EDGE_LOOP('',(#50));
#31=EDGE_LOOP('',(#51));
#32=EDGE_LOOP('',(#52));
#33=CIRCLE('',#62,10.6);
#34=CIRCLE('',#63,10.6);
#35=CIRCLE('',#65,12.95);
#36=CIRCLE('',#66,12.95);
#37=VERTEX_POINT('',#89);
#38=VERTEX_POINT('',#91);
#39=VERTEX_POINT('',#94);
#40=VERTEX_POINT('',#96);
#41=EDGE_CURVE('',#37,#37,#33,.T.);
#42=EDGE_CURVE('',#38,#38,#34,.T.);
#43=EDGE_CURVE('',#39,#39,#35,.T.);
#44=EDGE_CURVE('',#40,#40,#36,.T.);
#45=ORIENTED_EDGE('',*,*,#41,.F.);
#46=ORIENTED_EDGE('',*,*,#42,.F.);
#47=ORIENTED_EDGE('',*,*,#43,.F.);
#48=ORIENTED_EDGE('',*,*,#44,.F.);
#49=ORIENTED_EDGE('',*,*,#44,.T.);
#50=ORIENTED_EDGE('',*,*,#42,.T.);
#51=ORIENTED_EDGE('',*,*,#43,.T.);
#52=ORIENTED_EDGE('',*,*,#41,.T.);
#53=CYLINDRICAL_SURFACE('',#61,10.6);
#54=CYLINDRICAL_SURFACE('',#64,12.95);
#55=ADVANCED_FACE('',(#21,#17),#53,.F.);
#56=ADVANCED_FACE('',(#22,#18),#54,.T.);
#57=ADVANCED_FACE('',(#23,#19),#15,.F.);
#58=ADVANCED_FACE('',(#24,#20),#16,.T.);
#59=CLOSED_SHELL('',(#55,#56,#57,#58));
#60=AXIS2_PLACEMENT_3D('placement',#87,#69,#70);
#61=AXIS2_PLACEMENT_3D('',#88,#71,#72);
#62=AXIS2_PLACEMENT_3D('',#90,#73,#74);
#63=AXIS2_PLACEMENT_3D('',#92,#75,#76);
#64=AXIS2_PLACEMENT_3D('',#93,#77,#78);
#65=AXIS2_PLACEMENT_3D('',#95,#79,#80);
#66=AXIS2_PLACEMENT_3D('',#97,#81,#82);
#67=AXIS2_PLACEMENT_3D('',#98,#83,#84);
#68=AXIS2_PLACEMENT_3D('',#99,#85,#86);
#69=DIRECTION('axis',(0.,0.,1.));
#70=DIRECTION('refdir',(1.,0.,0.));
#71=DIRECTION('center_axis',(0.,1.,0.));
#72=DIRECTION('ref_axis',(1.,0.,0.));
#73=DIRECTION('center_axis',(0.,-1.,0.));
#74=DIRECTION('ref_axis',(1.,0.,0.));
#75=DIRECTION('center_axis',(0.,1.,0.));
#76=DIRECTION('ref_axis',(1.,0.,0.));
#77=DIRECTION('center_axis',(0.,1.,0.));
#78=DIRECTION('ref_axis',(1.,0.,0.));
#79=DIRECTION('center_axis',(0.,1.,0.));
#80=DIRECTION('ref_axis',(1.,0.,0.));
#81=DIRECTION('center_axis',(0.,-1.,0.));
#82=DIRECTION('ref_axis',(1.,0.,0.));
#83=DIRECTION('center_axis',(0.,1.,0.));
#84=DIRECTION('ref_axis',(0.,0.,1.));
#85=DIRECTION('center_axis',(0.,1.,0.));
#86=DIRECTION('ref_axis',(0.,0.,1.));
#87=CARTESIAN_POINT('',(0.,0.,0.));
#88=CARTESIAN_POINT('Origin',(0.,0.,0.));
#89=CARTESIAN_POINT('',(-10.6,1.5,1.29812560709619E-15));
#90=CARTESIAN_POINT('Origin',(0.,1.5,0.));
#91=CARTESIAN_POINT('',(-10.6,0.,1.29812560709619E-15));
#92=CARTESIAN_POINT('Origin',(0.,0.,0.));
#93=CARTESIAN_POINT('Origin',(0.,0.,0.));
#94=CARTESIAN_POINT('',(-12.95,1.5,1.58591760489582E-15));
#95=CARTESIAN_POINT('Origin',(0.,1.5,0.));
#96=CARTESIAN_POINT('',(-12.95,0.,1.58591760489582E-15));
#97=CARTESIAN_POINT('Origin',(0.,0.,0.));
#98=CARTESIAN_POINT('Origin',(7.037031850284E-16,0.,2.85771692310208E-16));
#99=CARTESIAN_POINT('Origin',(7.037031850284E-16,1.5,2.85771692310208E-16));
#100=UNCERTAINTY_MEASURE_WITH_UNIT(LENGTH_MEASURE(0.01),#104,
'DISTANCE_ACCURACY_VALUE',
'Maximum model space distance between geometric entities at asserted c
onnectivities');
#101=UNCERTAINTY_MEASURE_WITH_UNIT(LENGTH_MEASURE(1.E-6),#104,
'DISTANCE_ACCURACY_VALUE',
'Maximum model space distance between geometric entities at asserted c
onnectivities');
#102=(
GEOMETRIC_REPRESENTATION_CONTEXT(3)
GLOBAL_UNCERTAINTY_ASSIGNED_CONTEXT((#100))
GLOBAL_UNIT_ASSIGNED_CONTEXT((#104,#107,#105))
REPRESENTATION_CONTEXT('','3D')
);
#103=(
GEOMETRIC_REPRESENTATION_CONTEXT(3)
GLOBAL_UNCERTAINTY_ASSIGNED_CONTEXT((#101))
GLOBAL_UNIT_ASSIGNED_CONTEXT((#104,#107,#105))
REPRESENTATION_CONTEXT('','3D')
);
#104=(
LENGTH_UNIT()
NAMED_UNIT(*)
SI_UNIT(.MILLI.,.METRE.)
);
#105=(
NAMED_UNIT(*)
SI_UNIT($,.STERADIAN.)
SOLID_ANGLE_UNIT()
);
#106=DIMENSIONAL_EXPONENTS(0.,0.,0.,0.,0.,0.,0.);
#107=(
CONVERSION_BASED_UNIT('degree',#109)
NAMED_UNIT(#106)
PLANE_ANGLE_UNIT()
);
#108=(
NAMED_UNIT(*)
PLANE_ANGLE_UNIT()
SI_UNIT($,.RADIAN.)
);
#109=PLANE_ANGLE_MEASURE_WITH_UNIT(PLANE_ANGLE_MEASURE(0.01745329252),#108);
#110=SHAPE_DEFINITION_REPRESENTATION(#111,#112);
#111=PRODUCT_DEFINITION_SHAPE('',$,#114);
#112=SHAPE_REPRESENTATION('',(#60),#102);
#113=PRODUCT_DEFINITION_CONTEXT('part definition',#118,'design');
#114=PRODUCT_DEFINITION('Bauteil36','Bauteil36',#115,#113);
#115=PRODUCT_DEFINITION_FORMATION('',$,#120);
#116=PRODUCT_RELATED_PRODUCT_CATEGORY('Bauteil36','Bauteil36',(#120));
#117=APPLICATION_PROTOCOL_DEFINITION('international standard',
'automotive_design',2009,#118);
#118=APPLICATION_CONTEXT(
'Core Data for Automotive Mechanical Design Process');
#119=PRODUCT_CONTEXT('part definition',#118,'mechanical');
#120=PRODUCT('Bauteil36','Bauteil36',$,(#119));
#121=PRESENTATION_STYLE_ASSIGNMENT((#122));
#122=SURFACE_STYLE_USAGE(.BOTH.,#123);
#123=SURFACE_SIDE_STYLE($,(#124));
#124=SURFACE_STYLE_FILL_AREA(#125);
#125=FILL_AREA_STYLE($,(#126));
#126=FILL_AREA_STYLE_COLOUR($,#127);
#127=COLOUR_RGB('',0.996078431372549,0.996078431372549,1.);
ENDSEC;
END-ISO-10303-21;
