ISO-10303-21;
HEADER;
FILE_DESCRIPTION (( 'STEP AP214' ),
    '1' );
FILE_NAME ('0605300250200A.STEP',
    '2012-10-22T14:49:48',
    ( '' ),
    ( '' ),
    'SwSTEP 2.0',
    'SolidWorks 2012',
    '' );
FILE_SCHEMA (( 'AUTOMOTIVE_DESIGN' ));
ENDSEC;

DATA;
#1 = ADVANCED_FACE ( 'NONE', ( #141 ), #115, .T. ) ;
#2 = ADVANCED_FACE ( 'NONE', ( #112 ), #122, .F. ) ;
#3 = ADVANCED_FACE ( 'NONE', ( #142 ), #111, .F. ) ;
#4 = ADVANCED_FACE ( 'NONE', ( #144, #123 ), #68, .T. ) ;
#5 = ADVANCED_FACE ( 'NONE', ( #143, #126 ), #70, .T. ) ;
#6 = ADVANCED_FACE ( 'NONE', ( #125 ), #152, .T. ) ;
#7 = EDGE_CURVE ( 'NONE', #177, #117, #120, .T. ) ;
#8 = EDGE_CURVE ( 'NONE', #177, #153, #150, .T. ) ;
#9 = EDGE_CURVE ( 'NONE', #153, #159, #172, .T. ) ;
#10 = EDGE_CURVE ( 'NONE', #108, #174, #124, .T. ) ;
#11 = EDGE_CURVE ( 'NONE', #135, #174, #139, .T. ) ;
#12 = EDGE_CURVE ( 'NONE', #153, #177, #148, .T. ) ;
#13 = EDGE_CURVE ( 'NONE', #108, #113, #129, .T. ) ;
#14 = EDGE_CURVE ( 'NONE', #113, #135, #171, .T. ) ;
#15 = EDGE_CURVE ( 'NONE', #113, #108, #154, .T. ) ;
#16 = EDGE_CURVE ( 'NONE', #174, #135, #128, .T. ) ;
#17 = EDGE_CURVE ( 'NONE', #117, #159, #105, .T. ) ;
#18 = PRODUCT_DEFINITION_CONTEXT ( 'detailed design', #91, 'design' ) ;
#19 = PRODUCT_DEFINITION_SHAPE ( 'NONE', 'NONE',  #188 ) ;
#20 =( LENGTH_UNIT ( ) NAMED_UNIT ( * ) SI_UNIT ( .MILLI., .METRE. ) );
#21 = SURFACE_STYLE_USAGE ( .BOTH. , #86 ) ;
#22 =( NAMED_UNIT ( * ) PLANE_ANGLE_UNIT ( ) SI_UNIT ( $, .RADIAN. ) );
#23 = CARTESIAN_POINT ( 'NONE',  ( 0.0000000000000000000, 0.0000000000000000000, -10.10000000000000000 ) ) ;
#24 = CARTESIAN_POINT ( 'NONE',  ( 0.0000000000000000000, 1.300000000000000300, -12.00000000000000000 ) ) ;
#25 = DIRECTION ( 'NONE',  ( -0.0000000000000000000, 1.000000000000000000, -0.0000000000000000000 ) ) ;
#26 = CARTESIAN_POINT ( 'NONE',  ( 1.469576158976823900E-015, 1.300000000000000300, 12.00000000000000000 ) ) ;
#27 = DIRECTION ( 'NONE',  ( 0.0000000000000000000, 0.0000000000000000000, -1.000000000000000000 ) ) ;
#28 = DIRECTION ( 'NONE',  ( 0.0000000000000000000, -1.000000000000000000, 0.0000000000000000000 ) ) ;
#29 = CARTESIAN_POINT ( 'NONE',  ( 0.0000000000000000000, 1.300000000000000300, 0.0000000000000000000 ) ) ;
#30 = DIRECTION ( 'NONE',  ( 0.0000000000000000000, -1.000000000000000000, 0.0000000000000000000 ) ) ;
#31 = CARTESIAN_POINT ( 'NONE',  ( 0.0000000000000000000, 1.300000000000000300, -10.10000000000000000 ) ) ;
#32 = DIRECTION ( 'NONE',  ( 0.0000000000000000000, -1.000000000000000000, 0.0000000000000000000 ) ) ;
#33 = CARTESIAN_POINT ( 'NONE',  ( 0.0000000000000000000, 0.0000000000000000000, 0.0000000000000000000 ) ) ;
#34 = CARTESIAN_POINT ( 'NONE',  ( 0.0000000000000000000, 0.0000000000000000000, 0.0000000000000000000 ) ) ;
#35 = DIRECTION ( 'NONE',  ( 0.0000000000000000000, -1.000000000000000000, 0.0000000000000000000 ) ) ;
#36 = DIRECTION ( 'NONE',  ( 0.0000000000000000000, 0.0000000000000000000, -1.000000000000000000 ) ) ;
#37 = CARTESIAN_POINT ( 'NONE',  ( 0.0000000000000000000, 0.0000000000000000000, -12.00000000000000000 ) ) ;
#38 = CARTESIAN_POINT ( 'NONE',  ( 1.469576158976823900E-015, 0.0000000000000000000, 12.00000000000000000 ) ) ;
#39 = CARTESIAN_POINT ( 'NONE',  ( 1.469576158976823900E-015, 1.300000000000000300, 12.00000000000000000 ) ) ;
#40 = CARTESIAN_POINT ( 'NONE',  ( 1.236893267138826600E-015, 0.0000000000000000000, 10.10000000000000000 ) ) ;
#41 = FILL_AREA_STYLE ('',( #46 ) ) ;
#42 = DIRECTION ( 'NONE',  ( 0.0000000000000000000, 0.0000000000000000000, -1.000000000000000000 ) ) ;
#43 = CARTESIAN_POINT ( 'NONE',  ( 0.0000000000000000000, 1.300000000000000300, -10.10000000000000000 ) ) ;
#44 = DIRECTION ( 'NONE',  ( -0.0000000000000000000, 1.000000000000000000, -0.0000000000000000000 ) ) ;
#45 = DIRECTION ( 'NONE',  ( 0.0000000000000000000, 0.0000000000000000000, -1.000000000000000000 ) ) ;
#46 = FILL_AREA_STYLE_COLOUR ( '', #118 ) ;
#47 = CARTESIAN_POINT ( 'NONE',  ( 0.0000000000000000000, 1.300000000000000300, 0.0000000000000000000 ) ) ;
#48 = CARTESIAN_POINT ( 'NONE',  ( 1.236893267138826600E-015, 1.300000000000000300, 10.10000000000000000 ) ) ;
#49 = DIRECTION ( 'NONE',  ( 0.0000000000000000000, 0.0000000000000000000, -1.000000000000000000 ) ) ;
#50 = CARTESIAN_POINT ( 'NONE',  ( 1.236893267138826600E-015, 1.300000000000000300, 10.10000000000000000 ) ) ;
#51 = DIRECTION ( 'NONE',  ( -0.0000000000000000000, 1.000000000000000000, -0.0000000000000000000 ) ) ;
#52 = DIRECTION ( 'NONE',  ( 0.0000000000000000000, -1.000000000000000000, 0.0000000000000000000 ) ) ;
#53 = CARTESIAN_POINT ( 'NONE',  ( 0.0000000000000000000, 1.300000000000000300, -12.00000000000000000 ) ) ;
#54 = CARTESIAN_POINT ( 'NONE',  ( 0.0000000000000000000, 1.300000000000000300, 0.0000000000000000000 ) ) ;
#55 = DIRECTION ( 'NONE',  ( -0.0000000000000000000, 1.000000000000000000, -0.0000000000000000000 ) ) ;
#56 = PRODUCT_CONTEXT ( 'NONE', #101, 'mechanical' ) ;
#57 = DIRECTION ( 'NONE',  ( 0.0000000000000000000, 0.0000000000000000000, -1.000000000000000000 ) ) ;
#58 = DIRECTION ( 'NONE',  ( 0.0000000000000000000, -1.000000000000000000, 0.0000000000000000000 ) ) ;
#59 = DIRECTION ( 'NONE',  ( 0.0000000000000000000, 0.0000000000000000000, -1.000000000000000000 ) ) ;
#60 = CARTESIAN_POINT ( 'NONE',  ( 0.0000000000000000000, 1.300000000000000300, 0.0000000000000000000 ) ) ;
#61 = DIRECTION ( 'NONE',  ( 0.0000000000000000000, 0.0000000000000000000, -1.000000000000000000 ) ) ;
#62 = DIRECTION ( 'NONE',  ( 0.0000000000000000000, -1.000000000000000000, 0.0000000000000000000 ) ) ;
#63 = DIRECTION ( 'NONE',  ( 0.0000000000000000000, -1.000000000000000000, 0.0000000000000000000 ) ) ;
#64 = CARTESIAN_POINT ( 'NONE',  ( 0.0000000000000000000, 1.300000000000000300, 0.0000000000000000000 ) ) ;
#65 = DIRECTION ( 'NONE',  ( 0.0000000000000000000, -1.000000000000000000, 0.0000000000000000000 ) ) ;
#66 = CARTESIAN_POINT ( 'NONE',  ( -12.14399999999999800, 0.0000000000000000000, 12.14399999999999800 ) ) ;
#67 = DIRECTION ( 'NONE',  ( 0.0000000000000000000, 1.000000000000000000, 0.0000000000000000000 ) ) ;
#68 = PLANE ( 'NONE',  #201 ) ;
#69 = DIRECTION ( 'NONE',  ( 0.0000000000000000000, 0.0000000000000000000, -1.000000000000000000 ) ) ;
#70 = PLANE ( 'NONE',  #199 ) ;
#71 = CARTESIAN_POINT ( 'NONE',  ( -12.14399999999999800, 1.300000000000000300, -12.14399999999999800 ) ) ;
#72 = DIRECTION ( 'NONE',  ( 0.0000000000000000000, -1.000000000000000000, 0.0000000000000000000 ) ) ;
#73 = DIRECTION ( 'NONE',  ( 0.0000000000000000000, 0.0000000000000000000, -1.000000000000000000 ) ) ;
#74 = DIRECTION ( 'NONE',  ( 0.0000000000000000000, 0.0000000000000000000, 1.000000000000000000 ) ) ;
#75 = CARTESIAN_POINT ( 'NONE',  ( 0.0000000000000000000, 1.300000000000000300, 0.0000000000000000000 ) ) ;
#76 = CARTESIAN_POINT ( 'NONE',  ( 0.0000000000000000000, 0.0000000000000000000, 0.0000000000000000000 ) ) ;
#77 = DIRECTION ( 'NONE',  ( 0.0000000000000000000, -1.000000000000000000, 0.0000000000000000000 ) ) ;
#78 = FILL_AREA_STYLE_COLOUR ( '', #156 ) ;
#79 = DIRECTION ( 'NONE',  ( 0.0000000000000000000, 0.0000000000000000000, -1.000000000000000000 ) ) ;
#80 = DIRECTION ( 'NONE',  ( 0.0000000000000000000, 0.0000000000000000000, -1.000000000000000000 ) ) ;
#81 = DIRECTION ( 'NONE',  ( 0.0000000000000000000, -1.000000000000000000, 0.0000000000000000000 ) ) ;
#82 = CARTESIAN_POINT ( 'NONE',  ( 0.0000000000000000000, 0.0000000000000000000, 0.0000000000000000000 ) ) ;
#83 = DIRECTION ( 'NONE',  ( 0.0000000000000000000, -1.000000000000000000, 0.0000000000000000000 ) ) ;
#84 = CARTESIAN_POINT ( 'NONE',  ( 0.0000000000000000000, 1.300000000000000300, 0.0000000000000000000 ) ) ;
#85 = CARTESIAN_POINT ( 'NONE',  ( 0.0000000000000000000, 1.300000000000000300, 0.0000000000000000000 ) ) ;
#86 = SURFACE_SIDE_STYLE ('',( #178 ) ) ;
#87 =( NAMED_UNIT ( * ) SI_UNIT ( $, .STERADIAN. ) SOLID_ANGLE_UNIT ( ) );
#88 =( NAMED_UNIT ( * ) PLANE_ANGLE_UNIT ( ) SI_UNIT ( $, .RADIAN. ) );
#89 =( LENGTH_UNIT ( ) NAMED_UNIT ( * ) SI_UNIT ( .MILLI., .METRE. ) );
#90 = APPLICATION_PROTOCOL_DEFINITION ( 'draft international standard', 'automotive_design', 1998, #91 ) ;
#91 = APPLICATION_CONTEXT ( 'automotive_design' ) ;
#92 = DIRECTION ( 'NONE',  ( 0.0000000000000000000, 0.0000000000000000000, 1.000000000000000000 ) ) ;
#93 = DIRECTION ( 'NONE',  ( 1.000000000000000000, 0.0000000000000000000, 0.0000000000000000000 ) ) ;
#94 = CARTESIAN_POINT ( 'NONE',  ( 0.0000000000000000000, 0.0000000000000000000, 0.0000000000000000000 ) ) ;
#95 =( NAMED_UNIT ( * ) SI_UNIT ( $, .STERADIAN. ) SOLID_ANGLE_UNIT ( ) );
#96 =( NAMED_UNIT ( * ) PLANE_ANGLE_UNIT ( ) SI_UNIT ( $, .RADIAN. ) );
#97 = SURFACE_STYLE_USAGE ( .BOTH. , #99 ) ;
#98 =( LENGTH_UNIT ( ) NAMED_UNIT ( * ) SI_UNIT ( .MILLI., .METRE. ) );
#99 = SURFACE_SIDE_STYLE ('',( #109 ) ) ;
#100 = FILL_AREA_STYLE ('',( #78 ) ) ;
#101 = APPLICATION_CONTEXT ( 'automotive_design' ) ;
#102 = APPLICATION_PROTOCOL_DEFINITION ( 'draft international standard', 'automotive_design', 1998, #101 ) ;
#103 = DIRECTION ( 'NONE',  ( 0.0000000000000000000, 0.0000000000000000000, -1.000000000000000000 ) ) ;
#104 =( NAMED_UNIT ( * ) SI_UNIT ( $, .STERADIAN. ) SOLID_ANGLE_UNIT ( ) );
#105 = CIRCLE ( 'NONE', #182, 12.00000000000000000 ) ;
#106 = EDGE_LOOP ( 'NONE', ( #168, #145, #157, #163 ) ) ;
#107 = EDGE_LOOP ( 'NONE', ( #180, #170, #161, #165 ) ) ;
#108 = VERTEX_POINT ( 'NONE', #48 ) ;
#109 = SURFACE_STYLE_FILL_AREA ( #100 ) ;
#110 = VECTOR ( 'NONE', #77, 1000.000000000000000 ) ;
#111 = CYLINDRICAL_SURFACE ( 'NONE', #204, 10.10000000000000000 ) ;
#112 = FACE_OUTER_BOUND ( 'NONE', #121, .T. ) ;
#113 = VERTEX_POINT ( 'NONE', #31 ) ;
#114 = PRESENTATION_STYLE_ASSIGNMENT (( #97 ) ) ;
#115 = CYLINDRICAL_SURFACE ( 'NONE', #206, 12.00000000000000000 ) ;
#116 = SHAPE_DEFINITION_REPRESENTATION ( #19, #212 ) ;
#117 = VERTEX_POINT ( 'NONE', #38 ) ;
#118 = COLOUR_RGB ( '',0.0000000000000000000, 0.0000000000000000000, 0.0000000000000000000 ) ;
#119 = PRESENTATION_STYLE_ASSIGNMENT (( #21 ) ) ;
#120 = LINE ( 'NONE', #26, #138 ) ;
#121 = EDGE_LOOP ( 'NONE', ( #173, #162, #179, #137 ) ) ;
#122 = CYLINDRICAL_SURFACE ( 'NONE', #205, 10.10000000000000000 ) ;
#123 = FACE_OUTER_BOUND ( 'NONE', #136, .T. ) ;
#124 = LINE ( 'NONE', #50, #110 ) ;
#125 = FACE_OUTER_BOUND ( 'NONE', #107, .T. ) ;
#126 = FACE_OUTER_BOUND ( 'NONE', #155, .T. ) ;
#127 = CIRCLE ( 'NONE', #181, 12.00000000000000000 ) ;
#128 = CIRCLE ( 'NONE', #183, 10.10000000000000000 ) ;
#129 = CIRCLE ( 'NONE', #193, 10.10000000000000000 ) ;
#130 = ORIENTED_EDGE ( 'NONE', *, *, #11, .T. ) ;
#131 = EDGE_LOOP ( 'NONE', ( #130, #147 ) ) ;
#132 = EDGE_LOOP ( 'NONE', ( #169, #140, #164, #176 ) ) ;
#133 = CLOSED_SHELL ( 'NONE', ( #1, #2, #6, #5, #4, #3 ) ) ;
#134 = VECTOR ( 'NONE', #81, 1000.000000000000000 ) ;
#135 = VERTEX_POINT ( 'NONE', #23 ) ;
#136 = EDGE_LOOP ( 'NONE', ( #146, #167 ) ) ;
#137 = ORIENTED_EDGE ( 'NONE', *, *, #14, .F. ) ;
#138 = VECTOR ( 'NONE', #28, 1000.000000000000000 ) ;
#139 = CIRCLE ( 'NONE', #200, 10.10000000000000000 ) ;
#140 = ORIENTED_EDGE ( 'NONE', *, *, #7, .T. ) ;
#141 = FACE_OUTER_BOUND ( 'NONE', #132, .T. ) ;
#142 = FACE_OUTER_BOUND ( 'NONE', #106, .T. ) ;
#143 = FACE_BOUND ( 'NONE', #175, .T. ) ;
#144 = FACE_BOUND ( 'NONE', #131, .T. ) ;
#145 = ORIENTED_EDGE ( 'NONE', *, *, #15, .F. ) ;
#146 = ORIENTED_EDGE ( 'NONE', *, *, #207, .T. ) ;
#147 = ORIENTED_EDGE ( 'NONE', *, *, #16, .T. ) ;
#148 = CIRCLE ( 'NONE', #196, 12.00000000000000000 ) ;
#149 = ORIENTED_EDGE ( 'NONE', *, *, #13, .T. ) ;
#150 = CIRCLE ( 'NONE', #198, 12.00000000000000000 ) ;
#151 = VECTOR ( 'NONE', #30, 1000.000000000000000 ) ;
#152 = CYLINDRICAL_SURFACE ( 'NONE', #184, 12.00000000000000000 ) ;
#153 = VERTEX_POINT ( 'NONE', #24 ) ;
#154 = CIRCLE ( 'NONE', #197, 10.10000000000000000 ) ;
#155 = EDGE_LOOP ( 'NONE', ( #160, #166 ) ) ;
#156 = COLOUR_RGB ( '',0.0000000000000000000, 0.0000000000000000000, 0.0000000000000000000 ) ;
#157 = ORIENTED_EDGE ( 'NONE', *, *, #14, .T. ) ;
#158 = ORIENTED_EDGE ( 'NONE', *, *, #15, .T. ) ;
#159 = VERTEX_POINT ( 'NONE', #37 ) ;
#160 = ORIENTED_EDGE ( 'NONE', *, *, #12, .T. ) ;
#161 = ORIENTED_EDGE ( 'NONE', *, *, #9, .T. ) ;
#162 = ORIENTED_EDGE ( 'NONE', *, *, #10, .T. ) ;
#163 = ORIENTED_EDGE ( 'NONE', *, *, #16, .F. ) ;
#164 = ORIENTED_EDGE ( 'NONE', *, *, #207, .F. ) ;
#165 = ORIENTED_EDGE ( 'NONE', *, *, #17, .F. ) ;
#166 = ORIENTED_EDGE ( 'NONE', *, *, #8, .T. ) ;
#167 = ORIENTED_EDGE ( 'NONE', *, *, #17, .T. ) ;
#168 = ORIENTED_EDGE ( 'NONE', *, *, #10, .F. ) ;
#169 = ORIENTED_EDGE ( 'NONE', *, *, #8, .F. ) ;
#170 = ORIENTED_EDGE ( 'NONE', *, *, #12, .F. ) ;
#171 = LINE ( 'NONE', #43, #134 ) ;
#172 = LINE ( 'NONE', #53, #151 ) ;
#173 = ORIENTED_EDGE ( 'NONE', *, *, #13, .F. ) ;
#174 = VERTEX_POINT ( 'NONE', #40 ) ;
#175 = EDGE_LOOP ( 'NONE', ( #158, #149 ) ) ;
#176 = ORIENTED_EDGE ( 'NONE', *, *, #9, .F. ) ;
#177 = VERTEX_POINT ( 'NONE', #39 ) ;
#178 = SURFACE_STYLE_FILL_AREA ( #41 ) ;
#179 = ORIENTED_EDGE ( 'NONE', *, *, #11, .F. ) ;
#180 = ORIENTED_EDGE ( 'NONE', *, *, #7, .F. ) ;
#181 = AXIS2_PLACEMENT_3D ( 'NONE', #82, #52, #49 ) ;
#182 = AXIS2_PLACEMENT_3D ( 'NONE', #34, #35, #36 ) ;
#183 = AXIS2_PLACEMENT_3D ( 'NONE', #33, #51, #27 ) ;
#184 = AXIS2_PLACEMENT_3D ( 'NONE', #75, #72, #73 ) ;
#185 = PRODUCT_RELATED_PRODUCT_CATEGORY ( 'part', '', ( #214 ) ) ;
#186 = PRODUCT_DEFINITION_FORMATION_WITH_SPECIFIED_SOURCE ( 'TUTTO', '', #214, .NOT_KNOWN. ) ;
#187 = AXIS2_PLACEMENT_3D ( 'NONE', #94, #92, #93 ) ;
#188 = PRODUCT_DEFINITION ( 'NON CONOSCIUTO', '', #186, #18 ) ;
#189 =( GEOMETRIC_REPRESENTATION_CONTEXT ( 3 ) GLOBAL_UNCERTAINTY_ASSIGNED_CONTEXT ( ( #211 ) ) GLOBAL_UNIT_ASSIGNED_CONTEXT ( ( #20, #96, #95 ) ) REPRESENTATION_CONTEXT ( 'NONE', 'WORKASPACE' ) );
#190 = MECHANICAL_DESIGN_GEOMETRIC_PRESENTATION_REPRESENTATION (  '', ( #191 ), #189 ) ;
#191 = STYLED_ITEM ( 'NONE', ( #114 ), #212 ) ;
#192 = PRESENTATION_LAYER_ASSIGNMENT (  '', '', ( #191 ) ) ;
#193 = AXIS2_PLACEMENT_3D ( 'NONE', #29, #83, #103 ) ;
#194 = STYLED_ITEM ( 'NONE', ( #119 ), #210 ) ;
#195 = MECHANICAL_DESIGN_GEOMETRIC_PRESENTATION_REPRESENTATION (  '', ( #194 ), #202 ) ;
#196 = AXIS2_PLACEMENT_3D ( 'NONE', #85, #44, #42 ) ;
#197 = AXIS2_PLACEMENT_3D ( 'NONE', #47, #32, #45 ) ;
#198 = AXIS2_PLACEMENT_3D ( 'NONE', #54, #25, #57 ) ;
#199 = AXIS2_PLACEMENT_3D ( 'NONE', #71, #67, #74 ) ;
#200 = AXIS2_PLACEMENT_3D ( 'NONE', #76, #55, #80 ) ;
#201 = AXIS2_PLACEMENT_3D ( 'NONE', #66, #65, #69 ) ;
#202 =( GEOMETRIC_REPRESENTATION_CONTEXT ( 3 ) GLOBAL_UNCERTAINTY_ASSIGNED_CONTEXT ( ( #213 ) ) GLOBAL_UNIT_ASSIGNED_CONTEXT ( ( #98, #88, #104 ) ) REPRESENTATION_CONTEXT ( 'NONE', 'WORKASPACE' ) );
#203 =( GEOMETRIC_REPRESENTATION_CONTEXT ( 3 ) GLOBAL_UNCERTAINTY_ASSIGNED_CONTEXT ( ( #209 ) ) GLOBAL_UNIT_ASSIGNED_CONTEXT ( ( #89, #22, #87 ) ) REPRESENTATION_CONTEXT ( 'NONE', 'WORKASPACE' ) );
#204 = AXIS2_PLACEMENT_3D ( 'NONE', #64, #63, #79 ) ;
#205 = AXIS2_PLACEMENT_3D ( 'NONE', #84, #58, #59 ) ;
#206 = AXIS2_PLACEMENT_3D ( 'NONE', #60, #62, #61 ) ;
#207 = EDGE_CURVE ( 'NONE', #159, #117, #127, .T. ) ;
#208 = PRESENTATION_LAYER_ASSIGNMENT (  '', '', ( #194 ) ) ;
#209 = UNCERTAINTY_MEASURE_WITH_UNIT (LENGTH_MEASURE( 1.000000000000000100E-005 ), #89, 'distance_accuracy_value', 'NONE');
#210 = MANIFOLD_SOLID_BREP ( 'Importato1', #133 ) ;
#211 = UNCERTAINTY_MEASURE_WITH_UNIT (LENGTH_MEASURE( 1.000000000000000100E-005 ), #20, 'distance_accuracy_value', 'NONE');
#212 = ADVANCED_BREP_SHAPE_REPRESENTATION ( '0605300250200A', ( #210, #187 ), #203 ) ;
#213 = UNCERTAINTY_MEASURE_WITH_UNIT (LENGTH_MEASURE( 1.000000000000000100E-005 ), #98, 'distance_accuracy_value', 'NONE');
#214 = PRODUCT ( '0605300250200A', '0605300250200A', '', ( #56 ) ) ;
ENDSEC;
END-ISO-10303-21;
