ISO-10303-21;
HEADER;
FILE_DESCRIPTION (( 'STEP AP214' ),
    '1' );
FILE_NAME ('0605300250300A.STEP',
    '2012-10-22T14:49:10',
    ( '' ),
    ( '' ),
    'SwSTEP 2.0',
    'SolidWorks 2012',
    '' );
FILE_SCHEMA (( 'AUTOMOTIVE_DESIGN' ));
ENDSEC;

DATA;
#1 = EDGE_CURVE ( 'NONE', #180, #171, #177, .T. ) ;
#2 = EDGE_CURVE ( 'NONE', #176, #174, #147, .T. ) ;
#3 = EDGE_CURVE ( 'NONE', #171, #180, #178, .T. ) ;
#4 = EDGE_CURVE ( 'NONE', #168, #159, #172, .T. ) ;
#5 = EDGE_CURVE ( 'NONE', #171, #174, #173, .T. ) ;
#6 = EDGE_CURVE ( 'NONE', #180, #176, #149, .T. ) ;
#7 = EDGE_CURVE ( 'NONE', #179, #136, #151, .T. ) ;
#8 = EDGE_CURVE ( 'NONE', #168, #136, #157, .T. ) ;
#9 = EDGE_CURVE ( 'NONE', #159, #179, #111, .T. ) ;
#10 = EDGE_CURVE ( 'NONE', #159, #168, #146, .T. ) ;
#11 = EDGE_CURVE ( 'NONE', #136, #179, #134, .T. ) ;
#12 = EDGE_CURVE ( 'NONE', #174, #176, #114, .T. ) ;
#13 = PRODUCT_DEFINITION_CONTEXT ( 'detailed design', #27, 'design' ) ;
#14 = PRODUCT_DEFINITION_SHAPE ( 'NONE', 'NONE',  #197 ) ;
#15 = APPLICATION_PROTOCOL_DEFINITION ( 'draft international standard', 'automotive_design', 1998, #29 ) ;
#16 = DIRECTION ( 'NONE',  ( 0.0000000000000000000, -1.000000000000000000, 0.0000000000000000000 ) ) ;
#17 = DIRECTION ( 'NONE',  ( 0.0000000000000000000, -1.000000000000000000, 0.0000000000000000000 ) ) ;
#18 = DIRECTION ( 'NONE',  ( 0.0000000000000000000, -1.000000000000000000, 0.0000000000000000000 ) ) ;
#19 = CARTESIAN_POINT ( 'NONE',  ( 0.0000000000000000000, 0.0000000000000000000, 0.0000000000000000000 ) ) ;
#20 = DIRECTION ( 'NONE',  ( -0.0000000000000000000, 1.000000000000000000, -0.0000000000000000000 ) ) ;
#21 = FILL_AREA_STYLE ('',( #81 ) ) ;
#22 = DIRECTION ( 'NONE',  ( 0.0000000000000000000, -1.000000000000000000, 0.0000000000000000000 ) ) ;
#23 = DIRECTION ( 'NONE',  ( 0.0000000000000000000, 0.0000000000000000000, -1.000000000000000000 ) ) ;
#24 =( LENGTH_UNIT ( ) NAMED_UNIT ( * ) SI_UNIT ( .MILLI., .METRE. ) );
#25 = CARTESIAN_POINT ( 'NONE',  ( 0.0000000000000000000, 0.0000000000000000000, 0.0000000000000000000 ) ) ;
#26 = APPLICATION_PROTOCOL_DEFINITION ( 'draft international standard', 'automotive_design', 1998, #27 ) ;
#27 = APPLICATION_CONTEXT ( 'automotive_design' ) ;
#28 = PRODUCT_CONTEXT ( 'NONE', #29, 'mechanical' ) ;
#29 = APPLICATION_CONTEXT ( 'automotive_design' ) ;
#30 =( NAMED_UNIT ( * ) PLANE_ANGLE_UNIT ( ) SI_UNIT ( $, .RADIAN. ) );
#31 = DIRECTION ( 'NONE',  ( 1.000000000000000000, 0.0000000000000000000, 0.0000000000000000000 ) ) ;
#32 = CARTESIAN_POINT ( 'NONE',  ( 0.0000000000000000000, 1.500000000000000000, 0.0000000000000000000 ) ) ;
#33 = DIRECTION ( 'NONE',  ( 0.0000000000000000000, 0.0000000000000000000, 1.000000000000000000 ) ) ;
#34 = DIRECTION ( 'NONE',  ( 0.0000000000000000000, 0.0000000000000000000, 1.000000000000000000 ) ) ;
#35 =( NAMED_UNIT ( * ) PLANE_ANGLE_UNIT ( ) SI_UNIT ( $, .RADIAN. ) );
#36 =( NAMED_UNIT ( * ) SI_UNIT ( $, .STERADIAN. ) SOLID_ANGLE_UNIT ( ) );
#37 =( NAMED_UNIT ( * ) SI_UNIT ( $, .STERADIAN. ) SOLID_ANGLE_UNIT ( ) );
#38 =( LENGTH_UNIT ( ) NAMED_UNIT ( * ) SI_UNIT ( .MILLI., .METRE. ) );
#39 = SURFACE_STYLE_USAGE ( .BOTH. , #41 ) ;
#40 = PLANE ( 'NONE',  #207 ) ;
#41 = SURFACE_SIDE_STYLE ('',( #126 ) ) ;
#42 =( NAMED_UNIT ( * ) SI_UNIT ( $, .STERADIAN. ) SOLID_ANGLE_UNIT ( ) );
#43 = FILL_AREA_STYLE ('',( #44 ) ) ;
#44 = FILL_AREA_STYLE_COLOUR ( '', #118 ) ;
#45 =( NAMED_UNIT ( * ) PLANE_ANGLE_UNIT ( ) SI_UNIT ( $, .RADIAN. ) );
#46 = DIRECTION ( 'NONE',  ( 0.0000000000000000000, -1.000000000000000000, 0.0000000000000000000 ) ) ;
#47 = DIRECTION ( 'NONE',  ( 0.0000000000000000000, 0.0000000000000000000, -1.000000000000000000 ) ) ;
#48 = DIRECTION ( 'NONE',  ( 0.0000000000000000000, -1.000000000000000000, 0.0000000000000000000 ) ) ;
#49 = DIRECTION ( 'NONE',  ( 0.0000000000000000000, 0.0000000000000000000, -1.000000000000000000 ) ) ;
#50 = DIRECTION ( 'NONE',  ( 0.0000000000000000000, -1.000000000000000000, 0.0000000000000000000 ) ) ;
#51 = CARTESIAN_POINT ( 'NONE',  ( 0.0000000000000000000, 1.500000000000000000, 0.0000000000000000000 ) ) ;
#52 = CARTESIAN_POINT ( 'NONE',  ( 0.0000000000000000000, 1.500000000000000000, -14.50000000000000000 ) ) ;
#53 = DIRECTION ( 'NONE',  ( 0.0000000000000000000, 0.0000000000000000000, -1.000000000000000000 ) ) ;
#54 = CARTESIAN_POINT ( 'NONE',  ( 1.775737858763662000E-015, 1.500000000000000000, 14.50000000000000000 ) ) ;
#55 = DIRECTION ( 'NONE',  ( -0.0000000000000000000, 1.000000000000000000, -0.0000000000000000000 ) ) ;
#56 = DIRECTION ( 'NONE',  ( 0.0000000000000000000, -1.000000000000000000, 0.0000000000000000000 ) ) ;
#57 = CARTESIAN_POINT ( 'NONE',  ( 0.0000000000000000000, 1.500000000000000000, 0.0000000000000000000 ) ) ;
#58 = DIRECTION ( 'NONE',  ( 0.0000000000000000000, 0.0000000000000000000, -1.000000000000000000 ) ) ;
#59 = DIRECTION ( 'NONE',  ( 0.0000000000000000000, -1.000000000000000000, 0.0000000000000000000 ) ) ;
#60 = CARTESIAN_POINT ( 'NONE',  ( 0.0000000000000000000, 0.0000000000000000000, 0.0000000000000000000 ) ) ;
#61 = DIRECTION ( 'NONE',  ( 0.0000000000000000000, 0.0000000000000000000, -1.000000000000000000 ) ) ;
#62 = CARTESIAN_POINT ( 'NONE',  ( 0.0000000000000000000, 1.500000000000000000, 0.0000000000000000000 ) ) ;
#63 = DIRECTION ( 'NONE',  ( -0.0000000000000000000, 1.000000000000000000, -0.0000000000000000000 ) ) ;
#64 = DIRECTION ( 'NONE',  ( 0.0000000000000000000, 0.0000000000000000000, -1.000000000000000000 ) ) ;
#65 = DIRECTION ( 'NONE',  ( 0.0000000000000000000, -1.000000000000000000, 0.0000000000000000000 ) ) ;
#66 = DIRECTION ( 'NONE',  ( 0.0000000000000000000, 1.000000000000000000, 0.0000000000000000000 ) ) ;
#67 = DIRECTION ( 'NONE',  ( 0.0000000000000000000, 0.0000000000000000000, -1.000000000000000000 ) ) ;
#68 = SURFACE_SIDE_STYLE ('',( #130 ) ) ;
#69 = CARTESIAN_POINT ( 'NONE',  ( 0.0000000000000000000, 1.500000000000000000, 0.0000000000000000000 ) ) ;
#70 = DIRECTION ( 'NONE',  ( -0.0000000000000000000, 1.000000000000000000, -0.0000000000000000000 ) ) ;
#71 = SURFACE_STYLE_USAGE ( .BOTH. , #68 ) ;
#72 = CARTESIAN_POINT ( 'NONE',  ( 0.0000000000000000000, 0.0000000000000000000, -12.69999999999999900 ) ) ;
#73 = DIRECTION ( 'NONE',  ( 0.0000000000000000000, 0.0000000000000000000, -1.000000000000000000 ) ) ;
#74 = CARTESIAN_POINT ( 'NONE',  ( 0.0000000000000000000, 1.500000000000000000, -14.50000000000000000 ) ) ;
#75 = DIRECTION ( 'NONE',  ( 0.0000000000000000000, -1.000000000000000000, 0.0000000000000000000 ) ) ;
#76 = DIRECTION ( 'NONE',  ( 0.0000000000000000000, 0.0000000000000000000, -1.000000000000000000 ) ) ;
#77 = CARTESIAN_POINT ( 'NONE',  ( 0.0000000000000000000, 1.500000000000000000, 0.0000000000000000000 ) ) ;
#78 = CARTESIAN_POINT ( 'NONE',  ( 0.0000000000000000000, 0.0000000000000000000, 0.0000000000000000000 ) ) ;
#79 = CARTESIAN_POINT ( 'NONE',  ( 1.775737858763662000E-015, 0.0000000000000000000, 14.50000000000000000 ) ) ;
#80 = CARTESIAN_POINT ( 'NONE',  ( 0.0000000000000000000, 1.500000000000000000, -12.69999999999999900 ) ) ;
#81 = FILL_AREA_STYLE_COLOUR ( '', #129 ) ;
#82 = CARTESIAN_POINT ( 'NONE',  ( 0.0000000000000000000, 0.0000000000000000000, -14.50000000000000000 ) ) ;
#83 = CARTESIAN_POINT ( 'NONE',  ( 1.775737858763662000E-015, 1.500000000000000000, 14.50000000000000000 ) ) ;
#84 = CARTESIAN_POINT ( 'NONE',  ( 1.555301434917138400E-015, 1.500000000000000000, 12.69999999999999900 ) ) ;
#85 = DIRECTION ( 'NONE',  ( 0.0000000000000000000, 0.0000000000000000000, -1.000000000000000000 ) ) ;
#86 = CARTESIAN_POINT ( 'NONE',  ( 1.555301434917138400E-015, 0.0000000000000000000, 12.69999999999999900 ) ) ;
#87 = CARTESIAN_POINT ( 'NONE',  ( 0.0000000000000000000, 1.500000000000000000, 0.0000000000000000000 ) ) ;
#88 = CARTESIAN_POINT ( 'NONE',  ( -14.67399999999999900, 0.0000000000000000000, 14.67399999999999900 ) ) ;
#89 = DIRECTION ( 'NONE',  ( 0.0000000000000000000, -1.000000000000000000, 0.0000000000000000000 ) ) ;
#90 = CARTESIAN_POINT ( 'NONE',  ( 0.0000000000000000000, 1.500000000000000000, 0.0000000000000000000 ) ) ;
#91 = DIRECTION ( 'NONE',  ( 0.0000000000000000000, 0.0000000000000000000, -1.000000000000000000 ) ) ;
#92 = PLANE ( 'NONE',  #205 ) ;
#93 = CARTESIAN_POINT ( 'NONE',  ( -14.67399999999999900, 1.500000000000000000, -14.67399999999999900 ) ) ;
#94 = DIRECTION ( 'NONE',  ( 0.0000000000000000000, 0.0000000000000000000, -1.000000000000000000 ) ) ;
#95 = CARTESIAN_POINT ( 'NONE',  ( 1.555301434917138400E-015, 1.500000000000000000, 12.69999999999999900 ) ) ;
#96 = CARTESIAN_POINT ( 'NONE',  ( 0.0000000000000000000, 0.0000000000000000000, 0.0000000000000000000 ) ) ;
#97 =( LENGTH_UNIT ( ) NAMED_UNIT ( * ) SI_UNIT ( .MILLI., .METRE. ) );
#98 = CARTESIAN_POINT ( 'NONE',  ( 0.0000000000000000000, 1.500000000000000000, -12.69999999999999900 ) ) ;
#99 = DIRECTION ( 'NONE',  ( 0.0000000000000000000, -1.000000000000000000, 0.0000000000000000000 ) ) ;
#100 = ADVANCED_FACE ( 'NONE', ( #109 ), #119, .T. ) ;
#101 = ADVANCED_FACE ( 'NONE', ( #115, #120 ), #92, .T. ) ;
#102 = ADVANCED_FACE ( 'NONE', ( #116 ), #123, .T. ) ;
#103 = ADVANCED_FACE ( 'NONE', ( #117 ), #124, .F. ) ;
#104 = ADVANCED_FACE ( 'NONE', ( #122, #125 ), #40, .T. ) ;
#105 = ADVANCED_FACE ( 'NONE', ( #121 ), #127, .F. ) ;
#106 = ORIENTED_EDGE ( 'NONE', *, *, #5, .T. ) ;
#107 = EDGE_LOOP ( 'NONE', ( #138, #139 ) ) ;
#108 = VECTOR ( 'NONE', #48, 1000.000000000000000 ) ;
#109 = FACE_OUTER_BOUND ( 'NONE', #110, .T. ) ;
#110 = EDGE_LOOP ( 'NONE', ( #164, #106, #135, #143 ) ) ;
#111 = LINE ( 'NONE', #98, #137 ) ;
#112 = EDGE_LOOP ( 'NONE', ( #142, #169 ) ) ;
#113 = EDGE_LOOP ( 'NONE', ( #152, #150, #175, #170 ) ) ;
#114 = CIRCLE ( 'NONE', #183, 14.50000000000000000 ) ;
#115 = FACE_BOUND ( 'NONE', #148, .T. ) ;
#116 = FACE_OUTER_BOUND ( 'NONE', #154, .T. ) ;
#117 = FACE_OUTER_BOUND ( 'NONE', #156, .T. ) ;
#118 = COLOUR_RGB ( '',0.0000000000000000000, 0.0000000000000000000, 0.0000000000000000000 ) ;
#119 = CYLINDRICAL_SURFACE ( 'NONE', #192, 14.50000000000000000 ) ;
#120 = FACE_OUTER_BOUND ( 'NONE', #112, .T. ) ;
#121 = FACE_OUTER_BOUND ( 'NONE', #113, .T. ) ;
#122 = FACE_BOUND ( 'NONE', #144, .T. ) ;
#123 = CYLINDRICAL_SURFACE ( 'NONE', #204, 14.50000000000000000 ) ;
#124 = CYLINDRICAL_SURFACE ( 'NONE', #182, 12.69999999999999900 ) ;
#125 = FACE_OUTER_BOUND ( 'NONE', #107, .T. ) ;
#126 = SURFACE_STYLE_FILL_AREA ( #43 ) ;
#127 = CYLINDRICAL_SURFACE ( 'NONE', #190, 12.69999999999999900 ) ;
#128 = SHAPE_DEFINITION_REPRESENTATION ( #14, #211 ) ;
#129 = COLOUR_RGB ( '',0.0000000000000000000, 0.0000000000000000000, 0.0000000000000000000 ) ;
#130 = SURFACE_STYLE_FILL_AREA ( #21 ) ;
#131 = PRESENTATION_STYLE_ASSIGNMENT (( #71 ) ) ;
#132 = PRESENTATION_STYLE_ASSIGNMENT (( #39 ) ) ;
#133 = ORIENTED_EDGE ( 'NONE', *, *, #11, .F. ) ;
#134 = CIRCLE ( 'NONE', #184, 12.69999999999999900 ) ;
#135 = ORIENTED_EDGE ( 'NONE', *, *, #2, .F. ) ;
#136 = VERTEX_POINT ( 'NONE', #86 ) ;
#137 = VECTOR ( 'NONE', #99, 1000.000000000000000 ) ;
#138 = ORIENTED_EDGE ( 'NONE', *, *, #2, .T. ) ;
#139 = ORIENTED_EDGE ( 'NONE', *, *, #12, .T. ) ;
#140 = ORIENTED_EDGE ( 'NONE', *, *, #10, .T. ) ;
#141 = ORIENTED_EDGE ( 'NONE', *, *, #4, .T. ) ;
#142 = ORIENTED_EDGE ( 'NONE', *, *, #1, .T. ) ;
#143 = ORIENTED_EDGE ( 'NONE', *, *, #6, .F. ) ;
#144 = EDGE_LOOP ( 'NONE', ( #158, #153 ) ) ;
#145 = CLOSED_SHELL ( 'NONE', ( #100, #105, #102, #101, #104, #103 ) ) ;
#146 = CIRCLE ( 'NONE', #193, 12.69999999999999900 ) ;
#147 = CIRCLE ( 'NONE', #195, 14.50000000000000000 ) ;
#148 = EDGE_LOOP ( 'NONE', ( #140, #141 ) ) ;
#149 = LINE ( 'NONE', #52, #108 ) ;
#150 = ORIENTED_EDGE ( 'NONE', *, *, #8, .T. ) ;
#151 = CIRCLE ( 'NONE', #200, 12.69999999999999900 ) ;
#152 = ORIENTED_EDGE ( 'NONE', *, *, #4, .F. ) ;
#153 = ORIENTED_EDGE ( 'NONE', *, *, #11, .T. ) ;
#154 = EDGE_LOOP ( 'NONE', ( #163, #160, #165, #161 ) ) ;
#155 = VECTOR ( 'NONE', #56, 1000.000000000000000 ) ;
#156 = EDGE_LOOP ( 'NONE', ( #167, #162, #166, #133 ) ) ;
#157 = LINE ( 'NONE', #95, #181 ) ;
#158 = ORIENTED_EDGE ( 'NONE', *, *, #7, .T. ) ;
#159 = VERTEX_POINT ( 'NONE', #80 ) ;
#160 = ORIENTED_EDGE ( 'NONE', *, *, #1, .F. ) ;
#161 = ORIENTED_EDGE ( 'NONE', *, *, #12, .F. ) ;
#162 = ORIENTED_EDGE ( 'NONE', *, *, #10, .F. ) ;
#163 = ORIENTED_EDGE ( 'NONE', *, *, #5, .F. ) ;
#164 = ORIENTED_EDGE ( 'NONE', *, *, #3, .F. ) ;
#165 = ORIENTED_EDGE ( 'NONE', *, *, #6, .T. ) ;
#166 = ORIENTED_EDGE ( 'NONE', *, *, #9, .T. ) ;
#167 = ORIENTED_EDGE ( 'NONE', *, *, #8, .F. ) ;
#168 = VERTEX_POINT ( 'NONE', #84 ) ;
#169 = ORIENTED_EDGE ( 'NONE', *, *, #3, .T. ) ;
#170 = ORIENTED_EDGE ( 'NONE', *, *, #9, .F. ) ;
#171 = VERTEX_POINT ( 'NONE', #83 ) ;
#172 = CIRCLE ( 'NONE', #201, 12.69999999999999900 ) ;
#173 = LINE ( 'NONE', #54, #155 ) ;
#174 = VERTEX_POINT ( 'NONE', #79 ) ;
#175 = ORIENTED_EDGE ( 'NONE', *, *, #7, .F. ) ;
#176 = VERTEX_POINT ( 'NONE', #82 ) ;
#177 = CIRCLE ( 'NONE', #194, 14.50000000000000000 ) ;
#178 = CIRCLE ( 'NONE', #196, 14.50000000000000000 ) ;
#179 = VERTEX_POINT ( 'NONE', #72 ) ;
#180 = VERTEX_POINT ( 'NONE', #74 ) ;
#181 = VECTOR ( 'NONE', #46, 1000.000000000000000 ) ;
#182 = AXIS2_PLACEMENT_3D ( 'NONE', #90, #65, #73 ) ;
#183 = AXIS2_PLACEMENT_3D ( 'NONE', #78, #75, #76 ) ;
#184 = AXIS2_PLACEMENT_3D ( 'NONE', #19, #20, #23 ) ;
#185 = PRODUCT_RELATED_PRODUCT_CATEGORY ( 'part', '', ( #214 ) ) ;
#186 =( GEOMETRIC_REPRESENTATION_CONTEXT ( 3 ) GLOBAL_UNCERTAINTY_ASSIGNED_CONTEXT ( ( #210 ) ) GLOBAL_UNIT_ASSIGNED_CONTEXT ( ( #24, #30, #42 ) ) REPRESENTATION_CONTEXT ( 'NONE', 'WORKASPACE' ) );
#187 =( GEOMETRIC_REPRESENTATION_CONTEXT ( 3 ) GLOBAL_UNCERTAINTY_ASSIGNED_CONTEXT ( ( #212 ) ) GLOBAL_UNIT_ASSIGNED_CONTEXT ( ( #38, #35, #36 ) ) REPRESENTATION_CONTEXT ( 'NONE', 'WORKASPACE' ) );
#188 = MECHANICAL_DESIGN_GEOMETRIC_PRESENTATION_REPRESENTATION (  '', ( #198 ), #187 ) ;
#189 =( GEOMETRIC_REPRESENTATION_CONTEXT ( 3 ) GLOBAL_UNCERTAINTY_ASSIGNED_CONTEXT ( ( #209 ) ) GLOBAL_UNIT_ASSIGNED_CONTEXT ( ( #97, #45, #37 ) ) REPRESENTATION_CONTEXT ( 'NONE', 'WORKASPACE' ) );
#190 = AXIS2_PLACEMENT_3D ( 'NONE', #87, #18, #94 ) ;
#191 = MECHANICAL_DESIGN_GEOMETRIC_PRESENTATION_REPRESENTATION (  '', ( #206 ), #186 ) ;
#192 = AXIS2_PLACEMENT_3D ( 'NONE', #77, #16, #47 ) ;
#193 = AXIS2_PLACEMENT_3D ( 'NONE', #69, #17, #64 ) ;
#194 = AXIS2_PLACEMENT_3D ( 'NONE', #62, #63, #61 ) ;
#195 = AXIS2_PLACEMENT_3D ( 'NONE', #60, #59, #58 ) ;
#196 = AXIS2_PLACEMENT_3D ( 'NONE', #57, #55, #53 ) ;
#197 = PRODUCT_DEFINITION ( 'NON CONOSCIUTO', '', #208, #13 ) ;
#198 = STYLED_ITEM ( 'NONE', ( #132 ), #211 ) ;
#199 = PRESENTATION_LAYER_ASSIGNMENT (  '', '', ( #206 ) ) ;
#200 = AXIS2_PLACEMENT_3D ( 'NONE', #96, #70, #67 ) ;
#201 = AXIS2_PLACEMENT_3D ( 'NONE', #51, #50, #49 ) ;
#202 = AXIS2_PLACEMENT_3D ( 'NONE', #25, #34, #31 ) ;
#203 = PRESENTATION_LAYER_ASSIGNMENT (  '', '', ( #198 ) ) ;
#204 = AXIS2_PLACEMENT_3D ( 'NONE', #32, #22, #91 ) ;
#205 = AXIS2_PLACEMENT_3D ( 'NONE', #93, #66, #33 ) ;
#206 = STYLED_ITEM ( 'NONE', ( #131 ), #213 ) ;
#207 = AXIS2_PLACEMENT_3D ( 'NONE', #88, #89, #85 ) ;
#208 = PRODUCT_DEFINITION_FORMATION_WITH_SPECIFIED_SOURCE ( 'TUTTO', '', #214, .NOT_KNOWN. ) ;
#209 = UNCERTAINTY_MEASURE_WITH_UNIT (LENGTH_MEASURE( 1.000000000000000100E-005 ), #97, 'distance_accuracy_value', 'NONE');
#210 = UNCERTAINTY_MEASURE_WITH_UNIT (LENGTH_MEASURE( 1.000000000000000100E-005 ), #24, 'distance_accuracy_value', 'NONE');
#211 = ADVANCED_BREP_SHAPE_REPRESENTATION ( '0605300250300A', ( #213, #202 ), #189 ) ;
#212 = UNCERTAINTY_MEASURE_WITH_UNIT (LENGTH_MEASURE( 1.000000000000000100E-005 ), #38, 'distance_accuracy_value', 'NONE');
#213 = MANIFOLD_SOLID_BREP ( 'Importato1', #145 ) ;
#214 = PRODUCT ( '0605300250300A', '0605300250300A', '', ( #28 ) ) ;
ENDSEC;
END-ISO-10303-21;
