ISO-10303-21;
HEADER;
FILE_DESCRIPTION (( 'STEP AP214' ),
    '1' );
FILE_NAME ('0605300250400A.STEP',
    '2012-10-22T14:46:51',
    ( '' ),
    ( '' ),
    'SwSTEP 2.0',
    'SolidWorks 2012',
    '' );
FILE_SCHEMA (( 'AUTOMOTIVE_DESIGN' ));
ENDSEC;

DATA;
#1 = SURFACE_STYLE_FILL_AREA ( #81 ) ;
#2 = COLOUR_RGB ( '',0.0000000000000000000, 0.0000000000000000000, 0.0000000000000000000 ) ;
#3 = SHAPE_DEFINITION_REPRESENTATION ( #11, #209 ) ;
#4 = PRESENTATION_STYLE_ASSIGNMENT (( #89 ) ) ;
#5 = ADVANCED_FACE ( 'NONE', ( #166 ), #162, .T. ) ;
#6 = ADVANCED_FACE ( 'NONE', ( #165 ), #160, .T. ) ;
#7 = ADVANCED_FACE ( 'NONE', ( #163, #159 ), #24, .T. ) ;
#8 = ADVANCED_FACE ( 'NONE', ( #208 ), #156, .F. ) ;
#9 = ADVANCED_FACE ( 'NONE', ( #164, #155 ), #20, .T. ) ;
#10 = ADVANCED_FACE ( 'NONE', ( #158 ), #152, .F. ) ;
#11 = PRODUCT_DEFINITION_SHAPE ( 'NONE', 'NONE',  #105 ) ;
#12 = PRODUCT_DEFINITION_CONTEXT ( 'detailed design', #70, 'design' ) ;
#13 = DIRECTION ( 'NONE',  ( 0.0000000000000000000, -1.000000000000000000, 0.0000000000000000000 ) ) ;
#14 = DIRECTION ( 'NONE',  ( 0.0000000000000000000, -1.000000000000000000, 0.0000000000000000000 ) ) ;
#15 = DIRECTION ( 'NONE',  ( 0.0000000000000000000, 0.0000000000000000000, -1.000000000000000000 ) ) ;
#16 = DIRECTION ( 'NONE',  ( 0.0000000000000000000, 0.0000000000000000000, -1.000000000000000000 ) ) ;
#17 = CARTESIAN_POINT ( 'NONE',  ( 0.0000000000000000000, 1.500000000000000000, 0.0000000000000000000 ) ) ;
#18 = DIRECTION ( 'NONE',  ( 0.0000000000000000000, -1.000000000000000000, 0.0000000000000000000 ) ) ;
#19 = CARTESIAN_POINT ( 'NONE',  ( -16.95100000000000100, 0.0000000000000000000, 16.95100000000000100 ) ) ;
#20 = PLANE ( 'NONE',  #111 ) ;
#21 = DIRECTION ( 'NONE',  ( 0.0000000000000000000, -1.000000000000000000, 0.0000000000000000000 ) ) ;
#22 = CARTESIAN_POINT ( 'NONE',  ( 0.0000000000000000000, 1.500000000000000000, 0.0000000000000000000 ) ) ;
#23 = DIRECTION ( 'NONE',  ( 0.0000000000000000000, 0.0000000000000000000, -1.000000000000000000 ) ) ;
#24 = PLANE ( 'NONE',  #113 ) ;
#25 = DIRECTION ( 'NONE',  ( 0.0000000000000000000, 0.0000000000000000000, 1.000000000000000000 ) ) ;
#26 = CARTESIAN_POINT ( 'NONE',  ( -16.95100000000000100, 1.500000000000000000, -16.95100000000000100 ) ) ;
#27 = DIRECTION ( 'NONE',  ( 0.0000000000000000000, -1.000000000000000000, 0.0000000000000000000 ) ) ;
#28 = DIRECTION ( 'NONE',  ( 0.0000000000000000000, 0.0000000000000000000, -1.000000000000000000 ) ) ;
#29 = CARTESIAN_POINT ( 'NONE',  ( 0.0000000000000000000, 1.500000000000000000, 0.0000000000000000000 ) ) ;
#30 = DIRECTION ( 'NONE',  ( 0.0000000000000000000, 0.0000000000000000000, -1.000000000000000000 ) ) ;
#31 = CARTESIAN_POINT ( 'NONE',  ( 1.714505518806294600E-015, 1.500000000000000000, 14.00000000000000000 ) ) ;
#32 = FILL_AREA_STYLE ('',( #96 ) ) ;
#33 = CARTESIAN_POINT ( 'NONE',  ( 0.0000000000000000000, 1.500000000000000000, 0.0000000000000000000 ) ) ;
#34 = DIRECTION ( 'NONE',  ( 0.0000000000000000000, -1.000000000000000000, 0.0000000000000000000 ) ) ;
#35 =( LENGTH_UNIT ( ) NAMED_UNIT ( * ) SI_UNIT ( .MILLI., .METRE. ) );
#36 = CARTESIAN_POINT ( 'NONE',  ( 0.0000000000000000000, 1.500000000000000000, 0.0000000000000000000 ) ) ;
#37 = DIRECTION ( 'NONE',  ( -0.0000000000000000000, 1.000000000000000000, -0.0000000000000000000 ) ) ;
#38 = CARTESIAN_POINT ( 'NONE',  ( 0.0000000000000000000, 1.500000000000000000, 0.0000000000000000000 ) ) ;
#39 = DIRECTION ( 'NONE',  ( 0.0000000000000000000, 0.0000000000000000000, -1.000000000000000000 ) ) ;
#40 = DIRECTION ( 'NONE',  ( -0.0000000000000000000, 1.000000000000000000, -0.0000000000000000000 ) ) ;
#41 = CARTESIAN_POINT ( 'NONE',  ( 0.0000000000000000000, 1.500000000000000000, -14.00000000000000000 ) ) ;
#42 = SURFACE_SIDE_STYLE ('',( #138 ) ) ;
#43 = FILL_AREA_STYLE_COLOUR ( '', #2 ) ;
#44 = CARTESIAN_POINT ( 'NONE',  ( 1.714505518806294600E-015, 0.0000000000000000000, 14.00000000000000000 ) ) ;
#45 = CARTESIAN_POINT ( 'NONE',  ( 1.714505518806294600E-015, 1.500000000000000000, 14.00000000000000000 ) ) ;
#46 = CARTESIAN_POINT ( 'NONE',  ( 0.0000000000000000000, 0.0000000000000000000, -14.00000000000000000 ) ) ;
#47 = CARTESIAN_POINT ( 'NONE',  ( 0.0000000000000000000, 0.0000000000000000000, -16.75000000000000000 ) ) ;
#48 = CARTESIAN_POINT ( 'NONE',  ( 2.051283388571816900E-015, 1.500000000000000000, 16.75000000000000000 ) ) ;
#49 = DIRECTION ( 'NONE',  ( 0.0000000000000000000, 0.0000000000000000000, -1.000000000000000000 ) ) ;
#50 = DIRECTION ( 'NONE',  ( 0.0000000000000000000, -1.000000000000000000, 0.0000000000000000000 ) ) ;
#51 = CARTESIAN_POINT ( 'NONE',  ( 0.0000000000000000000, 0.0000000000000000000, 0.0000000000000000000 ) ) ;
#52 = DIRECTION ( 'NONE',  ( 0.0000000000000000000, -1.000000000000000000, 0.0000000000000000000 ) ) ;
#53 = DIRECTION ( 'NONE',  ( 0.0000000000000000000, -1.000000000000000000, 0.0000000000000000000 ) ) ;
#54 = CARTESIAN_POINT ( 'NONE',  ( 0.0000000000000000000, 0.0000000000000000000, 0.0000000000000000000 ) ) ;
#55 = CARTESIAN_POINT ( 'NONE',  ( 0.0000000000000000000, 1.500000000000000000, -16.75000000000000000 ) ) ;
#56 = DIRECTION ( 'NONE',  ( 0.0000000000000000000, -1.000000000000000000, 0.0000000000000000000 ) ) ;
#57 = CARTESIAN_POINT ( 'NONE',  ( 0.0000000000000000000, 1.500000000000000000, 0.0000000000000000000 ) ) ;
#58 = DIRECTION ( 'NONE',  ( 0.0000000000000000000, -1.000000000000000000, 0.0000000000000000000 ) ) ;
#59 = DIRECTION ( 'NONE',  ( -0.0000000000000000000, 1.000000000000000000, -0.0000000000000000000 ) ) ;
#60 = DIRECTION ( 'NONE',  ( 1.000000000000000000, 0.0000000000000000000, 0.0000000000000000000 ) ) ;
#61 = DIRECTION ( 'NONE',  ( 0.0000000000000000000, 0.0000000000000000000, -1.000000000000000000 ) ) ;
#62 = DIRECTION ( 'NONE',  ( 0.0000000000000000000, 0.0000000000000000000, -1.000000000000000000 ) ) ;
#63 = CARTESIAN_POINT ( 'NONE',  ( 0.0000000000000000000, 1.500000000000000000, 0.0000000000000000000 ) ) ;
#64 = DIRECTION ( 'NONE',  ( 0.0000000000000000000, 0.0000000000000000000, -1.000000000000000000 ) ) ;
#65 = CARTESIAN_POINT ( 'NONE',  ( 0.0000000000000000000, 1.500000000000000000, -14.00000000000000000 ) ) ;
#66 = DIRECTION ( 'NONE',  ( 0.0000000000000000000, 0.0000000000000000000, -1.000000000000000000 ) ) ;
#67 = CARTESIAN_POINT ( 'NONE',  ( 0.0000000000000000000, 1.500000000000000000, -16.75000000000000000 ) ) ;
#68 = DIRECTION ( 'NONE',  ( 0.0000000000000000000, 1.000000000000000000, 0.0000000000000000000 ) ) ;
#69 =( NAMED_UNIT ( * ) SI_UNIT ( $, .STERADIAN. ) SOLID_ANGLE_UNIT ( ) );
#70 = APPLICATION_CONTEXT ( 'automotive_design' ) ;
#71 = CARTESIAN_POINT ( 'NONE',  ( 0.0000000000000000000, 0.0000000000000000000, 0.0000000000000000000 ) ) ;
#72 =( NAMED_UNIT ( * ) SI_UNIT ( $, .STERADIAN. ) SOLID_ANGLE_UNIT ( ) );
#73 = APPLICATION_PROTOCOL_DEFINITION ( 'draft international standard', 'automotive_design', 1998, #70 ) ;
#74 = PRODUCT_CONTEXT ( 'NONE', #86, 'mechanical' ) ;
#75 = APPLICATION_PROTOCOL_DEFINITION ( 'draft international standard', 'automotive_design', 1998, #86 ) ;
#76 =( LENGTH_UNIT ( ) NAMED_UNIT ( * ) SI_UNIT ( .MILLI., .METRE. ) );
#77 = DIRECTION ( 'NONE',  ( 0.0000000000000000000, 0.0000000000000000000, 1.000000000000000000 ) ) ;
#78 = CARTESIAN_POINT ( 'NONE',  ( 0.0000000000000000000, 0.0000000000000000000, 0.0000000000000000000 ) ) ;
#79 =( NAMED_UNIT ( * ) SI_UNIT ( $, .STERADIAN. ) SOLID_ANGLE_UNIT ( ) );
#80 =( NAMED_UNIT ( * ) PLANE_ANGLE_UNIT ( ) SI_UNIT ( $, .RADIAN. ) );
#81 = FILL_AREA_STYLE ('',( #43 ) ) ;
#82 =( LENGTH_UNIT ( ) NAMED_UNIT ( * ) SI_UNIT ( .MILLI., .METRE. ) );
#83 = DIRECTION ( 'NONE',  ( 0.0000000000000000000, -1.000000000000000000, 0.0000000000000000000 ) ) ;
#84 = DIRECTION ( 'NONE',  ( 0.0000000000000000000, 0.0000000000000000000, -1.000000000000000000 ) ) ;
#85 = SURFACE_SIDE_STYLE ('',( #1 ) ) ;
#86 = APPLICATION_CONTEXT ( 'automotive_design' ) ;
#87 =( NAMED_UNIT ( * ) PLANE_ANGLE_UNIT ( ) SI_UNIT ( $, .RADIAN. ) );
#88 =( NAMED_UNIT ( * ) PLANE_ANGLE_UNIT ( ) SI_UNIT ( $, .RADIAN. ) );
#89 = SURFACE_STYLE_USAGE ( .BOTH. , #85 ) ;
#90 = CARTESIAN_POINT ( 'NONE',  ( 2.051283388571816900E-015, 0.0000000000000000000, 16.75000000000000000 ) ) ;
#91 = DIRECTION ( 'NONE',  ( 0.0000000000000000000, -1.000000000000000000, 0.0000000000000000000 ) ) ;
#92 = CARTESIAN_POINT ( 'NONE',  ( 2.051283388571816900E-015, 1.500000000000000000, 16.75000000000000000 ) ) ;
#93 = SURFACE_STYLE_USAGE ( .BOTH. , #42 ) ;
#94 = DIRECTION ( 'NONE',  ( -0.0000000000000000000, 1.000000000000000000, -0.0000000000000000000 ) ) ;
#95 = DIRECTION ( 'NONE',  ( 0.0000000000000000000, 0.0000000000000000000, -1.000000000000000000 ) ) ;
#96 = FILL_AREA_STYLE_COLOUR ( '', #137 ) ;
#97 = CARTESIAN_POINT ( 'NONE',  ( 0.0000000000000000000, 0.0000000000000000000, 0.0000000000000000000 ) ) ;
#98 = EDGE_CURVE ( 'NONE', #170, #174, #153, .T. ) ;
#99 = EDGE_CURVE ( 'NONE', #174, #167, #161, .T. ) ;
#100 = EDGE_CURVE ( 'NONE', #167, #172, #154, .T. ) ;
#101 = AXIS2_PLACEMENT_3D ( 'NONE', #71, #77, #60 ) ;
#102 =( GEOMETRIC_REPRESENTATION_CONTEXT ( 3 ) GLOBAL_UNCERTAINTY_ASSIGNED_CONTEXT ( ( #213 ) ) GLOBAL_UNIT_ASSIGNED_CONTEXT ( ( #82, #80, #79 ) ) REPRESENTATION_CONTEXT ( 'NONE', 'WORKASPACE' ) );
#103 = MECHANICAL_DESIGN_GEOMETRIC_PRESENTATION_REPRESENTATION (  '', ( #126 ), #102 ) ;
#104 = PRODUCT_DEFINITION_FORMATION_WITH_SPECIFIED_SOURCE ( 'TUTTO', '', #214, .NOT_KNOWN. ) ;
#105 = PRODUCT_DEFINITION ( 'NON CONOSCIUTO', '', #104, #12 ) ;
#106 = PRODUCT_RELATED_PRODUCT_CATEGORY ( 'part', '', ( #214 ) ) ;
#107 = AXIS2_PLACEMENT_3D ( 'NONE', #17, #18, #16 ) ;
#108 = AXIS2_PLACEMENT_3D ( 'NONE', #97, #94, #95 ) ;
#109 = AXIS2_PLACEMENT_3D ( 'NONE', #63, #59, #62 ) ;
#110 = AXIS2_PLACEMENT_3D ( 'NONE', #22, #27, #23 ) ;
#111 = AXIS2_PLACEMENT_3D ( 'NONE', #19, #21, #15 ) ;
#112 = AXIS2_PLACEMENT_3D ( 'NONE', #33, #56, #30 ) ;
#113 = AXIS2_PLACEMENT_3D ( 'NONE', #26, #68, #25 ) ;
#114 = AXIS2_PLACEMENT_3D ( 'NONE', #29, #13, #28 ) ;
#115 = AXIS2_PLACEMENT_3D ( 'NONE', #78, #91, #84 ) ;
#116 = EDGE_CURVE ( 'NONE', #173, #169, #157, .T. ) ;
#117 = EDGE_CURVE ( 'NONE', #171, #168, #150, .T. ) ;
#118 = EDGE_CURVE ( 'NONE', #168, #169, #149, .T. ) ;
#119 = EDGE_CURVE ( 'NONE', #174, #170, #147, .T. ) ;
#120 = EDGE_CURVE ( 'NONE', #172, #167, #144, .T. ) ;
#121 = EDGE_CURVE ( 'NONE', #171, #173, #143, .T. ) ;
#122 = AXIS2_PLACEMENT_3D ( 'NONE', #38, #40, #61 ) ;
#123 = EDGE_CURVE ( 'NONE', #169, #168, #145, .T. ) ;
#124 = EDGE_CURVE ( 'NONE', #173, #171, #142, .T. ) ;
#125 = EDGE_CURVE ( 'NONE', #170, #172, #141, .T. ) ;
#126 = STYLED_ITEM ( 'NONE', ( #4 ), #209 ) ;
#127 = AXIS2_PLACEMENT_3D ( 'NONE', #36, #53, #39 ) ;
#128 = AXIS2_PLACEMENT_3D ( 'NONE', #54, #58, #64 ) ;
#129 = AXIS2_PLACEMENT_3D ( 'NONE', #57, #50, #49 ) ;
#130 = STYLED_ITEM ( 'NONE', ( #139 ), #211 ) ;
#131 = PRESENTATION_LAYER_ASSIGNMENT (  '', '', ( #130 ) ) ;
#132 = AXIS2_PLACEMENT_3D ( 'NONE', #51, #37, #66 ) ;
#133 =( GEOMETRIC_REPRESENTATION_CONTEXT ( 3 ) GLOBAL_UNCERTAINTY_ASSIGNED_CONTEXT ( ( #210 ) ) GLOBAL_UNIT_ASSIGNED_CONTEXT ( ( #76, #87, #69 ) ) REPRESENTATION_CONTEXT ( 'NONE', 'WORKASPACE' ) );
#134 = MECHANICAL_DESIGN_GEOMETRIC_PRESENTATION_REPRESENTATION (  '', ( #130 ), #133 ) ;
#135 =( GEOMETRIC_REPRESENTATION_CONTEXT ( 3 ) GLOBAL_UNCERTAINTY_ASSIGNED_CONTEXT ( ( #212 ) ) GLOBAL_UNIT_ASSIGNED_CONTEXT ( ( #35, #88, #72 ) ) REPRESENTATION_CONTEXT ( 'NONE', 'WORKASPACE' ) );
#136 = PRESENTATION_LAYER_ASSIGNMENT (  '', '', ( #126 ) ) ;
#137 = COLOUR_RGB ( '',0.0000000000000000000, 0.0000000000000000000, 0.0000000000000000000 ) ;
#138 = SURFACE_STYLE_FILL_AREA ( #32 ) ;
#139 = PRESENTATION_STYLE_ASSIGNMENT (( #93 ) ) ;
#140 = VECTOR ( 'NONE', #52, 1000.000000000000000 ) ;
#141 = LINE ( 'NONE', #92, #140 ) ;
#142 = CIRCLE ( 'NONE', #129, 14.00000000000000000 ) ;
#143 = CIRCLE ( 'NONE', #127, 14.00000000000000000 ) ;
#144 = CIRCLE ( 'NONE', #128, 16.75000000000000000 ) ;
#145 = CIRCLE ( 'NONE', #132, 14.00000000000000000 ) ;
#146 = VECTOR ( 'NONE', #83, 1000.000000000000000 ) ;
#147 = CIRCLE ( 'NONE', #122, 16.75000000000000000 ) ;
#148 = VECTOR ( 'NONE', #34, 1000.000000000000000 ) ;
#149 = CIRCLE ( 'NONE', #108, 14.00000000000000000 ) ;
#150 = LINE ( 'NONE', #65, #146 ) ;
#151 = VECTOR ( 'NONE', #14, 1000.000000000000000 ) ;
#152 = CYLINDRICAL_SURFACE ( 'NONE', #107, 14.00000000000000000 ) ;
#153 = CIRCLE ( 'NONE', #109, 16.75000000000000000 ) ;
#154 = CIRCLE ( 'NONE', #115, 16.75000000000000000 ) ;
#155 = FACE_OUTER_BOUND ( 'NONE', #177, .T. ) ;
#156 = CYLINDRICAL_SURFACE ( 'NONE', #110, 14.00000000000000000 ) ;
#157 = LINE ( 'NONE', #31, #148 ) ;
#158 = FACE_OUTER_BOUND ( 'NONE', #179, .T. ) ;
#159 = FACE_OUTER_BOUND ( 'NONE', #176, .T. ) ;
#160 = CYLINDRICAL_SURFACE ( 'NONE', #112, 16.75000000000000000 ) ;
#161 = LINE ( 'NONE', #55, #151 ) ;
#162 = CYLINDRICAL_SURFACE ( 'NONE', #114, 16.75000000000000000 ) ;
#163 = FACE_BOUND ( 'NONE', #175, .T. ) ;
#164 = FACE_BOUND ( 'NONE', #180, .T. ) ;
#165 = FACE_OUTER_BOUND ( 'NONE', #182, .T. ) ;
#166 = FACE_OUTER_BOUND ( 'NONE', #184, .T. ) ;
#167 = VERTEX_POINT ( 'NONE', #47 ) ;
#168 = VERTEX_POINT ( 'NONE', #46 ) ;
#169 = VERTEX_POINT ( 'NONE', #44 ) ;
#170 = VERTEX_POINT ( 'NONE', #48 ) ;
#171 = VERTEX_POINT ( 'NONE', #41 ) ;
#172 = VERTEX_POINT ( 'NONE', #90 ) ;
#173 = VERTEX_POINT ( 'NONE', #45 ) ;
#174 = VERTEX_POINT ( 'NONE', #67 ) ;
#175 = EDGE_LOOP ( 'NONE', ( #204, #207 ) ) ;
#176 = EDGE_LOOP ( 'NONE', ( #205, #206 ) ) ;
#177 = EDGE_LOOP ( 'NONE', ( #200, #201 ) ) ;
#178 = EDGE_LOOP ( 'NONE', ( #197, #192, #191, #196 ) ) ;
#179 = EDGE_LOOP ( 'NONE', ( #189, #188, #199, #183 ) ) ;
#180 = EDGE_LOOP ( 'NONE', ( #198, #193 ) ) ;
#181 = ORIENTED_EDGE ( 'NONE', *, *, #120, .F. ) ;
#182 = EDGE_LOOP ( 'NONE', ( #186, #185, #187, #190 ) ) ;
#183 = ORIENTED_EDGE ( 'NONE', *, *, #117, .F. ) ;
#184 = EDGE_LOOP ( 'NONE', ( #194, #195, #203, #181 ) ) ;
#185 = ORIENTED_EDGE ( 'NONE', *, *, #125, .T. ) ;
#186 = ORIENTED_EDGE ( 'NONE', *, *, #98, .F. ) ;
#187 = ORIENTED_EDGE ( 'NONE', *, *, #100, .F. ) ;
#188 = ORIENTED_EDGE ( 'NONE', *, *, #116, .T. ) ;
#189 = ORIENTED_EDGE ( 'NONE', *, *, #124, .F. ) ;
#190 = ORIENTED_EDGE ( 'NONE', *, *, #99, .F. ) ;
#191 = ORIENTED_EDGE ( 'NONE', *, *, #117, .T. ) ;
#192 = ORIENTED_EDGE ( 'NONE', *, *, #121, .F. ) ;
#193 = ORIENTED_EDGE ( 'NONE', *, *, #123, .T. ) ;
#194 = ORIENTED_EDGE ( 'NONE', *, *, #125, .F. ) ;
#195 = ORIENTED_EDGE ( 'NONE', *, *, #119, .F. ) ;
#196 = ORIENTED_EDGE ( 'NONE', *, *, #123, .F. ) ;
#197 = ORIENTED_EDGE ( 'NONE', *, *, #116, .F. ) ;
#198 = ORIENTED_EDGE ( 'NONE', *, *, #118, .T. ) ;
#199 = ORIENTED_EDGE ( 'NONE', *, *, #118, .F. ) ;
#200 = ORIENTED_EDGE ( 'NONE', *, *, #100, .T. ) ;
#201 = ORIENTED_EDGE ( 'NONE', *, *, #120, .T. ) ;
#202 = CLOSED_SHELL ( 'NONE', ( #6, #10, #5, #7, #9, #8 ) ) ;
#203 = ORIENTED_EDGE ( 'NONE', *, *, #99, .T. ) ;
#204 = ORIENTED_EDGE ( 'NONE', *, *, #121, .T. ) ;
#205 = ORIENTED_EDGE ( 'NONE', *, *, #119, .T. ) ;
#206 = ORIENTED_EDGE ( 'NONE', *, *, #98, .T. ) ;
#207 = ORIENTED_EDGE ( 'NONE', *, *, #124, .T. ) ;
#208 = FACE_OUTER_BOUND ( 'NONE', #178, .T. ) ;
#209 = ADVANCED_BREP_SHAPE_REPRESENTATION ( '0605300250400A', ( #211, #101 ), #135 ) ;
#210 = UNCERTAINTY_MEASURE_WITH_UNIT (LENGTH_MEASURE( 1.000000000000000100E-005 ), #76, 'distance_accuracy_value', 'NONE');
#211 = MANIFOLD_SOLID_BREP ( 'Importato1', #202 ) ;
#212 = UNCERTAINTY_MEASURE_WITH_UNIT (LENGTH_MEASURE( 1.000000000000000100E-005 ), #35, 'distance_accuracy_value', 'NONE');
#213 = UNCERTAINTY_MEASURE_WITH_UNIT (LENGTH_MEASURE( 1.000000000000000100E-005 ), #82, 'distance_accuracy_value', 'NONE');
#214 = PRODUCT ( '0605300250400A', '0605300250400A', '', ( #74 ) ) ;
ENDSEC;
END-ISO-10303-21;
