ISO-10303-21;
HEADER;
FILE_DESCRIPTION (( 'STEP AP214' ),
    '1' );
FILE_NAME ('0605300250500A.STEP',
    '2012-10-22T14:46:41',
    ( '' ),
    ( '' ),
    'SwSTEP 2.0',
    'SolidWorks 2012',
    '' );
FILE_SCHEMA (( 'AUTOMOTIVE_DESIGN' ));
ENDSEC;

DATA;
#1 = CIRCLE ( 'NONE', #198, 19.40000000000000200 ) ;
#2 = CYLINDRICAL_SURFACE ( 'NONE', #199, 19.40000000000000200 ) ;
#3 = ORIENTED_EDGE ( 'NONE', *, *, #86, .F. ) ;
#4 = ORIENTED_EDGE ( 'NONE', *, *, #83, .T. ) ;
#5 = CIRCLE ( 'NONE', #181, 19.40000000000000200 ) ;
#6 = ORIENTED_EDGE ( 'NONE', *, *, #84, .F. ) ;
#7 = SURFACE_STYLE_FILL_AREA ( #145 ) ;
#8 = ORIENTED_EDGE ( 'NONE', *, *, #93, .T. ) ;
#9 = COLOUR_RGB ( '',0.0000000000000000000, 0.0000000000000000000, 0.0000000000000000000 ) ;
#10 = VERTEX_POINT ( 'NONE', #130 ) ;
#11 = CYLINDRICAL_SURFACE ( 'NONE', #183, 17.25000000000000000 ) ;
#12 = ORIENTED_EDGE ( 'NONE', *, *, #91, .T. ) ;
#13 = ORIENTED_EDGE ( 'NONE', *, *, #206, .T. ) ;
#14 = ORIENTED_EDGE ( 'NONE', *, *, #87, .T. ) ;
#15 = LINE ( 'NONE', #109, #62 ) ;
#16 = CIRCLE ( 'NONE', #192, 17.25000000000000000 ) ;
#17 = FACE_OUTER_BOUND ( 'NONE', #69, .T. ) ;
#18 = SHAPE_DEFINITION_REPRESENTATION ( #94, #212 ) ;
#19 = VERTEX_POINT ( 'NONE', #142 ) ;
#20 = CIRCLE ( 'NONE', #194, 19.40000000000000200 ) ;
#21 = VERTEX_POINT ( 'NONE', #138 ) ;
#22 = FACE_OUTER_BOUND ( 'NONE', #56, .T. ) ;
#23 = ORIENTED_EDGE ( 'NONE', *, *, #87, .F. ) ;
#24 = VECTOR ( 'NONE', #154, 1000.000000000000000 ) ;
#25 = FACE_OUTER_BOUND ( 'NONE', #66, .T. ) ;
#26 = ORIENTED_EDGE ( 'NONE', *, *, #88, .F. ) ;
#27 = VERTEX_POINT ( 'NONE', #135 ) ;
#28 = LINE ( 'NONE', #150, #45 ) ;
#29 = EDGE_LOOP ( 'NONE', ( #39, #53, #23, #26 ) ) ;
#30 = EDGE_LOOP ( 'NONE', ( #12, #59 ) ) ;
#31 = ORIENTED_EDGE ( 'NONE', *, *, #92, .F. ) ;
#32 = ORIENTED_EDGE ( 'NONE', *, *, #83, .F. ) ;
#33 = ORIENTED_EDGE ( 'NONE', *, *, #90, .F. ) ;
#34 = ORIENTED_EDGE ( 'NONE', *, *, #88, .T. ) ;
#35 = ORIENTED_EDGE ( 'NONE', *, *, #92, .T. ) ;
#36 = FACE_OUTER_BOUND ( 'NONE', #29, .T. ) ;
#37 = ORIENTED_EDGE ( 'NONE', *, *, #86, .T. ) ;
#38 = ORIENTED_EDGE ( 'NONE', *, *, #89, .T. ) ;
#39 = ORIENTED_EDGE ( 'NONE', *, *, #89, .F. ) ;
#40 = ORIENTED_EDGE ( 'NONE', *, *, #84, .T. ) ;
#41 = CIRCLE ( 'NONE', #197, 17.25000000000000000 ) ;
#42 = VERTEX_POINT ( 'NONE', #137 ) ;
#43 = COLOUR_RGB ( '',0.0000000000000000000, 0.0000000000000000000, 0.0000000000000000000 ) ;
#44 = CIRCLE ( 'NONE', #207, 19.40000000000000200 ) ;
#45 = VECTOR ( 'NONE', #151, 1000.000000000000000 ) ;
#46 = CYLINDRICAL_SURFACE ( 'NONE', #208, 19.40000000000000200 ) ;
#47 = EDGE_LOOP ( 'NONE', ( #35, #38 ) ) ;
#48 = ORIENTED_EDGE ( 'NONE', *, *, #91, .F. ) ;
#49 = VECTOR ( 'NONE', #129, 1000.000000000000000 ) ;
#50 = CLOSED_SHELL ( 'NONE', ( #77, #79, #81, #78, #80, #82 ) ) ;
#51 = EDGE_LOOP ( 'NONE', ( #13, #37 ) ) ;
#52 = LINE ( 'NONE', #106, #24 ) ;
#53 = ORIENTED_EDGE ( 'NONE', *, *, #90, .T. ) ;
#54 = ORIENTED_EDGE ( 'NONE', *, *, #93, .F. ) ;
#55 = FACE_OUTER_BOUND ( 'NONE', #47, .T. ) ;
#56 = EDGE_LOOP ( 'NONE', ( #14, #4 ) ) ;
#57 = CYLINDRICAL_SURFACE ( 'NONE', #202, 17.25000000000000000 ) ;
#58 = LINE ( 'NONE', #166, #49 ) ;
#59 = ORIENTED_EDGE ( 'NONE', *, *, #85, .T. ) ;
#60 = CIRCLE ( 'NONE', #182, 17.25000000000000000 ) ;
#61 = ORIENTED_EDGE ( 'NONE', *, *, #206, .F. ) ;
#62 = VECTOR ( 'NONE', #96, 1000.000000000000000 ) ;
#63 = CIRCLE ( 'NONE', #200, 17.25000000000000000 ) ;
#64 = SURFACE_STYLE_FILL_AREA ( #167 ) ;
#65 = ORIENTED_EDGE ( 'NONE', *, *, #85, .F. ) ;
#66 = EDGE_LOOP ( 'NONE', ( #3, #40, #48, #54 ) ) ;
#67 = FACE_BOUND ( 'NONE', #30, .T. ) ;
#68 = VERTEX_POINT ( 'NONE', #140 ) ;
#69 = EDGE_LOOP ( 'NONE', ( #6, #61, #8, #65 ) ) ;
#70 = VERTEX_POINT ( 'NONE', #134 ) ;
#71 = PRESENTATION_STYLE_ASSIGNMENT (( #97 ) ) ;
#72 = FACE_OUTER_BOUND ( 'NONE', #73, .T. ) ;
#73 = EDGE_LOOP ( 'NONE', ( #33, #31, #34, #32 ) ) ;
#74 = VERTEX_POINT ( 'NONE', #133 ) ;
#75 = FACE_BOUND ( 'NONE', #51, .T. ) ;
#76 = PRESENTATION_STYLE_ASSIGNMENT (( #123 ) ) ;
#77 = ADVANCED_FACE ( 'NONE', ( #36 ), #46, .T. ) ;
#78 = ADVANCED_FACE ( 'NONE', ( #75, #55 ), #119, .T. ) ;
#79 = ADVANCED_FACE ( 'NONE', ( #25 ), #57, .F. ) ;
#80 = ADVANCED_FACE ( 'NONE', ( #67, #22 ), #112, .T. ) ;
#81 = ADVANCED_FACE ( 'NONE', ( #72 ), #2, .T. ) ;
#82 = ADVANCED_FACE ( 'NONE', ( #17 ), #11, .F. ) ;
#83 = EDGE_CURVE ( 'NONE', #68, #21, #44, .T. ) ;
#84 = EDGE_CURVE ( 'NONE', #74, #27, #52, .T. ) ;
#85 = EDGE_CURVE ( 'NONE', #27, #10, #63, .T. ) ;
#86 = EDGE_CURVE ( 'NONE', #74, #42, #41, .T. ) ;
#87 = EDGE_CURVE ( 'NONE', #21, #68, #20, .T. ) ;
#88 = EDGE_CURVE ( 'NONE', #70, #21, #15, .T. ) ;
#89 = EDGE_CURVE ( 'NONE', #19, #70, #1, .T. ) ;
#90 = EDGE_CURVE ( 'NONE', #19, #68, #58, .T. ) ;
#91 = EDGE_CURVE ( 'NONE', #10, #27, #60, .T. ) ;
#92 = EDGE_CURVE ( 'NONE', #70, #19, #5, .T. ) ;
#93 = EDGE_CURVE ( 'NONE', #42, #10, #28, .T. ) ;
#94 = PRODUCT_DEFINITION_SHAPE ( 'NONE', 'NONE',  #186 ) ;
#95 = PRODUCT_DEFINITION_CONTEXT ( 'detailed design', #127, 'design' ) ;
#96 = DIRECTION ( 'NONE',  ( 0.0000000000000000000, -1.000000000000000000, 0.0000000000000000000 ) ) ;
#97 = SURFACE_STYLE_USAGE ( .BOTH. , #165 ) ;
#98 = DIRECTION ( 'NONE',  ( 0.0000000000000000000, 1.000000000000000000, 0.0000000000000000000 ) ) ;
#99 = CARTESIAN_POINT ( 'NONE',  ( 0.0000000000000000000, 0.0000000000000000000, 0.0000000000000000000 ) ) ;
#100 = DIRECTION ( 'NONE',  ( 0.0000000000000000000, -1.000000000000000000, 0.0000000000000000000 ) ) ;
#101 = DIRECTION ( 'NONE',  ( -0.0000000000000000000, 1.000000000000000000, -0.0000000000000000000 ) ) ;
#102 = CARTESIAN_POINT ( 'NONE',  ( -19.63280000000000300, 0.0000000000000000000, 19.63280000000000300 ) ) ;
#103 = DIRECTION ( 'NONE',  ( 0.0000000000000000000, 0.0000000000000000000, -1.000000000000000000 ) ) ;
#104 = DIRECTION ( 'NONE',  ( 0.0000000000000000000, -1.000000000000000000, 0.0000000000000000000 ) ) ;
#105 = FILL_AREA_STYLE_COLOUR ( '', #9 ) ;
#106 = CARTESIAN_POINT ( 'NONE',  ( 2.112515728529184500E-015, 1.300000000000000300, 17.25000000000000000 ) ) ;
#107 = DIRECTION ( 'NONE',  ( 0.0000000000000000000, 0.0000000000000000000, -1.000000000000000000 ) ) ;
#108 = DIRECTION ( 'NONE',  ( 0.0000000000000000000, -1.000000000000000000, 0.0000000000000000000 ) ) ;
#109 = CARTESIAN_POINT ( 'NONE',  ( 0.0000000000000000000, 1.300000000000000300, -19.40000000000000200 ) ) ;
#110 = DIRECTION ( 'NONE',  ( 0.0000000000000000000, 0.0000000000000000000, -1.000000000000000000 ) ) ;
#111 = DIRECTION ( 'NONE',  ( 0.0000000000000000000, -1.000000000000000000, 0.0000000000000000000 ) ) ;
#112 = PLANE ( 'NONE',  #201 ) ;
#113 = DIRECTION ( 'NONE',  ( 0.0000000000000000000, 0.0000000000000000000, -1.000000000000000000 ) ) ;
#114 = DIRECTION ( 'NONE',  ( 0.0000000000000000000, -1.000000000000000000, 0.0000000000000000000 ) ) ;
#115 = CARTESIAN_POINT ( 'NONE',  ( 0.0000000000000000000, 1.300000000000000300, 0.0000000000000000000 ) ) ;
#116 = DIRECTION ( 'NONE',  ( 0.0000000000000000000, 0.0000000000000000000, 1.000000000000000000 ) ) ;
#117 = DIRECTION ( 'NONE',  ( 0.0000000000000000000, 0.0000000000000000000, -1.000000000000000000 ) ) ;
#118 = CARTESIAN_POINT ( 'NONE',  ( 0.0000000000000000000, 1.300000000000000300, 0.0000000000000000000 ) ) ;
#119 = PLANE ( 'NONE',  #205 ) ;
#120 = DIRECTION ( 'NONE',  ( 0.0000000000000000000, -1.000000000000000000, 0.0000000000000000000 ) ) ;
#121 = DIRECTION ( 'NONE',  ( 0.0000000000000000000, 0.0000000000000000000, -1.000000000000000000 ) ) ;
#122 =( NAMED_UNIT ( * ) SI_UNIT ( $, .STERADIAN. ) SOLID_ANGLE_UNIT ( ) );
#123 = SURFACE_STYLE_USAGE ( .BOTH. , #146 ) ;
#124 =( NAMED_UNIT ( * ) SI_UNIT ( $, .STERADIAN. ) SOLID_ANGLE_UNIT ( ) );
#125 = DIRECTION ( 'NONE',  ( 1.000000000000000000, 0.0000000000000000000, 0.0000000000000000000 ) ) ;
#126 = DIRECTION ( 'NONE',  ( 0.0000000000000000000, 0.0000000000000000000, 1.000000000000000000 ) ) ;
#127 = APPLICATION_CONTEXT ( 'automotive_design' ) ;
#128 = APPLICATION_PROTOCOL_DEFINITION ( 'draft international standard', 'automotive_design', 1998, #127 ) ;
#129 = DIRECTION ( 'NONE',  ( 0.0000000000000000000, -1.000000000000000000, 0.0000000000000000000 ) ) ;
#130 = CARTESIAN_POINT ( 'NONE',  ( 0.0000000000000000000, 0.0000000000000000000, -17.25000000000000000 ) ) ;
#131 = DIRECTION ( 'NONE',  ( 0.0000000000000000000, 0.0000000000000000000, -1.000000000000000000 ) ) ;
#132 = DIRECTION ( 'NONE',  ( 0.0000000000000000000, -1.000000000000000000, 0.0000000000000000000 ) ) ;
#133 = CARTESIAN_POINT ( 'NONE',  ( 2.112515728529184500E-015, 1.300000000000000300, 17.25000000000000000 ) ) ;
#134 = CARTESIAN_POINT ( 'NONE',  ( 0.0000000000000000000, 1.300000000000000300, -19.40000000000000200 ) ) ;
#135 = CARTESIAN_POINT ( 'NONE',  ( 2.112515728529184500E-015, 0.0000000000000000000, 17.25000000000000000 ) ) ;
#136 = CARTESIAN_POINT ( 'NONE',  ( -19.63280000000000300, 1.300000000000000300, -19.63280000000000300 ) ) ;
#137 = CARTESIAN_POINT ( 'NONE',  ( 0.0000000000000000000, 1.300000000000000300, -17.25000000000000000 ) ) ;
#138 = CARTESIAN_POINT ( 'NONE',  ( 0.0000000000000000000, 0.0000000000000000000, -19.40000000000000200 ) ) ;
#139 =( LENGTH_UNIT ( ) NAMED_UNIT ( * ) SI_UNIT ( .MILLI., .METRE. ) );
#140 = CARTESIAN_POINT ( 'NONE',  ( 2.375814790345865200E-015, 0.0000000000000000000, 19.40000000000000200 ) ) ;
#141 = APPLICATION_PROTOCOL_DEFINITION ( 'draft international standard', 'automotive_design', 1998, #143 ) ;
#142 = CARTESIAN_POINT ( 'NONE',  ( 2.375814790345865200E-015, 1.300000000000000300, 19.40000000000000200 ) ) ;
#143 = APPLICATION_CONTEXT ( 'automotive_design' ) ;
#144 = DIRECTION ( 'NONE',  ( 0.0000000000000000000, 0.0000000000000000000, -1.000000000000000000 ) ) ;
#145 = FILL_AREA_STYLE ('',( #105 ) ) ;
#146 = SURFACE_SIDE_STYLE ('',( #7 ) ) ;
#147 =( LENGTH_UNIT ( ) NAMED_UNIT ( * ) SI_UNIT ( .MILLI., .METRE. ) );
#148 = CARTESIAN_POINT ( 'NONE',  ( 0.0000000000000000000, 1.300000000000000300, 0.0000000000000000000 ) ) ;
#149 =( NAMED_UNIT ( * ) PLANE_ANGLE_UNIT ( ) SI_UNIT ( $, .RADIAN. ) );
#150 = CARTESIAN_POINT ( 'NONE',  ( 0.0000000000000000000, 1.300000000000000300, -17.25000000000000000 ) ) ;
#151 = DIRECTION ( 'NONE',  ( 0.0000000000000000000, -1.000000000000000000, 0.0000000000000000000 ) ) ;
#152 = CARTESIAN_POINT ( 'NONE',  ( 0.0000000000000000000, 0.0000000000000000000, 0.0000000000000000000 ) ) ;
#153 =( NAMED_UNIT ( * ) PLANE_ANGLE_UNIT ( ) SI_UNIT ( $, .RADIAN. ) );
#154 = DIRECTION ( 'NONE',  ( 0.0000000000000000000, -1.000000000000000000, 0.0000000000000000000 ) ) ;
#155 = CARTESIAN_POINT ( 'NONE',  ( 0.0000000000000000000, 0.0000000000000000000, 0.0000000000000000000 ) ) ;
#156 = PRODUCT_CONTEXT ( 'NONE', #143, 'mechanical' ) ;
#157 = CARTESIAN_POINT ( 'NONE',  ( 0.0000000000000000000, 0.0000000000000000000, 0.0000000000000000000 ) ) ;
#158 =( NAMED_UNIT ( * ) PLANE_ANGLE_UNIT ( ) SI_UNIT ( $, .RADIAN. ) );
#159 = DIRECTION ( 'NONE',  ( 0.0000000000000000000, 0.0000000000000000000, -1.000000000000000000 ) ) ;
#160 =( NAMED_UNIT ( * ) SI_UNIT ( $, .STERADIAN. ) SOLID_ANGLE_UNIT ( ) );
#161 = CARTESIAN_POINT ( 'NONE',  ( 0.0000000000000000000, 1.300000000000000300, 0.0000000000000000000 ) ) ;
#162 = CARTESIAN_POINT ( 'NONE',  ( 0.0000000000000000000, 0.0000000000000000000, 0.0000000000000000000 ) ) ;
#163 = DIRECTION ( 'NONE',  ( 0.0000000000000000000, 0.0000000000000000000, -1.000000000000000000 ) ) ;
#164 = DIRECTION ( 'NONE',  ( 0.0000000000000000000, 0.0000000000000000000, -1.000000000000000000 ) ) ;
#165 = SURFACE_SIDE_STYLE ('',( #64 ) ) ;
#166 = CARTESIAN_POINT ( 'NONE',  ( 2.375814790345865200E-015, 1.300000000000000300, 19.40000000000000200 ) ) ;
#167 = FILL_AREA_STYLE ('',( #172 ) ) ;
#168 = DIRECTION ( 'NONE',  ( -0.0000000000000000000, 1.000000000000000000, -0.0000000000000000000 ) ) ;
#169 = CARTESIAN_POINT ( 'NONE',  ( 0.0000000000000000000, 1.300000000000000300, 0.0000000000000000000 ) ) ;
#170 = DIRECTION ( 'NONE',  ( 0.0000000000000000000, 0.0000000000000000000, -1.000000000000000000 ) ) ;
#171 = DIRECTION ( 'NONE',  ( 0.0000000000000000000, -1.000000000000000000, 0.0000000000000000000 ) ) ;
#172 = FILL_AREA_STYLE_COLOUR ( '', #43 ) ;
#173 =( LENGTH_UNIT ( ) NAMED_UNIT ( * ) SI_UNIT ( .MILLI., .METRE. ) );
#174 = CARTESIAN_POINT ( 'NONE',  ( 0.0000000000000000000, 1.300000000000000300, 0.0000000000000000000 ) ) ;
#175 = DIRECTION ( 'NONE',  ( -0.0000000000000000000, 1.000000000000000000, -0.0000000000000000000 ) ) ;
#176 = DIRECTION ( 'NONE',  ( 0.0000000000000000000, 0.0000000000000000000, -1.000000000000000000 ) ) ;
#177 = DIRECTION ( 'NONE',  ( -0.0000000000000000000, 1.000000000000000000, -0.0000000000000000000 ) ) ;
#178 = CARTESIAN_POINT ( 'NONE',  ( 0.0000000000000000000, 1.300000000000000300, 0.0000000000000000000 ) ) ;
#179 = CARTESIAN_POINT ( 'NONE',  ( 0.0000000000000000000, 1.300000000000000300, 0.0000000000000000000 ) ) ;
#180 = DIRECTION ( 'NONE',  ( 0.0000000000000000000, -1.000000000000000000, 0.0000000000000000000 ) ) ;
#181 = AXIS2_PLACEMENT_3D ( 'NONE', #174, #175, #170 ) ;
#182 = AXIS2_PLACEMENT_3D ( 'NONE', #152, #177, #176 ) ;
#183 = AXIS2_PLACEMENT_3D ( 'NONE', #179, #180, #163 ) ;
#184 = PRODUCT_DEFINITION_FORMATION_WITH_SPECIFIED_SOURCE ( 'TUTTO', '', #214, .NOT_KNOWN. ) ;
#185 = PRODUCT_RELATED_PRODUCT_CATEGORY ( 'part', '', ( #214 ) ) ;
#186 = PRODUCT_DEFINITION ( 'NON CONOSCIUTO', '', #184, #95 ) ;
#187 = AXIS2_PLACEMENT_3D ( 'NONE', #157, #126, #125 ) ;
#188 = MECHANICAL_DESIGN_GEOMETRIC_PRESENTATION_REPRESENTATION (  '', ( #191 ), #189 ) ;
#189 =( GEOMETRIC_REPRESENTATION_CONTEXT ( 3 ) GLOBAL_UNCERTAINTY_ASSIGNED_CONTEXT ( ( #213 ) ) GLOBAL_UNIT_ASSIGNED_CONTEXT ( ( #139, #158, #124 ) ) REPRESENTATION_CONTEXT ( 'NONE', 'WORKASPACE' ) );
#190 = PRESENTATION_LAYER_ASSIGNMENT (  '', '', ( #191 ) ) ;
#191 = STYLED_ITEM ( 'NONE', ( #76 ), #212 ) ;
#192 = AXIS2_PLACEMENT_3D ( 'NONE', #161, #100, #159 ) ;
#193 =( GEOMETRIC_REPRESENTATION_CONTEXT ( 3 ) GLOBAL_UNCERTAINTY_ASSIGNED_CONTEXT ( ( #209 ) ) GLOBAL_UNIT_ASSIGNED_CONTEXT ( ( #173, #149, #160 ) ) REPRESENTATION_CONTEXT ( 'NONE', 'WORKASPACE' ) );
#194 = AXIS2_PLACEMENT_3D ( 'NONE', #99, #132, #131 ) ;
#195 = STYLED_ITEM ( 'NONE', ( #71 ), #210 ) ;
#196 = PRESENTATION_LAYER_ASSIGNMENT (  '', '', ( #195 ) ) ;
#197 = AXIS2_PLACEMENT_3D ( 'NONE', #169, #171, #164 ) ;
#198 = AXIS2_PLACEMENT_3D ( 'NONE', #178, #168, #144 ) ;
#199 = AXIS2_PLACEMENT_3D ( 'NONE', #115, #111, #113 ) ;
#200 = AXIS2_PLACEMENT_3D ( 'NONE', #155, #101, #103 ) ;
#201 = AXIS2_PLACEMENT_3D ( 'NONE', #102, #114, #110 ) ;
#202 = AXIS2_PLACEMENT_3D ( 'NONE', #118, #120, #117 ) ;
#203 = MECHANICAL_DESIGN_GEOMETRIC_PRESENTATION_REPRESENTATION (  '', ( #195 ), #204 ) ;
#204 =( GEOMETRIC_REPRESENTATION_CONTEXT ( 3 ) GLOBAL_UNCERTAINTY_ASSIGNED_CONTEXT ( ( #211 ) ) GLOBAL_UNIT_ASSIGNED_CONTEXT ( ( #147, #153, #122 ) ) REPRESENTATION_CONTEXT ( 'NONE', 'WORKASPACE' ) );
#205 = AXIS2_PLACEMENT_3D ( 'NONE', #136, #98, #116 ) ;
#206 = EDGE_CURVE ( 'NONE', #42, #74, #16, .T. ) ;
#207 = AXIS2_PLACEMENT_3D ( 'NONE', #162, #108, #107 ) ;
#208 = AXIS2_PLACEMENT_3D ( 'NONE', #148, #104, #121 ) ;
#209 = UNCERTAINTY_MEASURE_WITH_UNIT (LENGTH_MEASURE( 1.000000000000000100E-005 ), #173, 'distance_accuracy_value', 'NONE');
#210 = MANIFOLD_SOLID_BREP ( 'Importato1', #50 ) ;
#211 = UNCERTAINTY_MEASURE_WITH_UNIT (LENGTH_MEASURE( 1.000000000000000100E-005 ), #147, 'distance_accuracy_value', 'NONE');
#212 = ADVANCED_BREP_SHAPE_REPRESENTATION ( '0605300250500A', ( #210, #187 ), #193 ) ;
#213 = UNCERTAINTY_MEASURE_WITH_UNIT (LENGTH_MEASURE( 1.000000000000000100E-005 ), #139, 'distance_accuracy_value', 'NONE');
#214 = PRODUCT ( '0605300250500A', '0605300250500A', '', ( #156 ) ) ;
ENDSEC;
END-ISO-10303-21;
