ISO-10303-21;
HEADER;
FILE_DESCRIPTION (( 'STEP AP214' ),
    '1' );
FILE_NAME ('0605300250700A.STEP',
    '2012-10-22T14:46:34',
    ( '' ),
    ( '' ),
    'SwSTEP 2.0',
    'SolidWorks 2012',
    '' );
FILE_SCHEMA (( 'AUTOMOTIVE_DESIGN' ));
ENDSEC;

DATA;
#1 = CIRCLE ( 'NONE', #195, 19.00000000000000000 ) ;
#2 = VECTOR ( 'NONE', #116, 1000.000000000000000 ) ;
#3 = CIRCLE ( 'NONE', #197, 21.50000000000000000 ) ;
#4 = VECTOR ( 'NONE', #112, 1000.000000000000000 ) ;
#5 = CYLINDRICAL_SURFACE ( 'NONE', #200, 19.00000000000000000 ) ;
#6 = CIRCLE ( 'NONE', #193, 19.00000000000000000 ) ;
#7 = FACE_OUTER_BOUND ( 'NONE', #99, .T. ) ;
#8 = CIRCLE ( 'NONE', #201, 19.00000000000000000 ) ;
#9 = SURFACE_STYLE_FILL_AREA ( #49 ) ;
#10 = CIRCLE ( 'NONE', #194, 21.50000000000000000 ) ;
#11 = CIRCLE ( 'NONE', #192, 19.00000000000000000 ) ;
#12 = CYLINDRICAL_SURFACE ( 'NONE', #202, 19.00000000000000000 ) ;
#13 = LINE ( 'NONE', #115, #2 ) ;
#14 = COLOUR_RGB ( '',0.0000000000000000000, 0.0000000000000000000, 0.0000000000000000000 ) ;
#15 = FACE_OUTER_BOUND ( 'NONE', #95, .T. ) ;
#16 = LINE ( 'NONE', #136, #4 ) ;
#17 = LINE ( 'NONE', #146, #21 ) ;
#18 = VECTOR ( 'NONE', #150, 1000.000000000000000 ) ;
#19 = PRESENTATION_STYLE_ASSIGNMENT (( #59 ) ) ;
#20 = SURFACE_STYLE_FILL_AREA ( #129 ) ;
#21 = VECTOR ( 'NONE', #151, 1000.000000000000000 ) ;
#22 = CIRCLE ( 'NONE', #191, 21.50000000000000000 ) ;
#23 = LINE ( 'NONE', #145, #18 ) ;
#24 = CIRCLE ( 'NONE', #196, 21.50000000000000000 ) ;
#25 = COLOUR_RGB ( '',0.0000000000000000000, 0.0000000000000000000, 0.0000000000000000000 ) ;
#26 = SHAPE_DEFINITION_REPRESENTATION ( #36, #209 ) ;
#27 = PRESENTATION_STYLE_ASSIGNMENT (( #47 ) ) ;
#28 = ADVANCED_FACE ( 'NONE', ( #96 ), #107, .T. ) ;
#29 = ADVANCED_FACE ( 'NONE', ( #70 ), #109, .T. ) ;
#30 = ADVANCED_FACE ( 'NONE', ( #94 ), #12, .F. ) ;
#31 = ADVANCED_FACE ( 'NONE', ( #108 ), #5, .F. ) ;
#32 = ADVANCED_FACE ( 'NONE', ( #90, #7 ), #152, .T. ) ;
#33 = ADVANCED_FACE ( 'NONE', ( #66, #15 ), #158, .T. ) ;
#34 = CARTESIAN_POINT ( 'NONE',  ( 0.0000000000000000000, 0.0000000000000000000, 0.0000000000000000000 ) ) ;
#35 = PRODUCT_DEFINITION_CONTEXT ( 'detailed design', #40, 'design' ) ;
#36 = PRODUCT_DEFINITION_SHAPE ( 'NONE', 'NONE',  #180 ) ;
#37 =( NAMED_UNIT ( * ) SI_UNIT ( $, .STERADIAN. ) SOLID_ANGLE_UNIT ( ) );
#38 = APPLICATION_PROTOCOL_DEFINITION ( 'draft international standard', 'automotive_design', 1998, #40 ) ;
#39 = PRODUCT_CONTEXT ( 'NONE', #50, 'mechanical' ) ;
#40 = APPLICATION_CONTEXT ( 'automotive_design' ) ;
#41 = DIRECTION ( 'NONE',  ( 1.000000000000000000, 0.0000000000000000000, 0.0000000000000000000 ) ) ;
#42 = DIRECTION ( 'NONE',  ( 0.0000000000000000000, 0.0000000000000000000, 1.000000000000000000 ) ) ;
#43 = CARTESIAN_POINT ( 'NONE',  ( 0.0000000000000000000, 0.0000000000000000000, 0.0000000000000000000 ) ) ;
#44 =( NAMED_UNIT ( * ) SI_UNIT ( $, .STERADIAN. ) SOLID_ANGLE_UNIT ( ) );
#45 =( NAMED_UNIT ( * ) PLANE_ANGLE_UNIT ( ) SI_UNIT ( $, .RADIAN. ) );
#46 =( LENGTH_UNIT ( ) NAMED_UNIT ( * ) SI_UNIT ( .MILLI., .METRE. ) );
#47 = SURFACE_STYLE_USAGE ( .BOTH. , #48 ) ;
#48 = SURFACE_SIDE_STYLE ('',( #9 ) ) ;
#49 = FILL_AREA_STYLE ('',( #52 ) ) ;
#50 = APPLICATION_CONTEXT ( 'automotive_design' ) ;
#51 = APPLICATION_PROTOCOL_DEFINITION ( 'draft international standard', 'automotive_design', 1998, #50 ) ;
#52 = FILL_AREA_STYLE_COLOUR ( '', #25 ) ;
#53 = DIRECTION ( 'NONE',  ( 0.0000000000000000000, 0.0000000000000000000, -1.000000000000000000 ) ) ;
#54 = SURFACE_SIDE_STYLE ('',( #20 ) ) ;
#55 =( LENGTH_UNIT ( ) NAMED_UNIT ( * ) SI_UNIT ( .MILLI., .METRE. ) );
#56 =( NAMED_UNIT ( * ) SI_UNIT ( $, .STERADIAN. ) SOLID_ANGLE_UNIT ( ) );
#57 =( NAMED_UNIT ( * ) PLANE_ANGLE_UNIT ( ) SI_UNIT ( $, .RADIAN. ) );
#58 =( NAMED_UNIT ( * ) PLANE_ANGLE_UNIT ( ) SI_UNIT ( $, .RADIAN. ) );
#59 = SURFACE_STYLE_USAGE ( .BOTH. , #54 ) ;
#60 = DIRECTION ( 'NONE',  ( 0.0000000000000000000, -1.000000000000000000, 0.0000000000000000000 ) ) ;
#61 = VERTEX_POINT ( 'NONE', #131 ) ;
#62 = VERTEX_POINT ( 'NONE', #155 ) ;
#63 = ORIENTED_EDGE ( 'NONE', *, *, #205, .T. ) ;
#64 = ORIENTED_EDGE ( 'NONE', *, *, #176, .F. ) ;
#65 = VERTEX_POINT ( 'NONE', #161 ) ;
#66 = FACE_BOUND ( 'NONE', #101, .T. ) ;
#67 = ORIENTED_EDGE ( 'NONE', *, *, #174, .T. ) ;
#68 = VERTEX_POINT ( 'NONE', #168 ) ;
#69 = VERTEX_POINT ( 'NONE', #166 ) ;
#70 = FACE_OUTER_BOUND ( 'NONE', #100, .T. ) ;
#71 = ORIENTED_EDGE ( 'NONE', *, *, #175, .T. ) ;
#72 = ORIENTED_EDGE ( 'NONE', *, *, #204, .F. ) ;
#73 = ORIENTED_EDGE ( 'NONE', *, *, #177, .T. ) ;
#74 = ORIENTED_EDGE ( 'NONE', *, *, #172, .F. ) ;
#75 = ORIENTED_EDGE ( 'NONE', *, *, #171, .F. ) ;
#76 = ORIENTED_EDGE ( 'NONE', *, *, #171, .T. ) ;
#77 = ORIENTED_EDGE ( 'NONE', *, *, #174, .F. ) ;
#78 = ORIENTED_EDGE ( 'NONE', *, *, #208, .T. ) ;
#79 = ORIENTED_EDGE ( 'NONE', *, *, #206, .T. ) ;
#80 = ORIENTED_EDGE ( 'NONE', *, *, #177, .F. ) ;
#81 = ORIENTED_EDGE ( 'NONE', *, *, #170, .F. ) ;
#82 = ORIENTED_EDGE ( 'NONE', *, *, #175, .F. ) ;
#83 = ORIENTED_EDGE ( 'NONE', *, *, #205, .F. ) ;
#84 = ORIENTED_EDGE ( 'NONE', *, *, #173, .T. ) ;
#85 = CLOSED_SHELL ( 'NONE', ( #29, #30, #28, #32, #33, #31 ) ) ;
#86 = ORIENTED_EDGE ( 'NONE', *, *, #172, .T. ) ;
#87 = ORIENTED_EDGE ( 'NONE', *, *, #206, .F. ) ;
#88 = ORIENTED_EDGE ( 'NONE', *, *, #170, .T. ) ;
#89 = ORIENTED_EDGE ( 'NONE', *, *, #176, .T. ) ;
#90 = FACE_BOUND ( 'NONE', #92, .T. ) ;
#91 = ORIENTED_EDGE ( 'NONE', *, *, #204, .T. ) ;
#92 = EDGE_LOOP ( 'NONE', ( #67, #91 ) ) ;
#93 = EDGE_LOOP ( 'NONE', ( #72, #86, #81, #80 ) ) ;
#94 = FACE_OUTER_BOUND ( 'NONE', #93, .T. ) ;
#95 = EDGE_LOOP ( 'NONE', ( #71, #78 ) ) ;
#96 = FACE_OUTER_BOUND ( 'NONE', #98, .T. ) ;
#97 = EDGE_LOOP ( 'NONE', ( #74, #77, #73, #83 ) ) ;
#98 = EDGE_LOOP ( 'NONE', ( #64, #106, #79, #105 ) ) ;
#99 = EDGE_LOOP ( 'NONE', ( #84, #76 ) ) ;
#100 = EDGE_LOOP ( 'NONE', ( #75, #89, #82, #87 ) ) ;
#101 = EDGE_LOOP ( 'NONE', ( #88, #63 ) ) ;
#102 = VERTEX_POINT ( 'NONE', #110 ) ;
#103 = VERTEX_POINT ( 'NONE', #167 ) ;
#104 = VERTEX_POINT ( 'NONE', #111 ) ;
#105 = ORIENTED_EDGE ( 'NONE', *, *, #208, .F. ) ;
#106 = ORIENTED_EDGE ( 'NONE', *, *, #173, .F. ) ;
#107 = CYLINDRICAL_SURFACE ( 'NONE', #207, 21.50000000000000000 ) ;
#108 = FACE_OUTER_BOUND ( 'NONE', #97, .T. ) ;
#109 = CYLINDRICAL_SURFACE ( 'NONE', #199, 21.50000000000000000 ) ;
#110 = CARTESIAN_POINT ( 'NONE',  ( 0.0000000000000000000, 0.0000000000000000000, -21.50000000000000000 ) ) ;
#111 = CARTESIAN_POINT ( 'NONE',  ( 0.0000000000000000000, 0.0000000000000000000, -19.00000000000000000 ) ) ;
#112 = DIRECTION ( 'NONE',  ( 0.0000000000000000000, -1.000000000000000000, 0.0000000000000000000 ) ) ;
#113 = DIRECTION ( 'NONE',  ( -0.0000000000000000000, 1.000000000000000000, -0.0000000000000000000 ) ) ;
#114 = CARTESIAN_POINT ( 'NONE',  ( 0.0000000000000000000, 1.500000000000000000, 0.0000000000000000000 ) ) ;
#115 = CARTESIAN_POINT ( 'NONE',  ( 0.0000000000000000000, 1.500000000000000000, -21.50000000000000000 ) ) ;
#116 = DIRECTION ( 'NONE',  ( 0.0000000000000000000, -1.000000000000000000, 0.0000000000000000000 ) ) ;
#117 = CARTESIAN_POINT ( 'NONE',  ( 0.0000000000000000000, 1.500000000000000000, 0.0000000000000000000 ) ) ;
#118 = DIRECTION ( 'NONE',  ( 0.0000000000000000000, -1.000000000000000000, 0.0000000000000000000 ) ) ;
#119 = DIRECTION ( 'NONE',  ( 0.0000000000000000000, 0.0000000000000000000, -1.000000000000000000 ) ) ;
#120 = CARTESIAN_POINT ( 'NONE',  ( 0.0000000000000000000, 0.0000000000000000000, 0.0000000000000000000 ) ) ;
#121 = DIRECTION ( 'NONE',  ( -0.0000000000000000000, 1.000000000000000000, -0.0000000000000000000 ) ) ;
#122 = DIRECTION ( 'NONE',  ( 0.0000000000000000000, 1.000000000000000000, 0.0000000000000000000 ) ) ;
#123 = DIRECTION ( 'NONE',  ( 0.0000000000000000000, 0.0000000000000000000, -1.000000000000000000 ) ) ;
#124 = DIRECTION ( 'NONE',  ( 0.0000000000000000000, -1.000000000000000000, 0.0000000000000000000 ) ) ;
#125 = CARTESIAN_POINT ( 'NONE',  ( 0.0000000000000000000, 1.500000000000000000, 0.0000000000000000000 ) ) ;
#126 =( LENGTH_UNIT ( ) NAMED_UNIT ( * ) SI_UNIT ( .MILLI., .METRE. ) );
#127 = CARTESIAN_POINT ( 'NONE',  ( -21.75799999999999900, 1.500000000000000000, -21.75799999999999900 ) ) ;
#128 = FILL_AREA_STYLE_COLOUR ( '', #14 ) ;
#129 = FILL_AREA_STYLE ('',( #128 ) ) ;
#130 = CARTESIAN_POINT ( 'NONE',  ( -21.75799999999999900, 0.0000000000000000000, 21.75799999999999900 ) ) ;
#131 = CARTESIAN_POINT ( 'NONE',  ( 2.632990618166809600E-015, 0.0000000000000000000, 21.50000000000000000 ) ) ;
#132 = CARTESIAN_POINT ( 'NONE',  ( 0.0000000000000000000, 1.500000000000000000, 0.0000000000000000000 ) ) ;
#133 = DIRECTION ( 'NONE',  ( 0.0000000000000000000, 0.0000000000000000000, -1.000000000000000000 ) ) ;
#134 = DIRECTION ( 'NONE',  ( -0.0000000000000000000, 1.000000000000000000, -0.0000000000000000000 ) ) ;
#135 = CARTESIAN_POINT ( 'NONE',  ( 0.0000000000000000000, 1.500000000000000000, 0.0000000000000000000 ) ) ;
#136 = CARTESIAN_POINT ( 'NONE',  ( 2.326828918379971000E-015, 1.500000000000000000, 19.00000000000000000 ) ) ;
#137 = DIRECTION ( 'NONE',  ( 0.0000000000000000000, 0.0000000000000000000, -1.000000000000000000 ) ) ;
#138 = CARTESIAN_POINT ( 'NONE',  ( 0.0000000000000000000, 0.0000000000000000000, 0.0000000000000000000 ) ) ;
#139 = DIRECTION ( 'NONE',  ( 0.0000000000000000000, 0.0000000000000000000, -1.000000000000000000 ) ) ;
#140 = DIRECTION ( 'NONE',  ( 0.0000000000000000000, 0.0000000000000000000, -1.000000000000000000 ) ) ;
#141 = DIRECTION ( 'NONE',  ( 0.0000000000000000000, -1.000000000000000000, 0.0000000000000000000 ) ) ;
#142 = DIRECTION ( 'NONE',  ( 0.0000000000000000000, -1.000000000000000000, 0.0000000000000000000 ) ) ;
#143 = DIRECTION ( 'NONE',  ( 0.0000000000000000000, 0.0000000000000000000, -1.000000000000000000 ) ) ;
#144 = DIRECTION ( 'NONE',  ( 0.0000000000000000000, -1.000000000000000000, 0.0000000000000000000 ) ) ;
#145 = CARTESIAN_POINT ( 'NONE',  ( 0.0000000000000000000, 1.500000000000000000, -19.00000000000000000 ) ) ;
#146 = CARTESIAN_POINT ( 'NONE',  ( 2.632990618166809600E-015, 1.500000000000000000, 21.50000000000000000 ) ) ;
#147 = DIRECTION ( 'NONE',  ( 0.0000000000000000000, 0.0000000000000000000, -1.000000000000000000 ) ) ;
#148 = DIRECTION ( 'NONE',  ( 0.0000000000000000000, -1.000000000000000000, 0.0000000000000000000 ) ) ;
#149 = CARTESIAN_POINT ( 'NONE',  ( 0.0000000000000000000, 1.500000000000000000, 0.0000000000000000000 ) ) ;
#150 = DIRECTION ( 'NONE',  ( 0.0000000000000000000, -1.000000000000000000, 0.0000000000000000000 ) ) ;
#151 = DIRECTION ( 'NONE',  ( 0.0000000000000000000, -1.000000000000000000, 0.0000000000000000000 ) ) ;
#152 = PLANE ( 'NONE',  #203 ) ;
#153 = DIRECTION ( 'NONE',  ( 0.0000000000000000000, -1.000000000000000000, 0.0000000000000000000 ) ) ;
#154 = CARTESIAN_POINT ( 'NONE',  ( 0.0000000000000000000, 1.500000000000000000, 0.0000000000000000000 ) ) ;
#155 = CARTESIAN_POINT ( 'NONE',  ( 2.632990618166809600E-015, 1.500000000000000000, 21.50000000000000000 ) ) ;
#156 = DIRECTION ( 'NONE',  ( 0.0000000000000000000, -1.000000000000000000, 0.0000000000000000000 ) ) ;
#157 = CARTESIAN_POINT ( 'NONE',  ( 0.0000000000000000000, 1.500000000000000000, 0.0000000000000000000 ) ) ;
#158 = PLANE ( 'NONE',  #198 ) ;
#159 = CARTESIAN_POINT ( 'NONE',  ( 0.0000000000000000000, 0.0000000000000000000, 0.0000000000000000000 ) ) ;
#160 = DIRECTION ( 'NONE',  ( 0.0000000000000000000, 0.0000000000000000000, 1.000000000000000000 ) ) ;
#161 = CARTESIAN_POINT ( 'NONE',  ( 2.326828918379971000E-015, 0.0000000000000000000, 19.00000000000000000 ) ) ;
#162 = DIRECTION ( 'NONE',  ( 0.0000000000000000000, 0.0000000000000000000, -1.000000000000000000 ) ) ;
#163 = DIRECTION ( 'NONE',  ( -0.0000000000000000000, 1.000000000000000000, -0.0000000000000000000 ) ) ;
#164 = DIRECTION ( 'NONE',  ( 0.0000000000000000000, 0.0000000000000000000, -1.000000000000000000 ) ) ;
#165 = DIRECTION ( 'NONE',  ( 0.0000000000000000000, 0.0000000000000000000, -1.000000000000000000 ) ) ;
#166 = CARTESIAN_POINT ( 'NONE',  ( 2.326828918379971000E-015, 1.500000000000000000, 19.00000000000000000 ) ) ;
#167 = CARTESIAN_POINT ( 'NONE',  ( 0.0000000000000000000, 1.500000000000000000, -19.00000000000000000 ) ) ;
#168 = CARTESIAN_POINT ( 'NONE',  ( 0.0000000000000000000, 1.500000000000000000, -21.50000000000000000 ) ) ;
#169 = DIRECTION ( 'NONE',  ( 0.0000000000000000000, 0.0000000000000000000, -1.000000000000000000 ) ) ;
#170 = EDGE_CURVE ( 'NONE', #104, #65, #8, .T. ) ;
#171 = EDGE_CURVE ( 'NONE', #62, #68, #3, .T. ) ;
#172 = EDGE_CURVE ( 'NONE', #69, #65, #16, .T. ) ;
#173 = EDGE_CURVE ( 'NONE', #68, #62, #24, .T. ) ;
#174 = EDGE_CURVE ( 'NONE', #103, #69, #1, .T. ) ;
#175 = EDGE_CURVE ( 'NONE', #102, #61, #10, .T. ) ;
#176 = EDGE_CURVE ( 'NONE', #62, #61, #17, .T. ) ;
#177 = EDGE_CURVE ( 'NONE', #103, #104, #23, .T. ) ;
#178 = PRODUCT_RELATED_PRODUCT_CATEGORY ( 'part', '', ( #214 ) ) ;
#179 = PRODUCT_DEFINITION_FORMATION_WITH_SPECIFIED_SOURCE ( 'TUTTO', '', #214, .NOT_KNOWN. ) ;
#180 = PRODUCT_DEFINITION ( 'NON CONOSCIUTO', '', #179, #35 ) ;
#181 = AXIS2_PLACEMENT_3D ( 'NONE', #43, #42, #41 ) ;
#182 =( GEOMETRIC_REPRESENTATION_CONTEXT ( 3 ) GLOBAL_UNCERTAINTY_ASSIGNED_CONTEXT ( ( #211 ) ) GLOBAL_UNIT_ASSIGNED_CONTEXT ( ( #46, #45, #44 ) ) REPRESENTATION_CONTEXT ( 'NONE', 'WORKASPACE' ) );
#183 = MECHANICAL_DESIGN_GEOMETRIC_PRESENTATION_REPRESENTATION (  '', ( #185 ), #182 ) ;
#184 = PRESENTATION_LAYER_ASSIGNMENT (  '', '', ( #185 ) ) ;
#185 = STYLED_ITEM ( 'NONE', ( #27 ), #209 ) ;
#186 =( GEOMETRIC_REPRESENTATION_CONTEXT ( 3 ) GLOBAL_UNCERTAINTY_ASSIGNED_CONTEXT ( ( #210 ) ) GLOBAL_UNIT_ASSIGNED_CONTEXT ( ( #126, #57, #37 ) ) REPRESENTATION_CONTEXT ( 'NONE', 'WORKASPACE' ) );
#187 =( GEOMETRIC_REPRESENTATION_CONTEXT ( 3 ) GLOBAL_UNCERTAINTY_ASSIGNED_CONTEXT ( ( #213 ) ) GLOBAL_UNIT_ASSIGNED_CONTEXT ( ( #55, #58, #56 ) ) REPRESENTATION_CONTEXT ( 'NONE', 'WORKASPACE' ) );
#188 = MECHANICAL_DESIGN_GEOMETRIC_PRESENTATION_REPRESENTATION (  '', ( #190 ), #187 ) ;
#189 = PRESENTATION_LAYER_ASSIGNMENT (  '', '', ( #190 ) ) ;
#190 = STYLED_ITEM ( 'NONE', ( #19 ), #212 ) ;
#191 = AXIS2_PLACEMENT_3D ( 'NONE', #34, #60, #53 ) ;
#192 = AXIS2_PLACEMENT_3D ( 'NONE', #120, #121, #119 ) ;
#193 = AXIS2_PLACEMENT_3D ( 'NONE', #117, #118, #169 ) ;
#194 = AXIS2_PLACEMENT_3D ( 'NONE', #138, #142, #143 ) ;
#195 = AXIS2_PLACEMENT_3D ( 'NONE', #149, #148, #147 ) ;
#196 = AXIS2_PLACEMENT_3D ( 'NONE', #114, #113, #137 ) ;
#197 = AXIS2_PLACEMENT_3D ( 'NONE', #135, #134, #133 ) ;
#198 = AXIS2_PLACEMENT_3D ( 'NONE', #130, #156, #162 ) ;
#199 = AXIS2_PLACEMENT_3D ( 'NONE', #157, #141, #140 ) ;
#200 = AXIS2_PLACEMENT_3D ( 'NONE', #125, #124, #123 ) ;
#201 = AXIS2_PLACEMENT_3D ( 'NONE', #159, #163, #139 ) ;
#202 = AXIS2_PLACEMENT_3D ( 'NONE', #154, #153, #164 ) ;
#203 = AXIS2_PLACEMENT_3D ( 'NONE', #127, #122, #160 ) ;
#204 = EDGE_CURVE ( 'NONE', #69, #103, #6, .T. ) ;
#205 = EDGE_CURVE ( 'NONE', #65, #104, #11, .T. ) ;
#206 = EDGE_CURVE ( 'NONE', #68, #102, #13, .T. ) ;
#207 = AXIS2_PLACEMENT_3D ( 'NONE', #132, #144, #165 ) ;
#208 = EDGE_CURVE ( 'NONE', #61, #102, #22, .T. ) ;
#209 = ADVANCED_BREP_SHAPE_REPRESENTATION ( '0605300250700A', ( #212, #181 ), #186 ) ;
#210 = UNCERTAINTY_MEASURE_WITH_UNIT (LENGTH_MEASURE( 1.000000000000000100E-005 ), #126, 'distance_accuracy_value', 'NONE');
#211 = UNCERTAINTY_MEASURE_WITH_UNIT (LENGTH_MEASURE( 1.000000000000000100E-005 ), #46, 'distance_accuracy_value', 'NONE');
#212 = MANIFOLD_SOLID_BREP ( 'Importato1', #85 ) ;
#213 = UNCERTAINTY_MEASURE_WITH_UNIT (LENGTH_MEASURE( 1.000000000000000100E-005 ), #55, 'distance_accuracy_value', 'NONE');
#214 = PRODUCT ( '0605300250700A', '0605300250700A', '', ( #39 ) ) ;
ENDSEC;
END-ISO-10303-21;
