ISO-10303-21;
HEADER;
FILE_DESCRIPTION (( 'STEP AP214' ),
    '1' );
FILE_NAME ('060530025B500A.STEP',
    '2012-10-22T14:50:11',
    ( '' ),
    ( '' ),
    'SwSTEP 2.0',
    'SolidWorks 2012',
    '' );
FILE_SCHEMA (( 'AUTOMOTIVE_DESIGN' ));
ENDSEC;

DATA;
#1 = ADVANCED_FACE ( 'NONE', ( #134, #145 ), #81, .T. ) ;
#2 = ADVANCED_FACE ( 'NONE', ( #133 ), #128, .T. ) ;
#3 = ADVANCED_FACE ( 'NONE', ( #131 ), #125, .T. ) ;
#4 = ADVANCED_FACE ( 'NONE', ( #129 ), #122, .F. ) ;
#5 = ADVANCED_FACE ( 'NONE', ( #126, #121 ), #88, .T. ) ;
#6 = ADVANCED_FACE ( 'NONE', ( #130 ), #118, .F. ) ;
#7 = PRODUCT_DEFINITION_CONTEXT ( 'detailed design', #13, 'design' ) ;
#8 = PRODUCT_DEFINITION_SHAPE ( 'NONE', 'NONE',  #205 ) ;
#9 = PRODUCT_CONTEXT ( 'NONE', #20, 'mechanical' ) ;
#10 = DIRECTION ( 'NONE',  ( 1.000000000000000000, 0.0000000000000000000, 0.0000000000000000000 ) ) ;
#11 = DIRECTION ( 'NONE',  ( 0.0000000000000000000, 0.0000000000000000000, 1.000000000000000000 ) ) ;
#12 = CARTESIAN_POINT ( 'NONE',  ( 0.0000000000000000000, 0.0000000000000000000, 0.0000000000000000000 ) ) ;
#13 = APPLICATION_CONTEXT ( 'automotive_design' ) ;
#14 =( NAMED_UNIT ( * ) SI_UNIT ( $, .STERADIAN. ) SOLID_ANGLE_UNIT ( ) );
#15 =( NAMED_UNIT ( * ) PLANE_ANGLE_UNIT ( ) SI_UNIT ( $, .RADIAN. ) );
#16 =( LENGTH_UNIT ( ) NAMED_UNIT ( * ) SI_UNIT ( .MILLI., .METRE. ) );
#17 = SURFACE_STYLE_USAGE ( .BOTH. , #18 ) ;
#18 = SURFACE_SIDE_STYLE ('',( #109 ) ) ;
#19 = FILL_AREA_STYLE ('',( #39 ) ) ;
#20 = APPLICATION_CONTEXT ( 'automotive_design' ) ;
#21 = APPLICATION_PROTOCOL_DEFINITION ( 'draft international standard', 'automotive_design', 1998, #20 ) ;
#22 =( NAMED_UNIT ( * ) SI_UNIT ( $, .STERADIAN. ) SOLID_ANGLE_UNIT ( ) );
#23 =( NAMED_UNIT ( * ) PLANE_ANGLE_UNIT ( ) SI_UNIT ( $, .RADIAN. ) );
#24 = CARTESIAN_POINT ( 'NONE',  ( 0.0000000000000000000, 0.0000000000000000000, -7.900000000000000400 ) ) ;
#25 = APPLICATION_PROTOCOL_DEFINITION ( 'draft international standard', 'automotive_design', 1998, #13 ) ;
#26 =( NAMED_UNIT ( * ) SI_UNIT ( $, .STERADIAN. ) SOLID_ANGLE_UNIT ( ) );
#27 =( NAMED_UNIT ( * ) PLANE_ANGLE_UNIT ( ) SI_UNIT ( $, .RADIAN. ) );
#28 =( LENGTH_UNIT ( ) NAMED_UNIT ( * ) SI_UNIT ( .MILLI., .METRE. ) );
#29 = SURFACE_STYLE_USAGE ( .BOTH. , #32 ) ;
#30 = CARTESIAN_POINT ( 'NONE',  ( 7.960204194457796500E-016, 1.000000000000000000, 6.500000000000000900 ) ) ;
#31 = CARTESIAN_POINT ( 'NONE',  ( 7.960204194457796500E-016, 0.0000000000000000000, 6.500000000000000900 ) ) ;
#32 = SURFACE_SIDE_STYLE ('',( #99 ) ) ;
#33 = DIRECTION ( 'NONE',  ( 0.0000000000000000000, 0.0000000000000000000, -1.000000000000000000 ) ) ;
#34 = CARTESIAN_POINT ( 'NONE',  ( 0.0000000000000000000, 1.000000000000000000, 0.0000000000000000000 ) ) ;
#35 = DIRECTION ( 'NONE',  ( 0.0000000000000000000, -1.000000000000000000, 0.0000000000000000000 ) ) ;
#36 = DIRECTION ( 'NONE',  ( 0.0000000000000000000, 0.0000000000000000000, 1.000000000000000000 ) ) ;
#37 = CARTESIAN_POINT ( 'NONE',  ( 0.0000000000000000000, 0.0000000000000000000, 0.0000000000000000000 ) ) ;
#38 = DIRECTION ( 'NONE',  ( 0.0000000000000000000, 0.0000000000000000000, -1.000000000000000000 ) ) ;
#39 = FILL_AREA_STYLE_COLOUR ( '', #161 ) ;
#40 = FILL_AREA_STYLE ('',( #48 ) ) ;
#41 = DIRECTION ( 'NONE',  ( 0.0000000000000000000, 0.0000000000000000000, -1.000000000000000000 ) ) ;
#42 = DIRECTION ( 'NONE',  ( -0.0000000000000000000, 1.000000000000000000, -0.0000000000000000000 ) ) ;
#43 = CARTESIAN_POINT ( 'NONE',  ( 0.0000000000000000000, 1.000000000000000000, 0.0000000000000000000 ) ) ;
#44 =( LENGTH_UNIT ( ) NAMED_UNIT ( * ) SI_UNIT ( .MILLI., .METRE. ) );
#45 = DIRECTION ( 'NONE',  ( 0.0000000000000000000, 0.0000000000000000000, -1.000000000000000000 ) ) ;
#46 = DIRECTION ( 'NONE',  ( 0.0000000000000000000, -1.000000000000000000, 0.0000000000000000000 ) ) ;
#47 = CARTESIAN_POINT ( 'NONE',  ( 0.0000000000000000000, 0.0000000000000000000, 0.0000000000000000000 ) ) ;
#48 = FILL_AREA_STYLE_COLOUR ( '', #102 ) ;
#49 = DIRECTION ( 'NONE',  ( 0.0000000000000000000, 0.0000000000000000000, -1.000000000000000000 ) ) ;
#50 = DIRECTION ( 'NONE',  ( 0.0000000000000000000, -1.000000000000000000, 0.0000000000000000000 ) ) ;
#51 = CARTESIAN_POINT ( 'NONE',  ( 0.0000000000000000000, 1.000000000000000000, 0.0000000000000000000 ) ) ;
#52 = DIRECTION ( 'NONE',  ( 0.0000000000000000000, 0.0000000000000000000, -1.000000000000000000 ) ) ;
#53 = DIRECTION ( 'NONE',  ( -0.0000000000000000000, 1.000000000000000000, -0.0000000000000000000 ) ) ;
#54 = DIRECTION ( 'NONE',  ( 0.0000000000000000000, 0.0000000000000000000, -1.000000000000000000 ) ) ;
#55 = CARTESIAN_POINT ( 'NONE',  ( -7.994799999999999700, 1.000000000000000000, -7.994799999999999700 ) ) ;
#56 = CARTESIAN_POINT ( 'NONE',  ( -7.994799999999999700, 0.0000000000000000000, 7.994799999999999700 ) ) ;
#57 = CARTESIAN_POINT ( 'NONE',  ( 0.0000000000000000000, 0.0000000000000000000, -6.500000000000000900 ) ) ;
#58 = CARTESIAN_POINT ( 'NONE',  ( 0.0000000000000000000, 0.0000000000000000000, 0.0000000000000000000 ) ) ;
#59 = DIRECTION ( 'NONE',  ( 0.0000000000000000000, -1.000000000000000000, 0.0000000000000000000 ) ) ;
#60 = DIRECTION ( 'NONE',  ( 0.0000000000000000000, 0.0000000000000000000, -1.000000000000000000 ) ) ;
#61 = DIRECTION ( 'NONE',  ( 0.0000000000000000000, 0.0000000000000000000, -1.000000000000000000 ) ) ;
#62 = DIRECTION ( 'NONE',  ( -0.0000000000000000000, 1.000000000000000000, -0.0000000000000000000 ) ) ;
#63 = CARTESIAN_POINT ( 'NONE',  ( 0.0000000000000000000, 1.000000000000000000, 0.0000000000000000000 ) ) ;
#64 = CARTESIAN_POINT ( 'NONE',  ( 0.0000000000000000000, 1.000000000000000000, -6.500000000000000900 ) ) ;
#65 = CARTESIAN_POINT ( 'NONE',  ( 0.0000000000000000000, 1.000000000000000000, 0.0000000000000000000 ) ) ;
#66 = DIRECTION ( 'NONE',  ( 0.0000000000000000000, 0.0000000000000000000, -1.000000000000000000 ) ) ;
#67 = DIRECTION ( 'NONE',  ( -0.0000000000000000000, 1.000000000000000000, -0.0000000000000000000 ) ) ;
#68 = DIRECTION ( 'NONE',  ( 0.0000000000000000000, 0.0000000000000000000, -1.000000000000000000 ) ) ;
#69 = CARTESIAN_POINT ( 'NONE',  ( 0.0000000000000000000, 0.0000000000000000000, 0.0000000000000000000 ) ) ;
#70 = DIRECTION ( 'NONE',  ( 0.0000000000000000000, -1.000000000000000000, 0.0000000000000000000 ) ) ;
#71 = DIRECTION ( 'NONE',  ( 0.0000000000000000000, -1.000000000000000000, 0.0000000000000000000 ) ) ;
#72 = DIRECTION ( 'NONE',  ( 0.0000000000000000000, -1.000000000000000000, 0.0000000000000000000 ) ) ;
#73 = CARTESIAN_POINT ( 'NONE',  ( 0.0000000000000000000, 1.000000000000000000, 0.0000000000000000000 ) ) ;
#74 = CARTESIAN_POINT ( 'NONE',  ( 9.674709713264090100E-016, 1.000000000000000000, 7.900000000000000400 ) ) ;
#75 = DIRECTION ( 'NONE',  ( 0.0000000000000000000, -1.000000000000000000, 0.0000000000000000000 ) ) ;
#76 = DIRECTION ( 'NONE',  ( 0.0000000000000000000, -1.000000000000000000, 0.0000000000000000000 ) ) ;
#77 = DIRECTION ( 'NONE',  ( 0.0000000000000000000, -1.000000000000000000, 0.0000000000000000000 ) ) ;
#78 = DIRECTION ( 'NONE',  ( 0.0000000000000000000, 0.0000000000000000000, -1.000000000000000000 ) ) ;
#79 = DIRECTION ( 'NONE',  ( 0.0000000000000000000, -1.000000000000000000, 0.0000000000000000000 ) ) ;
#80 = DIRECTION ( 'NONE',  ( 0.0000000000000000000, -1.000000000000000000, 0.0000000000000000000 ) ) ;
#81 = PLANE ( 'NONE',  #182 ) ;
#82 = CARTESIAN_POINT ( 'NONE',  ( 0.0000000000000000000, 1.000000000000000000, 0.0000000000000000000 ) ) ;
#83 = CARTESIAN_POINT ( 'NONE',  ( 0.0000000000000000000, 1.000000000000000000, 0.0000000000000000000 ) ) ;
#84 = CARTESIAN_POINT ( 'NONE',  ( 9.674709713264090100E-016, 1.000000000000000000, 7.900000000000000400 ) ) ;
#85 = DIRECTION ( 'NONE',  ( 0.0000000000000000000, 0.0000000000000000000, -1.000000000000000000 ) ) ;
#86 = CARTESIAN_POINT ( 'NONE',  ( 0.0000000000000000000, 1.000000000000000000, -7.900000000000000400 ) ) ;
#87 = CARTESIAN_POINT ( 'NONE',  ( 7.960204194457796500E-016, 1.000000000000000000, 6.500000000000000900 ) ) ;
#88 = PLANE ( 'NONE',  #186 ) ;
#89 = DIRECTION ( 'NONE',  ( 0.0000000000000000000, 1.000000000000000000, 0.0000000000000000000 ) ) ;
#90 = DIRECTION ( 'NONE',  ( 0.0000000000000000000, -1.000000000000000000, 0.0000000000000000000 ) ) ;
#91 = CARTESIAN_POINT ( 'NONE',  ( 9.674709713264090100E-016, 0.0000000000000000000, 7.900000000000000400 ) ) ;
#92 = CARTESIAN_POINT ( 'NONE',  ( 0.0000000000000000000, 1.000000000000000000, -7.900000000000000400 ) ) ;
#93 = CARTESIAN_POINT ( 'NONE',  ( 0.0000000000000000000, 1.000000000000000000, -6.500000000000000900 ) ) ;
#94 = ORIENTED_EDGE ( 'NONE', *, *, #174, .F. ) ;
#95 = ORIENTED_EDGE ( 'NONE', *, *, #177, .F. ) ;
#96 = ORIENTED_EDGE ( 'NONE', *, *, #176, .T. ) ;
#97 = PRESENTATION_STYLE_ASSIGNMENT (( #29 ) ) ;
#98 = CLOSED_SHELL ( 'NONE', ( #3, #6, #2, #5, #1, #4 ) ) ;
#99 = SURFACE_STYLE_FILL_AREA ( #40 ) ;
#100 = ORIENTED_EDGE ( 'NONE', *, *, #179, .F. ) ;
#101 = CIRCLE ( 'NONE', #195, 7.900000000000000400 ) ;
#102 = COLOUR_RGB ( '',0.0000000000000000000, 0.0000000000000000000, 0.0000000000000000000 ) ;
#103 = CIRCLE ( 'NONE', #192, 7.900000000000000400 ) ;
#104 = CIRCLE ( 'NONE', #191, 6.500000000000000900 ) ;
#105 = ORIENTED_EDGE ( 'NONE', *, *, #194, .F. ) ;
#106 = VECTOR ( 'NONE', #71, 1000.000000000000000 ) ;
#107 = CIRCLE ( 'NONE', #193, 7.900000000000000400 ) ;
#108 = CIRCLE ( 'NONE', #190, 6.500000000000000900 ) ;
#109 = SURFACE_STYLE_FILL_AREA ( #19 ) ;
#110 = LINE ( 'NONE', #64, #106 ) ;
#111 = ORIENTED_EDGE ( 'NONE', *, *, #171, .F. ) ;
#112 = ORIENTED_EDGE ( 'NONE', *, *, #170, .T. ) ;
#113 = VECTOR ( 'NONE', #72, 1000.000000000000000 ) ;
#114 = LINE ( 'NONE', #84, #132 ) ;
#115 = LINE ( 'NONE', #86, #119 ) ;
#116 = CIRCLE ( 'NONE', #187, 6.500000000000000900 ) ;
#117 = LINE ( 'NONE', #87, #113 ) ;
#118 = CYLINDRICAL_SURFACE ( 'NONE', #188, 6.500000000000000900 ) ;
#119 = VECTOR ( 'NONE', #75, 1000.000000000000000 ) ;
#120 = CIRCLE ( 'NONE', #189, 7.900000000000000400 ) ;
#121 = FACE_OUTER_BOUND ( 'NONE', #140, .T. ) ;
#122 = CYLINDRICAL_SURFACE ( 'NONE', #185, 6.500000000000000900 ) ;
#123 = CIRCLE ( 'NONE', #181, 6.500000000000000900 ) ;
#124 = SHAPE_DEFINITION_REPRESENTATION ( #8, #210 ) ;
#125 = CYLINDRICAL_SURFACE ( 'NONE', #184, 7.900000000000000400 ) ;
#126 = FACE_BOUND ( 'NONE', #137, .T. ) ;
#127 = ORIENTED_EDGE ( 'NONE', *, *, #173, .F. ) ;
#128 = CYLINDRICAL_SURFACE ( 'NONE', #183, 7.900000000000000400 ) ;
#129 = FACE_OUTER_BOUND ( 'NONE', #142, .T. ) ;
#130 = FACE_OUTER_BOUND ( 'NONE', #141, .T. ) ;
#131 = FACE_OUTER_BOUND ( 'NONE', #135, .T. ) ;
#132 = VECTOR ( 'NONE', #90, 1000.000000000000000 ) ;
#133 = FACE_OUTER_BOUND ( 'NONE', #139, .T. ) ;
#134 = FACE_BOUND ( 'NONE', #136, .T. ) ;
#135 = EDGE_LOOP ( 'NONE', ( #166, #158, #105, #155 ) ) ;
#136 = EDGE_LOOP ( 'NONE', ( #164, #154 ) ) ;
#137 = EDGE_LOOP ( 'NONE', ( #151, #112 ) ) ;
#138 = EDGE_LOOP ( 'NONE', ( #167, #160 ) ) ;
#139 = EDGE_LOOP ( 'NONE', ( #111, #163, #159, #100 ) ) ;
#140 = EDGE_LOOP ( 'NONE', ( #165, #153 ) ) ;
#141 = EDGE_LOOP ( 'NONE', ( #156, #157, #94, #162 ) ) ;
#142 = EDGE_LOOP ( 'NONE', ( #127, #169, #96, #95 ) ) ;
#143 = VERTEX_POINT ( 'NONE', #93 ) ;
#144 = VERTEX_POINT ( 'NONE', #30 ) ;
#145 = FACE_OUTER_BOUND ( 'NONE', #138, .T. ) ;
#146 = VERTEX_POINT ( 'NONE', #31 ) ;
#147 = VERTEX_POINT ( 'NONE', #74 ) ;
#148 = VERTEX_POINT ( 'NONE', #92 ) ;
#149 = VERTEX_POINT ( 'NONE', #24 ) ;
#150 = VERTEX_POINT ( 'NONE', #91 ) ;
#151 = ORIENTED_EDGE ( 'NONE', *, *, #178, .T. ) ;
#152 = VERTEX_POINT ( 'NONE', #57 ) ;
#153 = ORIENTED_EDGE ( 'NONE', *, *, #175, .T. ) ;
#154 = ORIENTED_EDGE ( 'NONE', *, *, #177, .T. ) ;
#155 = ORIENTED_EDGE ( 'NONE', *, *, #172, .F. ) ;
#156 = ORIENTED_EDGE ( 'NONE', *, *, #170, .F. ) ;
#157 = ORIENTED_EDGE ( 'NONE', *, *, #173, .T. ) ;
#158 = ORIENTED_EDGE ( 'NONE', *, *, #171, .T. ) ;
#159 = ORIENTED_EDGE ( 'NONE', *, *, #172, .T. ) ;
#160 = ORIENTED_EDGE ( 'NONE', *, *, #179, .T. ) ;
#161 = COLOUR_RGB ( '',0.0000000000000000000, 0.0000000000000000000, 0.0000000000000000000 ) ;
#162 = ORIENTED_EDGE ( 'NONE', *, *, #176, .F. ) ;
#163 = ORIENTED_EDGE ( 'NONE', *, *, #180, .F. ) ;
#164 = ORIENTED_EDGE ( 'NONE', *, *, #174, .T. ) ;
#165 = ORIENTED_EDGE ( 'NONE', *, *, #180, .T. ) ;
#166 = ORIENTED_EDGE ( 'NONE', *, *, #175, .F. ) ;
#167 = ORIENTED_EDGE ( 'NONE', *, *, #194, .T. ) ;
#168 = PRESENTATION_STYLE_ASSIGNMENT (( #17 ) ) ;
#169 = ORIENTED_EDGE ( 'NONE', *, *, #178, .F. ) ;
#170 = EDGE_CURVE ( 'NONE', #144, #143, #116, .T. ) ;
#171 = EDGE_CURVE ( 'NONE', #147, #150, #114, .T. ) ;
#172 = EDGE_CURVE ( 'NONE', #148, #149, #115, .T. ) ;
#173 = EDGE_CURVE ( 'NONE', #144, #146, #117, .T. ) ;
#174 = EDGE_CURVE ( 'NONE', #152, #146, #123, .T. ) ;
#175 = EDGE_CURVE ( 'NONE', #147, #148, #120, .T. ) ;
#176 = EDGE_CURVE ( 'NONE', #143, #152, #110, .T. ) ;
#177 = EDGE_CURVE ( 'NONE', #146, #152, #108, .T. ) ;
#178 = EDGE_CURVE ( 'NONE', #143, #144, #104, .T. ) ;
#179 = EDGE_CURVE ( 'NONE', #150, #149, #103, .T. ) ;
#180 = EDGE_CURVE ( 'NONE', #148, #147, #107, .T. ) ;
#181 = AXIS2_PLACEMENT_3D ( 'NONE', #69, #67, #66 ) ;
#182 = AXIS2_PLACEMENT_3D ( 'NONE', #56, #80, #85 ) ;
#183 = AXIS2_PLACEMENT_3D ( 'NONE', #82, #77, #60 ) ;
#184 = AXIS2_PLACEMENT_3D ( 'NONE', #73, #70, #54 ) ;
#185 = AXIS2_PLACEMENT_3D ( 'NONE', #65, #59, #68 ) ;
#186 = AXIS2_PLACEMENT_3D ( 'NONE', #55, #89, #36 ) ;
#187 = AXIS2_PLACEMENT_3D ( 'NONE', #83, #79, #78 ) ;
#188 = AXIS2_PLACEMENT_3D ( 'NONE', #34, #76, #38 ) ;
#189 = AXIS2_PLACEMENT_3D ( 'NONE', #63, #62, #61 ) ;
#190 = AXIS2_PLACEMENT_3D ( 'NONE', #58, #53, #52 ) ;
#191 = AXIS2_PLACEMENT_3D ( 'NONE', #51, #50, #49 ) ;
#192 = AXIS2_PLACEMENT_3D ( 'NONE', #47, #46, #45 ) ;
#193 = AXIS2_PLACEMENT_3D ( 'NONE', #43, #42, #41 ) ;
#194 = EDGE_CURVE ( 'NONE', #149, #150, #101, .T. ) ;
#195 = AXIS2_PLACEMENT_3D ( 'NONE', #37, #35, #33 ) ;
#196 = STYLED_ITEM ( 'NONE', ( #97 ), #213 ) ;
#197 = PRESENTATION_LAYER_ASSIGNMENT (  '', '', ( #196 ) ) ;
#198 = MECHANICAL_DESIGN_GEOMETRIC_PRESENTATION_REPRESENTATION (  '', ( #196 ), #199 ) ;
#199 =( GEOMETRIC_REPRESENTATION_CONTEXT ( 3 ) GLOBAL_UNCERTAINTY_ASSIGNED_CONTEXT ( ( #212 ) ) GLOBAL_UNIT_ASSIGNED_CONTEXT ( ( #28, #27, #26 ) ) REPRESENTATION_CONTEXT ( 'NONE', 'WORKASPACE' ) );
#200 =( GEOMETRIC_REPRESENTATION_CONTEXT ( 3 ) GLOBAL_UNCERTAINTY_ASSIGNED_CONTEXT ( ( #211 ) ) GLOBAL_UNIT_ASSIGNED_CONTEXT ( ( #44, #23, #22 ) ) REPRESENTATION_CONTEXT ( 'NONE', 'WORKASPACE' ) );
#201 = STYLED_ITEM ( 'NONE', ( #168 ), #210 ) ;
#202 = PRESENTATION_LAYER_ASSIGNMENT (  '', '', ( #201 ) ) ;
#203 = PRODUCT_RELATED_PRODUCT_CATEGORY ( 'part', '', ( #214 ) ) ;
#204 = PRODUCT_DEFINITION_FORMATION_WITH_SPECIFIED_SOURCE ( 'TUTTO', '', #214, .NOT_KNOWN. ) ;
#205 = PRODUCT_DEFINITION ( 'NON CONOSCIUTO', '', #204, #7 ) ;
#206 = AXIS2_PLACEMENT_3D ( 'NONE', #12, #11, #10 ) ;
#207 =( GEOMETRIC_REPRESENTATION_CONTEXT ( 3 ) GLOBAL_UNCERTAINTY_ASSIGNED_CONTEXT ( ( #209 ) ) GLOBAL_UNIT_ASSIGNED_CONTEXT ( ( #16, #15, #14 ) ) REPRESENTATION_CONTEXT ( 'NONE', 'WORKASPACE' ) );
#208 = MECHANICAL_DESIGN_GEOMETRIC_PRESENTATION_REPRESENTATION (  '', ( #201 ), #207 ) ;
#209 = UNCERTAINTY_MEASURE_WITH_UNIT (LENGTH_MEASURE( 1.000000000000000100E-005 ), #16, 'distance_accuracy_value', 'NONE');
#210 = ADVANCED_BREP_SHAPE_REPRESENTATION ( '060530025B500A', ( #213, #206 ), #200 ) ;
#211 = UNCERTAINTY_MEASURE_WITH_UNIT (LENGTH_MEASURE( 1.000000000000000100E-005 ), #44, 'distance_accuracy_value', 'NONE');
#212 = UNCERTAINTY_MEASURE_WITH_UNIT (LENGTH_MEASURE( 1.000000000000000100E-005 ), #28, 'distance_accuracy_value', 'NONE');
#213 = MANIFOLD_SOLID_BREP ( 'Importato1', #98 ) ;
#214 = PRODUCT ( '060530025B500A', '060530025B500A', '', ( #9 ) ) ;
ENDSEC;
END-ISO-10303-21;
