ISO-10303-21;
HEADER;
FILE_DESCRIPTION (( 'STEP AP214' ),
    '1' );
FILE_NAME ('EMC-V32-BP.STEP',
    '2020-04-03T14:15:47',
    ( '' ),
    ( '' ),
    'SwSTEP 2.0',
    'SolidWorks 2020',
    '' );
FILE_SCHEMA (( 'AUTOMOTIVE_DESIGN' ));
ENDSEC;

DATA;
#1 = PRODUCT_DEFINITION_SHAPE ( 'NONE', 'NONE',  #223 ) ;
#2 = EDGE_CURVE ( 'NONE', #128, #269, #291, .T. ) ;
#3 = DIRECTION ( 'NONE',  ( -0.0000000000000000000, -1.000000000000000000, -0.0000000000000000000 ) ) ;
#4 = APPLICATION_PROTOCOL_DEFINITION ( 'draft international standard', 'automotive_design', 1998, #117 ) ;
#5 = VECTOR ( 'NONE', #3, 1000.000000000000000 ) ;
#6 = PRESENTATION_LAYER_ASSIGNMENT (  '', '', ( #178 ) ) ;
#7 = ORIENTED_EDGE ( 'NONE', *, *, #214, .T. ) ;
#8 = EDGE_LOOP ( 'NONE', ( #98, #15, #350, #42 ) ) ;
#9 = CARTESIAN_POINT ( 'NONE',  ( 0.0000000000000000000, 0.0000000000000000000, 0.0000000000000000000 ) ) ;
#10 = VERTEX_POINT ( 'NONE', #213 ) ;
#11 = ORIENTED_EDGE ( 'NONE', *, *, #212, .T. ) ;
#12 = ADVANCED_FACE ( 'NONE', ( #345, #109, #216 ), #234, .F. ) ;
#13 = CYLINDRICAL_SURFACE ( 'NONE', #177, 1.699999999999999289 ) ;
#14 = ORIENTED_EDGE ( 'NONE', *, *, #198, .F. ) ;
#15 = ORIENTED_EDGE ( 'NONE', *, *, #254, .F. ) ;
#16 = DIRECTION ( 'NONE',  ( -1.000000000000000000, 0.0000000000000000000, 0.0000000000000000000 ) ) ;
#17 = APPLICATION_CONTEXT ( 'automotive_design' ) ;
#18 = VECTOR ( 'NONE', #139, 1000.000000000000000 ) ;
#19 = EDGE_CURVE ( 'NONE', #62, #228, #83, .T. ) ;
#20 = DIRECTION ( 'NONE',  ( -0.0000000000000000000, -1.000000000000000000, -0.0000000000000000000 ) ) ;
#21 = FACE_BOUND ( 'NONE', #326, .T. ) ;
#22 = PRESENTATION_STYLE_ASSIGNMENT (( #318 ) ) ;
#23 = CARTESIAN_POINT ( 'NONE',  ( 0.0000000000000000000, 2.500000000000000000, -22.00000000000000000 ) ) ;
#24 = FACE_OUTER_BOUND ( 'NONE', #277, .T. ) ;
#25 = ORIENTED_EDGE ( 'NONE', *, *, #138, .T. ) ;
#26 = UNCERTAINTY_MEASURE_WITH_UNIT (LENGTH_MEASURE( 1.000000000000000082E-05 ), #106, 'distance_accuracy_value', 'NONE');
#27 = CARTESIAN_POINT ( 'NONE',  ( 0.0000000000000000000, 0.0000000000000000000, 0.0000000000000000000 ) ) ;
#28 = DIRECTION ( 'NONE',  ( 0.0000000000000000000, 1.000000000000000000, 0.0000000000000000000 ) ) ;
#29 = VERTEX_POINT ( 'NONE', #196 ) ;
#30 = CARTESIAN_POINT ( 'NONE',  ( 6.500000000000000000, 2.500000000000000000, -19.50000000000000000 ) ) ;
#31 = FACE_OUTER_BOUND ( 'NONE', #202, .T. ) ;
#32 = VERTEX_POINT ( 'NONE', #315 ) ;
#33 =( NAMED_UNIT ( * ) PLANE_ANGLE_UNIT ( ) SI_UNIT ( $, .RADIAN. ) );
#34 = CARTESIAN_POINT ( 'NONE',  ( 43.00000000000000000, 0.0000000000000000000, -22.00000000000000000 ) ) ;
#35 = SURFACE_STYLE_USAGE ( .BOTH. , #273 ) ;
#36 = EDGE_CURVE ( 'NONE', #66, #97, #190, .T. ) ;
#37 = LINE ( 'NONE', #307, #346 ) ;
#38 = ADVANCED_BREP_SHAPE_REPRESENTATION ( 'EMC-V32-BP', ( #310, #188 ), #239 ) ;
#39 = CIRCLE ( 'NONE', #338, 1.699999999999999512 ) ;
#40 = EDGE_LOOP ( 'NONE', ( #272, #335, #158, #7 ) ) ;
#41 = ORIENTED_EDGE ( 'NONE', *, *, #331, .F. ) ;
#42 = ORIENTED_EDGE ( 'NONE', *, *, #251, .F. ) ;
#43 = EDGE_CURVE ( 'NONE', #161, #128, #127, .T. ) ;
#44 = DIRECTION ( 'NONE',  ( 1.000000000000000000, 0.0000000000000000000, 0.0000000000000000000 ) ) ;
#45 = ORIENTED_EDGE ( 'NONE', *, *, #90, .T. ) ;
#46 = CARTESIAN_POINT ( 'NONE',  ( 43.00000000000000000, 2.500000000000000000, -22.00000000000000000 ) ) ;
#47 = CARTESIAN_POINT ( 'NONE',  ( 6.500000000000000000, 0.0000000000000000000, -17.80000000000000071 ) ) ;
#48 = DIRECTION ( 'NONE',  ( 0.0000000000000000000, 1.000000000000000000, 0.0000000000000000000 ) ) ;
#49 = CARTESIAN_POINT ( 'NONE',  ( 0.0000000000000000000, 2.500000000000000000, 0.0000000000000000000 ) ) ;
#50 = VECTOR ( 'NONE', #20, 1000.000000000000000 ) ;
#51 = DIRECTION ( 'NONE',  ( -0.0000000000000000000, -1.000000000000000000, -0.0000000000000000000 ) ) ;
#52 = CLOSED_SHELL ( 'NONE', ( #193, #344, #12, #324, #278, #243, #306, #99, #133, #64 ) ) ;
#53 = FACE_BOUND ( 'NONE', #309, .T. ) ;
#54 = DIRECTION ( 'NONE',  ( 0.0000000000000000000, -0.0000000000000000000, -1.000000000000000000 ) ) ;
#55 = CARTESIAN_POINT ( 'NONE',  ( 0.0000000000000000000, 2.500000000000000000, 0.0000000000000000000 ) ) ;
#56 = MECHANICAL_DESIGN_GEOMETRIC_PRESENTATION_REPRESENTATION (  '', ( #178 ), #104 ) ;
#57 = CARTESIAN_POINT ( 'NONE',  ( 43.00000000000000000, 0.0000000000000000000, 0.0000000000000000000 ) ) ;
#58 = EDGE_LOOP ( 'NONE', ( #227, #11, #45, #157 ) ) ;
#59 =( NAMED_UNIT ( * ) PLANE_ANGLE_UNIT ( ) SI_UNIT ( $, .RADIAN. ) );
#60 = ORIENTED_EDGE ( 'NONE', *, *, #232, .T. ) ;
#61 = DIRECTION ( 'NONE',  ( 0.0000000000000000000, 0.0000000000000000000, 1.000000000000000000 ) ) ;
#62 = VERTEX_POINT ( 'NONE', #255 ) ;
#63 = EDGE_LOOP ( 'NONE', ( #305, #229, #312, #171 ) ) ;
#64 = ADVANCED_FACE ( 'NONE', ( #105 ), #199, .F. ) ;
#65 = CARTESIAN_POINT ( 'NONE',  ( 0.0000000000000000000, 2.500000000000000000, 0.0000000000000000000 ) ) ;
#66 = VERTEX_POINT ( 'NONE', #262 ) ;
#67 = AXIS2_PLACEMENT_3D ( 'NONE', #257, #16, #236 ) ;
#68 = STYLED_ITEM ( 'NONE', ( #22 ), #310 ) ;
#69 = DIRECTION ( 'NONE',  ( -0.0000000000000000000, -0.0000000000000000000, 1.000000000000000000 ) ) ;
#70 = EDGE_LOOP ( 'NONE', ( #88, #209 ) ) ;
#71 = EDGE_CURVE ( 'NONE', #10, #221, #39, .T. ) ;
#72 = CARTESIAN_POINT ( 'NONE',  ( 0.0000000000000000000, 2.500000000000000000, -22.00000000000000000 ) ) ;
#73 = EDGE_LOOP ( 'NONE', ( #84, #95, #238, #174 ) ) ;
#74 = DIRECTION ( 'NONE',  ( 1.000000000000000000, 0.0000000000000000000, 0.0000000000000000000 ) ) ;
#75 = CARTESIAN_POINT ( 'NONE',  ( 6.500000000000000000, 2.500000000000000000, -19.50000000000000000 ) ) ;
#76 = LINE ( 'NONE', #192, #204 ) ;
#77 = DIRECTION ( 'NONE',  ( 0.0000000000000000000, -1.000000000000000000, 0.0000000000000000000 ) ) ;
#78 = FACE_OUTER_BOUND ( 'NONE', #130, .T. ) ;
#79 = LINE ( 'NONE', #46, #118 ) ;
#80 = DIRECTION ( 'NONE',  ( -0.0000000000000000000, -1.000000000000000000, -0.0000000000000000000 ) ) ;
#81 = CARTESIAN_POINT ( 'NONE',  ( 36.50000000000000711, 0.0000000000000000000, -4.199999999999999289 ) ) ;
#82 = AXIS2_PLACEMENT_3D ( 'NONE', #143, #296, #149 ) ;
#83 = LINE ( 'NONE', #191, #284 ) ;
#84 = ORIENTED_EDGE ( 'NONE', *, *, #2, .F. ) ;
#85 = ORIENTED_EDGE ( 'NONE', *, *, #36, .T. ) ;
#86 = DIRECTION ( 'NONE',  ( 0.0000000000000000000, 0.0000000000000000000, 1.000000000000000000 ) ) ;
#87 = CIRCLE ( 'NONE', #134, 1.700000000000000178 ) ;
#88 = ORIENTED_EDGE ( 'NONE', *, *, #36, .F. ) ;
#89 = FACE_OUTER_BOUND ( 'NONE', #115, .T. ) ;
#90 = EDGE_CURVE ( 'NONE', #32, #62, #147, .T. ) ;
#91 = PRESENTATION_STYLE_ASSIGNMENT (( #35 ) ) ;
#92 = AXIS2_PLACEMENT_3D ( 'NONE', #55, #217, #135 ) ;
#93 = SURFACE_STYLE_FILL_AREA ( #328 ) ;
#94 = CARTESIAN_POINT ( 'NONE',  ( 6.500000000000000000, 0.0000000000000000000, -19.50000000000000000 ) ) ;
#95 = ORIENTED_EDGE ( 'NONE', *, *, #179, .T. ) ;
#96 = DIRECTION ( 'NONE',  ( -0.0000000000000000000, -1.000000000000000000, -0.0000000000000000000 ) ) ;
#97 = VERTEX_POINT ( 'NONE', #271 ) ;
#98 = ORIENTED_EDGE ( 'NONE', *, *, #138, .F. ) ;
#99 = ADVANCED_FACE ( 'NONE', ( #31 ), #114, .F. ) ;
#100 = VERTEX_POINT ( 'NONE', #201 ) ;
#101 = DIRECTION ( 'NONE',  ( 0.0000000000000000000, 0.0000000000000000000, -1.000000000000000000 ) ) ;
#102 = DIRECTION ( 'NONE',  ( -0.0000000000000000000, -1.000000000000000000, -0.0000000000000000000 ) ) ;
#103 = VECTOR ( 'NONE', #125, 1000.000000000000000 ) ;
#104 =( GEOMETRIC_REPRESENTATION_CONTEXT ( 3 ) GLOBAL_UNCERTAINTY_ASSIGNED_CONTEXT ( ( #329 ) ) GLOBAL_UNIT_ASSIGNED_CONTEXT ( ( #116, #33, #224 ) ) REPRESENTATION_CONTEXT ( 'NONE', 'WORKASPACE' ) );
#105 = FACE_OUTER_BOUND ( 'NONE', #63, .T. ) ;
#106 =( LENGTH_UNIT ( ) NAMED_UNIT ( * ) SI_UNIT ( .MILLI., .METRE. ) );
#107 = LINE ( 'NONE', #72, #150 ) ;
#108 = DIRECTION ( 'NONE',  ( -0.0000000000000000000, -1.000000000000000000, -0.0000000000000000000 ) ) ;
#109 = FACE_BOUND ( 'NONE', #153, .T. ) ;
#110 = AXIS2_PLACEMENT_3D ( 'NONE', #337, #210, #311 ) ;
#111 = EDGE_CURVE ( 'NONE', #263, #169, #220, .T. ) ;
#112 = DIRECTION ( 'NONE',  ( 0.0000000000000000000, 0.0000000000000000000, 1.000000000000000000 ) ) ;
#113 = DIRECTION ( 'NONE',  ( 0.0000000000000000000, -1.000000000000000000, 0.0000000000000000000 ) ) ;
#114 = PLANE ( 'NONE',  #159 ) ;
#115 = EDGE_LOOP ( 'NONE', ( #120, #148, #41, #208 ) ) ;
#116 =( LENGTH_UNIT ( ) NAMED_UNIT ( * ) SI_UNIT ( .MILLI., .METRE. ) );
#117 = APPLICATION_CONTEXT ( 'automotive_design' ) ;
#118 = VECTOR ( 'NONE', #237, 1000.000000000000000 ) ;
#119 = DIRECTION ( 'NONE',  ( 0.0000000000000000000, 0.0000000000000000000, 1.000000000000000000 ) ) ;
#120 = ORIENTED_EDGE ( 'NONE', *, *, #43, .T. ) ;
#121 = SHAPE_DEFINITION_REPRESENTATION ( #1, #38 ) ;
#122 = DIRECTION ( 'NONE',  ( 0.0000000000000000000, 1.000000000000000000, 0.0000000000000000000 ) ) ;
#123 = EDGE_CURVE ( 'NONE', #161, #29, #265, .T. ) ;
#124 = AXIS2_PLACEMENT_3D ( 'NONE', #323, #244, #119 ) ;
#125 = DIRECTION ( 'NONE',  ( -0.0000000000000000000, -0.0000000000000000000, 1.000000000000000000 ) ) ;
#126 = ORIENTED_EDGE ( 'NONE', *, *, #266, .T. ) ;
#127 = CIRCLE ( 'NONE', #275, 1.700000000000000178 ) ;
#128 = VERTEX_POINT ( 'NONE', #330 ) ;
#129 = AXIS2_PLACEMENT_3D ( 'NONE', #230, #211, #279 ) ;
#130 = EDGE_LOOP ( 'NONE', ( #231, #14, #341, #156 ) ) ;
#131 = VECTOR ( 'NONE', #102, 1000.000000000000000 ) ;
#132 = CARTESIAN_POINT ( 'NONE',  ( 0.0000000000000000000, 2.500000000000000000, 0.0000000000000000000 ) ) ;
#133 = ADVANCED_FACE ( 'NONE', ( #299 ), #170, .F. ) ;
#134 = AXIS2_PLACEMENT_3D ( 'NONE', #94, #303, #304 ) ;
#135 = DIRECTION ( 'NONE',  ( 0.0000000000000000000, 0.0000000000000000000, -1.000000000000000000 ) ) ;
#136 =( NAMED_UNIT ( * ) SI_UNIT ( $, .STERADIAN. ) SOLID_ANGLE_UNIT ( ) );
#137 = ORIENTED_EDGE ( 'NONE', *, *, #187, .T. ) ;
#138 = EDGE_CURVE ( 'NONE', #100, #252, #247, .T. ) ;
#139 = DIRECTION ( 'NONE',  ( -0.0000000000000000000, -1.000000000000000000, -0.0000000000000000000 ) ) ;
#140 = DIRECTION ( 'NONE',  ( 0.0000000000000000000, 0.0000000000000000000, -1.000000000000000000 ) ) ;
#141 = DIRECTION ( 'NONE',  ( 0.0000000000000000000, 1.000000000000000000, 0.0000000000000000000 ) ) ;
#142 = VECTOR ( 'NONE', #80, 1000.000000000000000 ) ;
#143 = CARTESIAN_POINT ( 'NONE',  ( 36.50000000000000711, 2.500000000000000000, -2.499999999999998668 ) ) ;
#144 = LINE ( 'NONE', #261, #142 ) ;
#145 = EDGE_CURVE ( 'NONE', #228, #184, #248, .T. ) ;
#146 = CYLINDRICAL_SURFACE ( 'NONE', #332, 1.700000000000000178 ) ;
#147 = LINE ( 'NONE', #176, #166 ) ;
#148 = ORIENTED_EDGE ( 'NONE', *, *, #2, .T. ) ;
#149 = DIRECTION ( 'NONE',  ( 0.0000000000000000000, 0.0000000000000000000, -1.000000000000000000 ) ) ;
#150 = VECTOR ( 'NONE', #51, 1000.000000000000000 ) ;
#151 = FILL_AREA_STYLE_COLOUR ( '', #322 ) ;
#152 = DIRECTION ( 'NONE',  ( 1.000000000000000000, 0.0000000000000000000, -0.0000000000000000000 ) ) ;
#153 = EDGE_LOOP ( 'NONE', ( #340, #267 ) ) ;
#154 = EDGE_CURVE ( 'NONE', #97, #66, #281, .T. ) ;
#155 = DIRECTION ( 'NONE',  ( -0.0000000000000000000, -1.000000000000000000, -0.0000000000000000000 ) ) ;
#156 = ORIENTED_EDGE ( 'NONE', *, *, #294, .T. ) ;
#157 = ORIENTED_EDGE ( 'NONE', *, *, #19, .T. ) ;
#158 = ORIENTED_EDGE ( 'NONE', *, *, #212, .F. ) ;
#159 = AXIS2_PLACEMENT_3D ( 'NONE', #23, #86, #152 ) ;
#160 = LINE ( 'NONE', #162, #327 ) ;
#161 = VERTEX_POINT ( 'NONE', #274 ) ;
#162 = CARTESIAN_POINT ( 'NONE',  ( 0.0000000000000000000, 0.0000000000000000000, -22.00000000000000000 ) ) ;
#163 = DIRECTION ( 'NONE',  ( 0.0000000000000000000, 0.0000000000000000000, 1.000000000000000000 ) ) ;
#164 = PLANE ( 'NONE',  #67 ) ;
#165 = CARTESIAN_POINT ( 'NONE',  ( 36.50000000000000711, 2.500000000000000000, -2.499999999999998668 ) ) ;
#166 = VECTOR ( 'NONE', #349, 1000.000000000000000 ) ;
#167 = EDGE_CURVE ( 'NONE', #97, #10, #37, .T. ) ;
#168 = FILL_AREA_STYLE_COLOUR ( '', #308 ) ;
#169 = VERTEX_POINT ( 'NONE', #34 ) ;
#170 = CYLINDRICAL_SURFACE ( 'NONE', #110, 1.700000000000000178 ) ;
#171 = ORIENTED_EDGE ( 'NONE', *, *, #71, .F. ) ;
#172 = PRODUCT_DEFINITION_CONTEXT ( 'detailed design', #17, 'design' ) ;
#173 = DIRECTION ( 'NONE',  ( 0.0000000000000000000, 0.0000000000000000000, -1.000000000000000000 ) ) ;
#174 = ORIENTED_EDGE ( 'NONE', *, *, #187, .F. ) ;
#175 =( LENGTH_UNIT ( ) NAMED_UNIT ( * ) SI_UNIT ( .MILLI., .METRE. ) );
#176 = CARTESIAN_POINT ( 'NONE',  ( 43.00000000000000000, 2.500000000000000000, 0.0000000000000000000 ) ) ;
#177 = AXIS2_PLACEMENT_3D ( 'NONE', #165, #108, #101 ) ;
#178 = STYLED_ITEM ( 'NONE', ( #91 ), #38 ) ;
#179 = EDGE_CURVE ( 'NONE', #128, #161, #235, .T. ) ;
#180 = FACE_OUTER_BOUND ( 'NONE', #206, .T. ) ;
#181 = AXIS2_PLACEMENT_3D ( 'NONE', #348, #48, #325 ) ;
#182 = UNCERTAINTY_MEASURE_WITH_UNIT (LENGTH_MEASURE( 1.000000000000000082E-05 ), #175, 'distance_accuracy_value', 'NONE');
#183 = CARTESIAN_POINT ( 'NONE',  ( 0.0000000000000000000, 2.500000000000000000, 0.0000000000000000000 ) ) ;
#184 = VERTEX_POINT ( 'NONE', #65 ) ;
#185 = LINE ( 'NONE', #317, #293 ) ;
#186 = ORIENTED_EDGE ( 'NONE', *, *, #232, .F. ) ;
#187 = EDGE_CURVE ( 'NONE', #269, #29, #87, .T. ) ;
#188 = AXIS2_PLACEMENT_3D ( 'NONE', #27, #203, #246 ) ;
#189 = FACE_OUTER_BOUND ( 'NONE', #40, .T. ) ;
#190 = CIRCLE ( 'NONE', #264, 1.699999999999999512 ) ;
#191 = CARTESIAN_POINT ( 'NONE',  ( 0.0000000000000000000, 2.500000000000000000, -22.00000000000000000 ) ) ;
#192 = CARTESIAN_POINT ( 'NONE',  ( 0.0000000000000000000, 2.500000000000000000, 0.0000000000000000000 ) ) ;
#193 = ADVANCED_FACE ( 'NONE', ( #180 ), #13, .F. ) ;
#194 = DIRECTION ( 'NONE',  ( -1.000000000000000000, -0.0000000000000000000, -0.0000000000000000000 ) ) ;
#195 = LINE ( 'NONE', #286, #18 ) ;
#196 = CARTESIAN_POINT ( 'NONE',  ( 6.500000000000000000, 0.0000000000000000000, -21.19999999999999929 ) ) ;
#197 = FACE_OUTER_BOUND ( 'NONE', #8, .T. ) ;
#198 = EDGE_CURVE ( 'NONE', #62, #169, #79, .T. ) ;
#199 = CYLINDRICAL_SURFACE ( 'NONE', #82, 1.699999999999999289 ) ;
#200 = ORIENTED_EDGE ( 'NONE', *, *, #167, .T. ) ;
#201 = CARTESIAN_POINT ( 'NONE',  ( 0.0000000000000000000, 0.0000000000000000000, -22.00000000000000000 ) ) ;
#202 = EDGE_LOOP ( 'NONE', ( #218, #186, #334, #276 ) ) ;
#203 = DIRECTION ( 'NONE',  ( 0.0000000000000000000, 0.0000000000000000000, 1.000000000000000000 ) ) ;
#204 = VECTOR ( 'NONE', #74, 1000.000000000000000 ) ;
#205 = MECHANICAL_DESIGN_GEOMETRIC_PRESENTATION_REPRESENTATION (  '', ( #68 ), #226 ) ;
#206 = EDGE_LOOP ( 'NONE', ( #85, #200, #280, #250 ) ) ;
#207 = ORIENTED_EDGE ( 'NONE', *, *, #214, .F. ) ;
#208 = ORIENTED_EDGE ( 'NONE', *, *, #123, .F. ) ;
#209 = ORIENTED_EDGE ( 'NONE', *, *, #154, .F. ) ;
#210 = DIRECTION ( 'NONE',  ( -0.0000000000000000000, -1.000000000000000000, -0.0000000000000000000 ) ) ;
#211 = DIRECTION ( 'NONE',  ( 0.0000000000000000000, 1.000000000000000000, 0.0000000000000000000 ) ) ;
#212 = EDGE_CURVE ( 'NONE', #184, #32, #76, .T. ) ;
#213 = CARTESIAN_POINT ( 'NONE',  ( 36.50000000000000711, 0.0000000000000000000, -0.7999999999999992673 ) ) ;
#214 = EDGE_CURVE ( 'NONE', #184, #252, #314, .T. ) ;
#215 =( NAMED_UNIT ( * ) PLANE_ANGLE_UNIT ( ) SI_UNIT ( $, .RADIAN. ) );
#216 = FACE_BOUND ( 'NONE', #70, .T. ) ;
#217 = DIRECTION ( 'NONE',  ( 1.000000000000000000, -0.0000000000000000000, 0.0000000000000000000 ) ) ;
#218 = ORIENTED_EDGE ( 'NONE', *, *, #254, .T. ) ;
#219 = DIRECTION ( 'NONE',  ( 0.0000000000000000000, -0.0000000000000000000, -1.000000000000000000 ) ) ;
#220 = LINE ( 'NONE', #57, #222 ) ;
#221 = VERTEX_POINT ( 'NONE', #81 ) ;
#222 = VECTOR ( 'NONE', #173, 1000.000000000000000 ) ;
#223 = PRODUCT_DEFINITION ( 'UNKNOWN', '', #298, #172 ) ;
#224 =( NAMED_UNIT ( * ) SI_UNIT ( $, .STERADIAN. ) SOLID_ANGLE_UNIT ( ) );
#225 = DIRECTION ( 'NONE',  ( 0.0000000000000000000, 0.0000000000000000000, 1.000000000000000000 ) ) ;
#226 =( GEOMETRIC_REPRESENTATION_CONTEXT ( 3 ) GLOBAL_UNCERTAINTY_ASSIGNED_CONTEXT ( ( #26 ) ) GLOBAL_UNIT_ASSIGNED_CONTEXT ( ( #106, #215, #136 ) ) REPRESENTATION_CONTEXT ( 'NONE', 'WORKASPACE' ) );
#227 = ORIENTED_EDGE ( 'NONE', *, *, #145, .T. ) ;
#228 = VERTEX_POINT ( 'NONE', #287 ) ;
#229 = ORIENTED_EDGE ( 'NONE', *, *, #154, .T. ) ;
#230 = CARTESIAN_POINT ( 'NONE',  ( 36.50000000000000711, 2.500000000000000000, -2.499999999999998668 ) ) ;
#231 = ORIENTED_EDGE ( 'NONE', *, *, #111, .T. ) ;
#232 = EDGE_CURVE ( 'NONE', #228, #100, #107, .T. ) ;
#233 = PLANE ( 'NONE',  #297 ) ;
#234 = PLANE ( 'NONE',  #302 ) ;
#235 = CIRCLE ( 'NONE', #321, 1.700000000000000178 ) ;
#236 = DIRECTION ( 'NONE',  ( 0.0000000000000000000, 0.0000000000000000000, 1.000000000000000000 ) ) ;
#237 = DIRECTION ( 'NONE',  ( -0.0000000000000000000, -1.000000000000000000, -0.0000000000000000000 ) ) ;
#238 = ORIENTED_EDGE ( 'NONE', *, *, #123, .T. ) ;
#239 =( GEOMETRIC_REPRESENTATION_CONTEXT ( 3 ) GLOBAL_UNCERTAINTY_ASSIGNED_CONTEXT ( ( #182 ) ) GLOBAL_UNIT_ASSIGNED_CONTEXT ( ( #175, #59, #301 ) ) REPRESENTATION_CONTEXT ( 'NONE', 'WORKASPACE' ) );
#240 = CARTESIAN_POINT ( 'NONE',  ( 0.0000000000000000000, 0.0000000000000000000, 0.0000000000000000000 ) ) ;
#241 = CARTESIAN_POINT ( 'NONE',  ( 36.50000000000000711, 0.0000000000000000000, -2.499999999999998668 ) ) ;
#242 = APPLICATION_PROTOCOL_DEFINITION ( 'draft international standard', 'automotive_design', 1998, #17 ) ;
#243 = ADVANCED_FACE ( 'NONE', ( #189 ), #233, .F. ) ;
#244 = DIRECTION ( 'NONE',  ( 0.0000000000000000000, 1.000000000000000000, 0.0000000000000000000 ) ) ;
#245 = CARTESIAN_POINT ( 'NONE',  ( 6.500000000000000000, 2.500000000000000000, -21.19999999999999929 ) ) ;
#246 = DIRECTION ( 'NONE',  ( 1.000000000000000000, 0.0000000000000000000, 0.0000000000000000000 ) ) ;
#247 = LINE ( 'NONE', #9, #103 ) ;
#248 = LINE ( 'NONE', #183, #258 ) ;
#249 = ORIENTED_EDGE ( 'NONE', *, *, #145, .F. ) ;
#250 = ORIENTED_EDGE ( 'NONE', *, *, #300, .F. ) ;
#251 = EDGE_CURVE ( 'NONE', #252, #263, #185, .T. ) ;
#252 = VERTEX_POINT ( 'NONE', #282 ) ;
#253 = DIRECTION ( 'NONE',  ( -1.000000000000000000, 0.0000000000000000000, -0.0000000000000000000 ) ) ;
#254 = EDGE_CURVE ( 'NONE', #169, #100, #160, .T. ) ;
#255 = CARTESIAN_POINT ( 'NONE',  ( 43.00000000000000000, 2.500000000000000000, -22.00000000000000000 ) ) ;
#256 = PRODUCT ( 'EMC-V32-BP', 'EMC-V32-BP', '', ( #295 ) ) ;
#257 = CARTESIAN_POINT ( 'NONE',  ( 43.00000000000000000, 2.500000000000000000, 0.0000000000000000000 ) ) ;
#258 = VECTOR ( 'NONE', #69, 1000.000000000000000 ) ;
#259 = SURFACE_STYLE_FILL_AREA ( #260 ) ;
#260 = FILL_AREA_STYLE ('',( #168 ) ) ;
#261 = CARTESIAN_POINT ( 'NONE',  ( 43.00000000000000000, 2.500000000000000000, 0.0000000000000000000 ) ) ;
#262 = CARTESIAN_POINT ( 'NONE',  ( 36.50000000000000711, 2.500000000000000000, -4.199999999999999289 ) ) ;
#263 = VERTEX_POINT ( 'NONE', #319 ) ;
#264 = AXIS2_PLACEMENT_3D ( 'NONE', #288, #141, #112 ) ;
#265 = LINE ( 'NONE', #245, #5 ) ;
#266 = EDGE_CURVE ( 'NONE', #221, #10, #343, .T. ) ;
#267 = ORIENTED_EDGE ( 'NONE', *, *, #179, .F. ) ;
#268 = DIRECTION ( 'NONE',  ( 0.0000000000000000000, 0.0000000000000000000, -1.000000000000000000 ) ) ;
#269 = VERTEX_POINT ( 'NONE', #47 ) ;
#270 = CIRCLE ( 'NONE', #124, 1.700000000000000178 ) ;
#271 = CARTESIAN_POINT ( 'NONE',  ( 36.50000000000000711, 2.500000000000000000, -0.7999999999999992673 ) ) ;
#272 = ORIENTED_EDGE ( 'NONE', *, *, #251, .T. ) ;
#273 = SURFACE_SIDE_STYLE ('',( #93 ) ) ;
#274 = CARTESIAN_POINT ( 'NONE',  ( 6.500000000000000000, 2.500000000000000000, -21.19999999999999929 ) ) ;
#275 = AXIS2_PLACEMENT_3D ( 'NONE', #75, #283, #163 ) ;
#276 = ORIENTED_EDGE ( 'NONE', *, *, #198, .T. ) ;
#277 = EDGE_LOOP ( 'NONE', ( #25, #207, #249, #60 ) ) ;
#278 = ADVANCED_FACE ( 'NONE', ( #24 ), #292, .F. ) ;
#279 = DIRECTION ( 'NONE',  ( 0.0000000000000000000, 0.0000000000000000000, 1.000000000000000000 ) ) ;
#280 = ORIENTED_EDGE ( 'NONE', *, *, #266, .F. ) ;
#281 = CIRCLE ( 'NONE', #129, 1.699999999999999512 ) ;
#282 = CARTESIAN_POINT ( 'NONE',  ( 0.0000000000000000000, 0.0000000000000000000, 0.0000000000000000000 ) ) ;
#283 = DIRECTION ( 'NONE',  ( 0.0000000000000000000, 1.000000000000000000, 0.0000000000000000000 ) ) ;
#284 = VECTOR ( 'NONE', #194, 1000.000000000000000 ) ;
#285 = CARTESIAN_POINT ( 'NONE',  ( 0.0000000000000000000, 2.500000000000000000, 0.0000000000000000000 ) ) ;
#286 = CARTESIAN_POINT ( 'NONE',  ( 36.50000000000000711, 2.500000000000000000, -4.199999999999998401 ) ) ;
#287 = CARTESIAN_POINT ( 'NONE',  ( 0.0000000000000000000, 2.500000000000000000, -22.00000000000000000 ) ) ;
#288 = CARTESIAN_POINT ( 'NONE',  ( 36.50000000000000711, 2.500000000000000000, -2.499999999999998668 ) ) ;
#289 = PRODUCT_RELATED_PRODUCT_CATEGORY ( 'part', '', ( #256 ) ) ;
#290 = PLANE ( 'NONE',  #339 ) ;
#291 = LINE ( 'NONE', #320, #131 ) ;
#292 = PLANE ( 'NONE',  #92 ) ;
#293 = VECTOR ( 'NONE', #44, 1000.000000000000000 ) ;
#294 = EDGE_CURVE ( 'NONE', #32, #263, #144, .T. ) ;
#295 = PRODUCT_CONTEXT ( 'NONE', #117, 'mechanical' ) ;
#296 = DIRECTION ( 'NONE',  ( -0.0000000000000000000, -1.000000000000000000, -0.0000000000000000000 ) ) ;
#297 = AXIS2_PLACEMENT_3D ( 'NONE', #132, #140, #253 ) ;
#298 = PRODUCT_DEFINITION_FORMATION_WITH_SPECIFIED_SOURCE ( 'ANY', '', #256, .NOT_KNOWN. ) ;
#299 = FACE_OUTER_BOUND ( 'NONE', #73, .T. ) ;
#300 = EDGE_CURVE ( 'NONE', #66, #221, #195, .T. ) ;
#301 =( NAMED_UNIT ( * ) SI_UNIT ( $, .STERADIAN. ) SOLID_ANGLE_UNIT ( ) );
#302 = AXIS2_PLACEMENT_3D ( 'NONE', #285, #77, #54 ) ;
#303 = DIRECTION ( 'NONE',  ( 0.0000000000000000000, 1.000000000000000000, 0.0000000000000000000 ) ) ;
#304 = DIRECTION ( 'NONE',  ( 0.0000000000000000000, 0.0000000000000000000, 1.000000000000000000 ) ) ;
#305 = ORIENTED_EDGE ( 'NONE', *, *, #167, .F. ) ;
#306 = ADVANCED_FACE ( 'NONE', ( #78 ), #164, .F. ) ;
#307 = CARTESIAN_POINT ( 'NONE',  ( 36.50000000000000711, 2.500000000000000000, -0.7999999999999992673 ) ) ;
#308 = COLOUR_RGB ( '',0.7921568627450980005, 0.8196078431372548767, 0.9333333333333333481 ) ;
#309 = EDGE_LOOP ( 'NONE', ( #126, #313 ) ) ;
#310 = MANIFOLD_SOLID_BREP ( 'Boss-Extrude1', #52 ) ;
#311 = DIRECTION ( 'NONE',  ( 0.0000000000000000000, 0.0000000000000000000, -1.000000000000000000 ) ) ;
#312 = ORIENTED_EDGE ( 'NONE', *, *, #300, .T. ) ;
#313 = ORIENTED_EDGE ( 'NONE', *, *, #71, .T. ) ;
#314 = LINE ( 'NONE', #49, #50 ) ;
#315 = CARTESIAN_POINT ( 'NONE',  ( 43.00000000000000000, 2.500000000000000000, 0.0000000000000000000 ) ) ;
#316 = PRESENTATION_LAYER_ASSIGNMENT (  '', '', ( #68 ) ) ;
#317 = CARTESIAN_POINT ( 'NONE',  ( 0.0000000000000000000, 0.0000000000000000000, 0.0000000000000000000 ) ) ;
#318 = SURFACE_STYLE_USAGE ( .BOTH. , #347 ) ;
#319 = CARTESIAN_POINT ( 'NONE',  ( 43.00000000000000000, 0.0000000000000000000, 0.0000000000000000000 ) ) ;
#320 = CARTESIAN_POINT ( 'NONE',  ( 6.500000000000000000, 2.500000000000000000, -17.80000000000000071 ) ) ;
#321 = AXIS2_PLACEMENT_3D ( 'NONE', #333, #122, #225 ) ;
#322 = COLOUR_RGB ( '',0.7921568627450980005, 0.8196078431372548767, 0.9333333333333333481 ) ;
#323 = CARTESIAN_POINT ( 'NONE',  ( 6.500000000000000000, 0.0000000000000000000, -19.50000000000000000 ) ) ;
#324 = ADVANCED_FACE ( 'NONE', ( #21, #197, #53 ), #290, .T. ) ;
#325 = DIRECTION ( 'NONE',  ( 0.0000000000000000000, 0.0000000000000000000, 1.000000000000000000 ) ) ;
#326 = EDGE_LOOP ( 'NONE', ( #336, #137 ) ) ;
#327 = VECTOR ( 'NONE', #342, 1000.000000000000000 ) ;
#328 = FILL_AREA_STYLE ('',( #151 ) ) ;
#329 = UNCERTAINTY_MEASURE_WITH_UNIT (LENGTH_MEASURE( 1.000000000000000082E-05 ), #116, 'distance_accuracy_value', 'NONE');
#330 = CARTESIAN_POINT ( 'NONE',  ( 6.500000000000000000, 2.500000000000000000, -17.80000000000000071 ) ) ;
#331 = EDGE_CURVE ( 'NONE', #29, #269, #270, .T. ) ;
#332 = AXIS2_PLACEMENT_3D ( 'NONE', #30, #155, #268 ) ;
#333 = CARTESIAN_POINT ( 'NONE',  ( 6.500000000000000000, 2.500000000000000000, -19.50000000000000000 ) ) ;
#334 = ORIENTED_EDGE ( 'NONE', *, *, #19, .F. ) ;
#335 = ORIENTED_EDGE ( 'NONE', *, *, #294, .F. ) ;
#336 = ORIENTED_EDGE ( 'NONE', *, *, #331, .T. ) ;
#337 = CARTESIAN_POINT ( 'NONE',  ( 6.500000000000000000, 2.500000000000000000, -19.50000000000000000 ) ) ;
#338 = AXIS2_PLACEMENT_3D ( 'NONE', #241, #28, #61 ) ;
#339 = AXIS2_PLACEMENT_3D ( 'NONE', #240, #113, #219 ) ;
#340 = ORIENTED_EDGE ( 'NONE', *, *, #43, .F. ) ;
#341 = ORIENTED_EDGE ( 'NONE', *, *, #90, .F. ) ;
#342 = DIRECTION ( 'NONE',  ( -1.000000000000000000, -0.0000000000000000000, -0.0000000000000000000 ) ) ;
#343 = CIRCLE ( 'NONE', #181, 1.699999999999999512 ) ;
#344 = ADVANCED_FACE ( 'NONE', ( #89 ), #146, .F. ) ;
#345 = FACE_OUTER_BOUND ( 'NONE', #58, .T. ) ;
#346 = VECTOR ( 'NONE', #96, 1000.000000000000000 ) ;
#347 = SURFACE_SIDE_STYLE ('',( #259 ) ) ;
#348 = CARTESIAN_POINT ( 'NONE',  ( 36.50000000000000711, 0.0000000000000000000, -2.499999999999998668 ) ) ;
#349 = DIRECTION ( 'NONE',  ( 0.0000000000000000000, 0.0000000000000000000, -1.000000000000000000 ) ) ;
#350 = ORIENTED_EDGE ( 'NONE', *, *, #111, .F. ) ;
ENDSEC;
END-ISO-10303-21;
