ISO-10303-21;
HEADER;
FILE_DESCRIPTION (( 'STEP AP214' ),
    '1' );
FILE_NAME ('EMC-V33-BP.STEP',
    '2020-04-03T14:21:31',
    ( '' ),
    ( '' ),
    'SwSTEP 2.0',
    'SolidWorks 2020',
    '' );
FILE_SCHEMA (( 'AUTOMOTIVE_DESIGN' ));
ENDSEC;

DATA;
#1 = DIRECTION ( 'NONE',  ( 0.0000000000000000000, 0.0000000000000000000, -1.000000000000000000 ) ) ;
#2 = ADVANCED_FACE ( 'NONE', ( #161 ), #241, .F. ) ;
#3 = SHAPE_DEFINITION_REPRESENTATION ( #118, #257 ) ;
#4 = FACE_BOUND ( 'NONE', #256, .T. ) ;
#5 = AXIS2_PLACEMENT_3D ( 'NONE', #87, #278, #31 ) ;
#6 = CARTESIAN_POINT ( 'NONE',  ( 50.00000000000000000, 0.0000000000000000000, 0.0000000000000000000 ) ) ;
#7 = ADVANCED_FACE ( 'NONE', ( #158, #267, #245 ), #109, .T. ) ;
#8 = DIRECTION ( 'NONE',  ( -0.0000000000000000000, -1.000000000000000000, -0.0000000000000000000 ) ) ;
#9 = ORIENTED_EDGE ( 'NONE', *, *, #185, .T. ) ;
#10 =( GEOMETRIC_REPRESENTATION_CONTEXT ( 3 ) GLOBAL_UNCERTAINTY_ASSIGNED_CONTEXT ( ( #196 ) ) GLOBAL_UNIT_ASSIGNED_CONTEXT ( ( #130, #155, #105 ) ) REPRESENTATION_CONTEXT ( 'NONE', 'WORKASPACE' ) );
#11 = CARTESIAN_POINT ( 'NONE',  ( 7.500000000000000000, 2.500000000000000000, -21.80000000000000071 ) ) ;
#12 = ORIENTED_EDGE ( 'NONE', *, *, #221, .T. ) ;
#13 = EDGE_CURVE ( 'NONE', #191, #77, #349, .T. ) ;
#14 = CARTESIAN_POINT ( 'NONE',  ( 0.0000000000000000000, 2.500000000000000000, 0.0000000000000000000 ) ) ;
#15 = ORIENTED_EDGE ( 'NONE', *, *, #275, .F. ) ;
#16 = FILL_AREA_STYLE_COLOUR ( '', #39 ) ;
#17 = ORIENTED_EDGE ( 'NONE', *, *, #91, .T. ) ;
#18 = VECTOR ( 'NONE', #131, 1000.000000000000000 ) ;
#19 = DIRECTION ( 'NONE',  ( 0.0000000000000000000, 1.000000000000000000, 0.0000000000000000000 ) ) ;
#20 = AXIS2_PLACEMENT_3D ( 'NONE', #344, #212, #170 ) ;
#21 = UNCERTAINTY_MEASURE_WITH_UNIT (LENGTH_MEASURE( 1.000000000000000082E-05 ), #140, 'distance_accuracy_value', 'NONE');
#22 = SURFACE_STYLE_FILL_AREA ( #106 ) ;
#23 = CARTESIAN_POINT ( 'NONE',  ( 42.50000000000000000, 2.500000000000000000, -5.199999999999999289 ) ) ;
#24 = EDGE_LOOP ( 'NONE', ( #103, #94, #207, #264 ) ) ;
#25 = DIRECTION ( 'NONE',  ( 0.0000000000000000000, 0.0000000000000000000, -1.000000000000000000 ) ) ;
#26 = DIRECTION ( 'NONE',  ( 0.0000000000000000000, -1.000000000000000000, 0.0000000000000000000 ) ) ;
#27 = EDGE_LOOP ( 'NONE', ( #46, #9 ) ) ;
#28 = APPLICATION_CONTEXT ( 'automotive_design' ) ;
#29 = CARTESIAN_POINT ( 'NONE',  ( 0.0000000000000000000, 2.500000000000000000, 0.0000000000000000000 ) ) ;
#30 = LINE ( 'NONE', #197, #277 ) ;
#31 = DIRECTION ( 'NONE',  ( 0.0000000000000000000, 0.0000000000000000000, 1.000000000000000000 ) ) ;
#32 = AXIS2_PLACEMENT_3D ( 'NONE', #47, #156, #274 ) ;
#33 = MANIFOLD_SOLID_BREP ( 'Boss-Extrude1', #249 ) ;
#34 = AXIS2_PLACEMENT_3D ( 'NONE', #65, #255, #288 ) ;
#35 = CYLINDRICAL_SURFACE ( 'NONE', #167, 1.699999999999999289 ) ;
#36 = SURFACE_STYLE_USAGE ( .BOTH. , #303 ) ;
#37 = DIRECTION ( 'NONE',  ( 0.0000000000000000000, 1.000000000000000000, 0.0000000000000000000 ) ) ;
#38 = EDGE_LOOP ( 'NONE', ( #79, #73 ) ) ;
#39 = COLOUR_RGB ( '',0.7921568627450980005, 0.8196078431372548767, 0.9333333333333333481 ) ;
#40 = CARTESIAN_POINT ( 'NONE',  ( 7.500000000000000000, 2.500000000000000000, -23.50000000000000000 ) ) ;
#41 = LINE ( 'NONE', #291, #84 ) ;
#42 = VERTEX_POINT ( 'NONE', #248 ) ;
#43 = CARTESIAN_POINT ( 'NONE',  ( 7.500000000000000000, 0.0000000000000000000, -23.50000000000000000 ) ) ;
#44 = ORIENTED_EDGE ( 'NONE', *, *, #234, .T. ) ;
#45 = EDGE_CURVE ( 'NONE', #68, #164, #113, .T. ) ;
#46 = ORIENTED_EDGE ( 'NONE', *, *, #319, .T. ) ;
#47 = CARTESIAN_POINT ( 'NONE',  ( 0.0000000000000000000, 2.500000000000000000, 0.0000000000000000000 ) ) ;
#48 = DIRECTION ( 'NONE',  ( 0.0000000000000000000, 0.0000000000000000000, -1.000000000000000000 ) ) ;
#49 = ORIENTED_EDGE ( 'NONE', *, *, #162, .F. ) ;
#50 = COLOUR_RGB ( '',0.7921568627450980005, 0.8196078431372548767, 0.9333333333333333481 ) ;
#51 = DIRECTION ( 'NONE',  ( 0.0000000000000000000, 0.0000000000000000000, 1.000000000000000000 ) ) ;
#52 = EDGE_CURVE ( 'NONE', #135, #287, #121, .T. ) ;
#53 = ORIENTED_EDGE ( 'NONE', *, *, #225, .F. ) ;
#54 =( NAMED_UNIT ( * ) SI_UNIT ( $, .STERADIAN. ) SOLID_ANGLE_UNIT ( ) );
#55 = EDGE_LOOP ( 'NONE', ( #111, #202 ) ) ;
#56 = FACE_OUTER_BOUND ( 'NONE', #24, .T. ) ;
#57 = CARTESIAN_POINT ( 'NONE',  ( 7.500000000000000000, 2.500000000000000000, -23.50000000000000000 ) ) ;
#58 = ADVANCED_FACE ( 'NONE', ( #56 ), #329, .F. ) ;
#59 = DIRECTION ( 'NONE',  ( -0.0000000000000000000, -1.000000000000000000, -0.0000000000000000000 ) ) ;
#60 = FACE_OUTER_BOUND ( 'NONE', #336, .T. ) ;
#61 = DIRECTION ( 'NONE',  ( 0.0000000000000000000, 0.0000000000000000000, 1.000000000000000000 ) ) ;
#62 = CARTESIAN_POINT ( 'NONE',  ( 0.0000000000000000000, 2.500000000000000000, 0.0000000000000000000 ) ) ;
#63 = ORIENTED_EDGE ( 'NONE', *, *, #313, .T. ) ;
#64 = CIRCLE ( 'NONE', #5, 1.699999999999999512 ) ;
#65 = CARTESIAN_POINT ( 'NONE',  ( 7.500000000000000000, 2.500000000000000000, -23.50000000000000000 ) ) ;
#66 = CARTESIAN_POINT ( 'NONE',  ( 0.0000000000000000000, 2.500000000000000000, -27.00000000000000000 ) ) ;
#67 = EDGE_CURVE ( 'NONE', #123, #77, #174, .T. ) ;
#68 = VERTEX_POINT ( 'NONE', #350 ) ;
#69 = DIRECTION ( 'NONE',  ( -0.0000000000000000000, -0.0000000000000000000, 1.000000000000000000 ) ) ;
#70 = AXIS2_PLACEMENT_3D ( 'NONE', #330, #251, #115 ) ;
#71 = CIRCLE ( 'NONE', #342, 1.699999999999999512 ) ;
#72 = ORIENTED_EDGE ( 'NONE', *, *, #260, .F. ) ;
#73 = ORIENTED_EDGE ( 'NONE', *, *, #180, .F. ) ;
#74 = PRODUCT_RELATED_PRODUCT_CATEGORY ( 'part', '', ( #169 ) ) ;
#75 = EDGE_LOOP ( 'NONE', ( #276, #127, #347, #101 ) ) ;
#76 = CARTESIAN_POINT ( 'NONE',  ( 42.50000000000000000, 2.500000000000000000, -3.499999999999999556 ) ) ;
#77 = VERTEX_POINT ( 'NONE', #171 ) ;
#78 = SURFACE_SIDE_STYLE ('',( #244 ) ) ;
#79 = ORIENTED_EDGE ( 'NONE', *, *, #340, .F. ) ;
#80 = ADVANCED_FACE ( 'NONE', ( #142 ), #83, .F. ) ;
#81 = CARTESIAN_POINT ( 'NONE',  ( 42.50000000000000000, 0.0000000000000000000, -3.499999999999999556 ) ) ;
#82 =( GEOMETRIC_REPRESENTATION_CONTEXT ( 3 ) GLOBAL_UNCERTAINTY_ASSIGNED_CONTEXT ( ( #21 ) ) GLOBAL_UNIT_ASSIGNED_CONTEXT ( ( #140, #117, #220 ) ) REPRESENTATION_CONTEXT ( 'NONE', 'WORKASPACE' ) );
#83 = PLANE ( 'NONE',  #70 ) ;
#84 = VECTOR ( 'NONE', #8, 1000.000000000000000 ) ;
#85 = DIRECTION ( 'NONE',  ( -1.000000000000000000, -0.0000000000000000000, -0.0000000000000000000 ) ) ;
#86 = DIRECTION ( 'NONE',  ( -0.0000000000000000000, -1.000000000000000000, -0.0000000000000000000 ) ) ;
#87 = CARTESIAN_POINT ( 'NONE',  ( 42.50000000000000000, 0.0000000000000000000, -3.499999999999999556 ) ) ;
#88 = VECTOR ( 'NONE', #228, 1000.000000000000000 ) ;
#89 = CARTESIAN_POINT ( 'NONE',  ( 42.50000000000000000, 0.0000000000000000000, -5.200000000000000178 ) ) ;
#90 = ORIENTED_EDGE ( 'NONE', *, *, #151, .T. ) ;
#91 = EDGE_CURVE ( 'NONE', #217, #283, #30, .T. ) ;
#92 = ORIENTED_EDGE ( 'NONE', *, *, #340, .T. ) ;
#93 = FACE_OUTER_BOUND ( 'NONE', #323, .T. ) ;
#94 = ORIENTED_EDGE ( 'NONE', *, *, #13, .F. ) ;
#95 = STYLED_ITEM ( 'NONE', ( #326 ), #33 ) ;
#96 = AXIS2_PLACEMENT_3D ( 'NONE', #339, #19, #237 ) ;
#97 = ADVANCED_FACE ( 'NONE', ( #307 ), #175, .F. ) ;
#98 = CARTESIAN_POINT ( 'NONE',  ( 50.00000000000000000, 2.500000000000000000, -27.00000000000000000 ) ) ;
#99 = EDGE_LOOP ( 'NONE', ( #320, #17, #125, #15 ) ) ;
#100 = LINE ( 'NONE', #208, #285 ) ;
#101 = ORIENTED_EDGE ( 'NONE', *, *, #45, .F. ) ;
#102 = CARTESIAN_POINT ( 'NONE',  ( 42.50000000000000000, 2.500000000000000000, -3.499999999999999556 ) ) ;
#103 = ORIENTED_EDGE ( 'NONE', *, *, #67, .T. ) ;
#104 = VECTOR ( 'NONE', #247, 1000.000000000000000 ) ;
#105 =( NAMED_UNIT ( * ) SI_UNIT ( $, .STERADIAN. ) SOLID_ANGLE_UNIT ( ) );
#106 = FILL_AREA_STYLE ('',( #325 ) ) ;
#107 = EDGE_CURVE ( 'NONE', #182, #191, #224, .T. ) ;
#108 = PRODUCT_DEFINITION_CONTEXT ( 'detailed design', #28, 'design' ) ;
#109 = PLANE ( 'NONE',  #239 ) ;
#110 = FACE_OUTER_BOUND ( 'NONE', #318, .T. ) ;
#111 = ORIENTED_EDGE ( 'NONE', *, *, #141, .T. ) ;
#112 = CARTESIAN_POINT ( 'NONE',  ( 42.50000000000000000, 2.500000000000000000, -5.200000000000000178 ) ) ;
#113 = LINE ( 'NONE', #114, #284 ) ;
#114 = CARTESIAN_POINT ( 'NONE',  ( 0.0000000000000000000, 0.0000000000000000000, 0.0000000000000000000 ) ) ;
#115 = DIRECTION ( 'NONE',  ( 0.0000000000000000000, 0.0000000000000000000, 1.000000000000000000 ) ) ;
#116 = ADVANCED_FACE ( 'NONE', ( #60 ), #35, .F. ) ;
#117 =( NAMED_UNIT ( * ) PLANE_ANGLE_UNIT ( ) SI_UNIT ( $, .RADIAN. ) );
#118 = PRODUCT_DEFINITION_SHAPE ( 'NONE', 'NONE',  #346 ) ;
#119 = CARTESIAN_POINT ( 'NONE',  ( 42.50000000000000000, 2.500000000000000000, -3.499999999999999556 ) ) ;
#120 = CARTESIAN_POINT ( 'NONE',  ( 0.0000000000000000000, 0.0000000000000000000, 0.0000000000000000000 ) ) ;
#121 = CIRCLE ( 'NONE', #199, 1.699999999999999512 ) ;
#122 = FACE_BOUND ( 'NONE', #38, .T. ) ;
#123 = VERTEX_POINT ( 'NONE', #139 ) ;
#124 = LINE ( 'NONE', #149, #159 ) ;
#125 = ORIENTED_EDGE ( 'NONE', *, *, #319, .F. ) ;
#126 = CARTESIAN_POINT ( 'NONE',  ( 50.00000000000000000, 2.500000000000000000, 0.0000000000000000000 ) ) ;
#127 = ORIENTED_EDGE ( 'NONE', *, *, #67, .F. ) ;
#128 = PRODUCT_DEFINITION_FORMATION_WITH_SPECIFIED_SOURCE ( 'ANY', '', #169, .NOT_KNOWN. ) ;
#129 = CARTESIAN_POINT ( 'NONE',  ( 50.00000000000000000, 2.500000000000000000, 0.0000000000000000000 ) ) ;
#130 =( LENGTH_UNIT ( ) NAMED_UNIT ( * ) SI_UNIT ( .MILLI., .METRE. ) );
#131 = DIRECTION ( 'NONE',  ( -0.0000000000000000000, -1.000000000000000000, -0.0000000000000000000 ) ) ;
#132 = AXIS2_PLACEMENT_3D ( 'NONE', #57, #198, #1 ) ;
#133 = VECTOR ( 'NONE', #69, 1000.000000000000000 ) ;
#134 = ORIENTED_EDGE ( 'NONE', *, *, #154, .F. ) ;
#135 = VERTEX_POINT ( 'NONE', #332 ) ;
#136 = DIRECTION ( 'NONE',  ( 0.0000000000000000000, -0.0000000000000000000, -1.000000000000000000 ) ) ;
#137 = CIRCLE ( 'NONE', #210, 1.700000000000000178 ) ;
#138 = ORIENTED_EDGE ( 'NONE', *, *, #107, .T. ) ;
#139 = CARTESIAN_POINT ( 'NONE',  ( 50.00000000000000000, 0.0000000000000000000, -27.00000000000000000 ) ) ;
#140 =( LENGTH_UNIT ( ) NAMED_UNIT ( * ) SI_UNIT ( .MILLI., .METRE. ) );
#141 = EDGE_CURVE ( 'NONE', #287, #135, #64, .T. ) ;
#142 = FACE_OUTER_BOUND ( 'NONE', #219, .T. ) ;
#143 = MECHANICAL_DESIGN_GEOMETRIC_PRESENTATION_REPRESENTATION (  '', ( #299 ), #10 ) ;
#144 = EDGE_CURVE ( 'NONE', #345, #259, #281, .T. ) ;
#145 = LINE ( 'NONE', #253, #88 ) ;
#146 = DIRECTION ( 'NONE',  ( 0.0000000000000000000, 0.0000000000000000000, 1.000000000000000000 ) ) ;
#147 = VECTOR ( 'NONE', #311, 1000.000000000000000 ) ;
#148 = DIRECTION ( 'NONE',  ( 0.0000000000000000000, 1.000000000000000000, 0.0000000000000000000 ) ) ;
#149 = CARTESIAN_POINT ( 'NONE',  ( 0.0000000000000000000, 2.500000000000000000, 0.0000000000000000000 ) ) ;
#150 = ORIENTED_EDGE ( 'NONE', *, *, #242, .T. ) ;
#151 = EDGE_CURVE ( 'NONE', #164, #123, #282, .T. ) ;
#152 = CARTESIAN_POINT ( 'NONE',  ( 50.00000000000000000, 0.0000000000000000000, 0.0000000000000000000 ) ) ;
#153 = ORIENTED_EDGE ( 'NONE', *, *, #221, .F. ) ;
#154 = EDGE_CURVE ( 'NONE', #217, #166, #327, .T. ) ;
#155 =( NAMED_UNIT ( * ) PLANE_ANGLE_UNIT ( ) SI_UNIT ( $, .RADIAN. ) );
#156 = DIRECTION ( 'NONE',  ( 1.000000000000000000, -0.0000000000000000000, 0.0000000000000000000 ) ) ;
#157 = FILL_AREA_STYLE ('',( #16 ) ) ;
#158 = FACE_BOUND ( 'NONE', #27, .T. ) ;
#159 = VECTOR ( 'NONE', #177, 1000.000000000000000 ) ;
#160 = CARTESIAN_POINT ( 'NONE',  ( 0.0000000000000000000, 2.500000000000000000, 0.0000000000000000000 ) ) ;
#161 = FACE_OUTER_BOUND ( 'NONE', #193, .T. ) ;
#162 = EDGE_CURVE ( 'NONE', #42, #135, #286, .T. ) ;
#163 = APPLICATION_PROTOCOL_DEFINITION ( 'draft international standard', 'automotive_design', 1998, #231 ) ;
#164 = VERTEX_POINT ( 'NONE', #152 ) ;
#165 = PRODUCT_CONTEXT ( 'NONE', #231, 'mechanical' ) ;
#166 = VERTEX_POINT ( 'NONE', #229 ) ;
#167 = AXIS2_PLACEMENT_3D ( 'NONE', #119, #59, #200 ) ;
#168 = DIRECTION ( 'NONE',  ( 1.000000000000000000, 0.0000000000000000000, 0.0000000000000000000 ) ) ;
#169 = PRODUCT ( 'EMC-V33-BP', 'EMC-V33-BP', '', ( #165 ) ) ;
#170 = DIRECTION ( 'NONE',  ( 1.000000000000000000, 0.0000000000000000000, 0.0000000000000000000 ) ) ;
#171 = CARTESIAN_POINT ( 'NONE',  ( 0.0000000000000000000, 0.0000000000000000000, -27.00000000000000000 ) ) ;
#172 = VECTOR ( 'NONE', #306, 1000.000000000000000 ) ;
#173 = AXIS2_PLACEMENT_3D ( 'NONE', #43, #37, #146 ) ;
#174 = LINE ( 'NONE', #280, #322 ) ;
#175 = CYLINDRICAL_SURFACE ( 'NONE', #132, 1.700000000000000178 ) ;
#176 = ORIENTED_EDGE ( 'NONE', *, *, #260, .T. ) ;
#177 = DIRECTION ( 'NONE',  ( -0.0000000000000000000, -1.000000000000000000, -0.0000000000000000000 ) ) ;
#178 = AXIS2_PLACEMENT_3D ( 'NONE', #40, #148, #181 ) ;
#179 = ORIENTED_EDGE ( 'NONE', *, *, #275, .T. ) ;
#180 = EDGE_CURVE ( 'NONE', #42, #302, #250, .T. ) ;
#181 = DIRECTION ( 'NONE',  ( 0.0000000000000000000, 0.0000000000000000000, 1.000000000000000000 ) ) ;
#182 = VERTEX_POINT ( 'NONE', #98 ) ;
#183 = FACE_OUTER_BOUND ( 'NONE', #99, .T. ) ;
#184 = DIRECTION ( 'NONE',  ( 0.0000000000000000000, -1.000000000000000000, 0.0000000000000000000 ) ) ;
#185 = EDGE_CURVE ( 'NONE', #283, #338, #263, .T. ) ;
#186 = DIRECTION ( 'NONE',  ( -0.0000000000000000000, -1.000000000000000000, -0.0000000000000000000 ) ) ;
#187 = EDGE_LOOP ( 'NONE', ( #295, #341, #179, #188 ) ) ;
#188 = ORIENTED_EDGE ( 'NONE', *, *, #185, .F. ) ;
#189 = CIRCLE ( 'NONE', #96, 1.700000000000000178 ) ;
#190 = DIRECTION ( 'NONE',  ( 0.0000000000000000000, 1.000000000000000000, 0.0000000000000000000 ) ) ;
#191 = VERTEX_POINT ( 'NONE', #66 ) ;
#192 = DIRECTION ( 'NONE',  ( 0.0000000000000000000, 0.0000000000000000000, 1.000000000000000000 ) ) ;
#193 = EDGE_LOOP ( 'NONE', ( #44, #53, #153, #297 ) ) ;
#194 = DIRECTION ( 'NONE',  ( 0.0000000000000000000, 0.0000000000000000000, 1.000000000000000000 ) ) ;
#195 = VECTOR ( 'NONE', #201, 1000.000000000000000 ) ;
#196 = UNCERTAINTY_MEASURE_WITH_UNIT (LENGTH_MEASURE( 1.000000000000000082E-05 ), #130, 'distance_accuracy_value', 'NONE');
#197 = CARTESIAN_POINT ( 'NONE',  ( 7.500000000000000000, 2.500000000000000000, -21.80000000000000071 ) ) ;
#198 = DIRECTION ( 'NONE',  ( -0.0000000000000000000, -1.000000000000000000, -0.0000000000000000000 ) ) ;
#199 = AXIS2_PLACEMENT_3D ( 'NONE', #81, #226, #194 ) ;
#200 = DIRECTION ( 'NONE',  ( 0.0000000000000000000, 0.0000000000000000000, -1.000000000000000000 ) ) ;
#201 = DIRECTION ( 'NONE',  ( 0.0000000000000000000, 0.0000000000000000000, -1.000000000000000000 ) ) ;
#202 = ORIENTED_EDGE ( 'NONE', *, *, #52, .T. ) ;
#203 = CARTESIAN_POINT ( 'NONE',  ( 0.0000000000000000000, 2.500000000000000000, 0.0000000000000000000 ) ) ;
#204 = ADVANCED_FACE ( 'NONE', ( #183 ), #290, .F. ) ;
#205 = LINE ( 'NONE', #120, #147 ) ;
#206 = ORIENTED_EDGE ( 'NONE', *, *, #242, .F. ) ;
#207 = ORIENTED_EDGE ( 'NONE', *, *, #107, .F. ) ;
#208 = CARTESIAN_POINT ( 'NONE',  ( 50.00000000000000000, 2.500000000000000000, -27.00000000000000000 ) ) ;
#209 = ORIENTED_EDGE ( 'NONE', *, *, #162, .T. ) ;
#210 = AXIS2_PLACEMENT_3D ( 'NONE', #316, #190, #51 ) ;
#211 = ORIENTED_EDGE ( 'NONE', *, *, #331, .F. ) ;
#212 = DIRECTION ( 'NONE',  ( 0.0000000000000000000, 0.0000000000000000000, 1.000000000000000000 ) ) ;
#213 = CARTESIAN_POINT ( 'NONE',  ( 0.0000000000000000000, 0.0000000000000000000, 0.0000000000000000000 ) ) ;
#214 = ADVANCED_FACE ( 'NONE', ( #93, #4, #122 ), #262, .F. ) ;
#215 = DIRECTION ( 'NONE',  ( -1.000000000000000000, 0.0000000000000000000, -0.0000000000000000000 ) ) ;
#216 = UNCERTAINTY_MEASURE_WITH_UNIT (LENGTH_MEASURE( 1.000000000000000082E-05 ), #266, 'distance_accuracy_value', 'NONE');
#217 = VERTEX_POINT ( 'NONE', #11 ) ;
#218 = AXIS2_PLACEMENT_3D ( 'NONE', #203, #184, #334 ) ;
#219 = EDGE_LOOP ( 'NONE', ( #90, #269, #72, #150 ) ) ;
#220 =( NAMED_UNIT ( * ) SI_UNIT ( $, .STERADIAN. ) SOLID_ANGLE_UNIT ( ) );
#221 = EDGE_CURVE ( 'NONE', #191, #345, #235, .T. ) ;
#222 = CARTESIAN_POINT ( 'NONE',  ( 0.0000000000000000000, 2.500000000000000000, -27.00000000000000000 ) ) ;
#223 = APPLICATION_PROTOCOL_DEFINITION ( 'draft international standard', 'automotive_design', 1998, #28 ) ;
#224 = LINE ( 'NONE', #305, #172 ) ;
#225 = EDGE_CURVE ( 'NONE', #345, #68, #124, .T. ) ;
#226 = DIRECTION ( 'NONE',  ( 0.0000000000000000000, 1.000000000000000000, 0.0000000000000000000 ) ) ;
#227 = VECTOR ( 'NONE', #240, 1000.000000000000000 ) ;
#228 = DIRECTION ( 'NONE',  ( -0.0000000000000000000, -1.000000000000000000, -0.0000000000000000000 ) ) ;
#229 = CARTESIAN_POINT ( 'NONE',  ( 7.500000000000000000, 2.500000000000000000, -25.19999999999999929 ) ) ;
#230 = ORIENTED_EDGE ( 'NONE', *, *, #225, .T. ) ;
#231 = APPLICATION_CONTEXT ( 'automotive_design' ) ;
#232 = LINE ( 'NONE', #129, #246 ) ;
#233 = ORIENTED_EDGE ( 'NONE', *, *, #45, .T. ) ;
#234 = EDGE_CURVE ( 'NONE', #77, #68, #205, .T. ) ;
#235 = LINE ( 'NONE', #62, #133 ) ;
#236 = FACE_OUTER_BOUND ( 'NONE', #238, .T. ) ;
#237 = DIRECTION ( 'NONE',  ( 0.0000000000000000000, 0.0000000000000000000, 1.000000000000000000 ) ) ;
#238 = EDGE_LOOP ( 'NONE', ( #92, #209, #312, #273 ) ) ;
#239 = AXIS2_PLACEMENT_3D ( 'NONE', #213, #26, #136 ) ;
#240 = DIRECTION ( 'NONE',  ( -0.0000000000000000000, -1.000000000000000000, -0.0000000000000000000 ) ) ;
#241 = PLANE ( 'NONE',  #32 ) ;
#242 = EDGE_CURVE ( 'NONE', #259, #164, #41, .T. ) ;
#243 = ORIENTED_EDGE ( 'NONE', *, *, #52, .F. ) ;
#244 = SURFACE_STYLE_FILL_AREA ( #157 ) ;
#245 = FACE_BOUND ( 'NONE', #55, .T. ) ;
#246 = VECTOR ( 'NONE', #337, 1000.000000000000000 ) ;
#247 = DIRECTION ( 'NONE',  ( 1.000000000000000000, 0.0000000000000000000, 0.0000000000000000000 ) ) ;
#248 = CARTESIAN_POINT ( 'NONE',  ( 42.50000000000000000, 2.500000000000000000, -1.800000000000000266 ) ) ;
#249 = CLOSED_SHELL ( 'NONE', ( #304, #204, #214, #7, #2, #289, #80, #58, #97, #116 ) ) ;
#250 = CIRCLE ( 'NONE', #328, 1.699999999999999512 ) ;
#251 = DIRECTION ( 'NONE',  ( -1.000000000000000000, 0.0000000000000000000, 0.0000000000000000000 ) ) ;
#252 = DIRECTION ( 'NONE',  ( 1.000000000000000000, 0.0000000000000000000, -0.0000000000000000000 ) ) ;
#253 = CARTESIAN_POINT ( 'NONE',  ( 7.500000000000000000, 2.500000000000000000, -25.19999999999999929 ) ) ;
#254 =( GEOMETRIC_REPRESENTATION_CONTEXT ( 3 ) GLOBAL_UNCERTAINTY_ASSIGNED_CONTEXT ( ( #216 ) ) GLOBAL_UNIT_ASSIGNED_CONTEXT ( ( #266, #324, #54 ) ) REPRESENTATION_CONTEXT ( 'NONE', 'WORKASPACE' ) );
#255 = DIRECTION ( 'NONE',  ( -0.0000000000000000000, -1.000000000000000000, -0.0000000000000000000 ) ) ;
#256 = EDGE_LOOP ( 'NONE', ( #211, #134 ) ) ;
#257 = ADVANCED_BREP_SHAPE_REPRESENTATION ( 'EMC-V33-BP', ( #33, #20 ), #254 ) ;
#258 = CARTESIAN_POINT ( 'NONE',  ( 42.50000000000000000, 2.500000000000000000, -3.499999999999999556 ) ) ;
#259 = VERTEX_POINT ( 'NONE', #126 ) ;
#260 = EDGE_CURVE ( 'NONE', #259, #182, #232, .T. ) ;
#261 = MECHANICAL_DESIGN_GEOMETRIC_PRESENTATION_REPRESENTATION (  '', ( #95 ), #82 ) ;
#262 = PLANE ( 'NONE',  #218 ) ;
#263 = CIRCLE ( 'NONE', #173, 1.700000000000000178 ) ;
#264 = ORIENTED_EDGE ( 'NONE', *, *, #268, .T. ) ;
#265 = DIRECTION ( 'NONE',  ( 0.0000000000000000000, 1.000000000000000000, 0.0000000000000000000 ) ) ;
#266 =( LENGTH_UNIT ( ) NAMED_UNIT ( * ) SI_UNIT ( .MILLI., .METRE. ) );
#267 = FACE_OUTER_BOUND ( 'NONE', #75, .T. ) ;
#268 = EDGE_CURVE ( 'NONE', #182, #123, #100, .T. ) ;
#269 = ORIENTED_EDGE ( 'NONE', *, *, #268, .F. ) ;
#270 = VECTOR ( 'NONE', #335, 1000.000000000000000 ) ;
#271 = PRESENTATION_LAYER_ASSIGNMENT (  '', '', ( #299 ) ) ;
#272 = LINE ( 'NONE', #23, #227 ) ;
#273 = ORIENTED_EDGE ( 'NONE', *, *, #313, .F. ) ;
#274 = DIRECTION ( 'NONE',  ( 0.0000000000000000000, 0.0000000000000000000, -1.000000000000000000 ) ) ;
#275 = EDGE_CURVE ( 'NONE', #166, #338, #145, .T. ) ;
#276 = ORIENTED_EDGE ( 'NONE', *, *, #234, .F. ) ;
#277 = VECTOR ( 'NONE', #86, 1000.000000000000000 ) ;
#278 = DIRECTION ( 'NONE',  ( 0.0000000000000000000, 1.000000000000000000, 0.0000000000000000000 ) ) ;
#279 = AXIS2_PLACEMENT_3D ( 'NONE', #222, #61, #252 ) ;
#280 = CARTESIAN_POINT ( 'NONE',  ( 0.0000000000000000000, 0.0000000000000000000, -27.00000000000000000 ) ) ;
#281 = LINE ( 'NONE', #29, #104 ) ;
#282 = LINE ( 'NONE', #6, #195 ) ;
#283 = VERTEX_POINT ( 'NONE', #333 ) ;
#284 = VECTOR ( 'NONE', #168, 1000.000000000000000 ) ;
#285 = VECTOR ( 'NONE', #315, 1000.000000000000000 ) ;
#286 = LINE ( 'NONE', #314, #270 ) ;
#287 = VERTEX_POINT ( 'NONE', #89 ) ;
#288 = DIRECTION ( 'NONE',  ( 0.0000000000000000000, 0.0000000000000000000, -1.000000000000000000 ) ) ;
#289 = ADVANCED_FACE ( 'NONE', ( #110 ), #296, .F. ) ;
#290 = CYLINDRICAL_SURFACE ( 'NONE', #34, 1.700000000000000178 ) ;
#291 = CARTESIAN_POINT ( 'NONE',  ( 50.00000000000000000, 2.500000000000000000, 0.0000000000000000000 ) ) ;
#292 = AXIS2_PLACEMENT_3D ( 'NONE', #76, #186, #48 ) ;
#293 = SURFACE_STYLE_USAGE ( .BOTH. , #78 ) ;
#294 = ORIENTED_EDGE ( 'NONE', *, *, #144, .F. ) ;
#295 = ORIENTED_EDGE ( 'NONE', *, *, #91, .F. ) ;
#296 = PLANE ( 'NONE',  #317 ) ;
#297 = ORIENTED_EDGE ( 'NONE', *, *, #13, .T. ) ;
#298 = PRESENTATION_LAYER_ASSIGNMENT (  '', '', ( #95 ) ) ;
#299 = STYLED_ITEM ( 'NONE', ( #348 ), #257 ) ;
#300 = CARTESIAN_POINT ( 'NONE',  ( 7.500000000000000000, 0.0000000000000000000, -25.19999999999999929 ) ) ;
#301 = ORIENTED_EDGE ( 'NONE', *, *, #180, .T. ) ;
#302 = VERTEX_POINT ( 'NONE', #112 ) ;
#303 = SURFACE_SIDE_STYLE ('',( #22 ) ) ;
#304 = ADVANCED_FACE ( 'NONE', ( #236 ), #321, .F. ) ;
#305 = CARTESIAN_POINT ( 'NONE',  ( 0.0000000000000000000, 2.500000000000000000, -27.00000000000000000 ) ) ;
#306 = DIRECTION ( 'NONE',  ( -1.000000000000000000, -0.0000000000000000000, -0.0000000000000000000 ) ) ;
#307 = FACE_OUTER_BOUND ( 'NONE', #187, .T. ) ;
#308 = DIRECTION ( 'NONE',  ( 0.0000000000000000000, 0.0000000000000000000, 1.000000000000000000 ) ) ;
#309 = DIRECTION ( 'NONE',  ( 0.0000000000000000000, 1.000000000000000000, 0.0000000000000000000 ) ) ;
#310 = ORIENTED_EDGE ( 'NONE', *, *, #144, .T. ) ;
#311 = DIRECTION ( 'NONE',  ( -0.0000000000000000000, -0.0000000000000000000, 1.000000000000000000 ) ) ;
#312 = ORIENTED_EDGE ( 'NONE', *, *, #141, .F. ) ;
#313 = EDGE_CURVE ( 'NONE', #302, #287, #272, .T. ) ;
#314 = CARTESIAN_POINT ( 'NONE',  ( 42.50000000000000000, 2.500000000000000000, -1.800000000000000266 ) ) ;
#315 = DIRECTION ( 'NONE',  ( -0.0000000000000000000, -1.000000000000000000, -0.0000000000000000000 ) ) ;
#316 = CARTESIAN_POINT ( 'NONE',  ( 7.500000000000000000, 2.500000000000000000, -23.50000000000000000 ) ) ;
#317 = AXIS2_PLACEMENT_3D ( 'NONE', #160, #25, #215 ) ;
#318 = EDGE_LOOP ( 'NONE', ( #233, #206, #294, #230 ) ) ;
#319 = EDGE_CURVE ( 'NONE', #338, #283, #189, .T. ) ;
#320 = ORIENTED_EDGE ( 'NONE', *, *, #331, .T. ) ;
#321 = CYLINDRICAL_SURFACE ( 'NONE', #292, 1.699999999999999289 ) ;
#322 = VECTOR ( 'NONE', #85, 1000.000000000000000 ) ;
#323 = EDGE_LOOP ( 'NONE', ( #12, #310, #176, #138 ) ) ;
#324 =( NAMED_UNIT ( * ) PLANE_ANGLE_UNIT ( ) SI_UNIT ( $, .RADIAN. ) );
#325 = FILL_AREA_STYLE_COLOUR ( '', #50 ) ;
#326 = PRESENTATION_STYLE_ASSIGNMENT (( #36 ) ) ;
#327 = CIRCLE ( 'NONE', #178, 1.700000000000000178 ) ;
#328 = AXIS2_PLACEMENT_3D ( 'NONE', #258, #309, #308 ) ;
#329 = PLANE ( 'NONE',  #279 ) ;
#330 = CARTESIAN_POINT ( 'NONE',  ( 50.00000000000000000, 2.500000000000000000, 0.0000000000000000000 ) ) ;
#331 = EDGE_CURVE ( 'NONE', #166, #217, #137, .T. ) ;
#332 = CARTESIAN_POINT ( 'NONE',  ( 42.50000000000000000, 0.0000000000000000000, -1.800000000000000266 ) ) ;
#333 = CARTESIAN_POINT ( 'NONE',  ( 7.500000000000000000, 0.0000000000000000000, -21.80000000000000071 ) ) ;
#334 = DIRECTION ( 'NONE',  ( 0.0000000000000000000, -0.0000000000000000000, -1.000000000000000000 ) ) ;
#335 = DIRECTION ( 'NONE',  ( -0.0000000000000000000, -1.000000000000000000, -0.0000000000000000000 ) ) ;
#336 = EDGE_LOOP ( 'NONE', ( #49, #301, #63, #243 ) ) ;
#337 = DIRECTION ( 'NONE',  ( 0.0000000000000000000, 0.0000000000000000000, -1.000000000000000000 ) ) ;
#338 = VERTEX_POINT ( 'NONE', #300 ) ;
#339 = CARTESIAN_POINT ( 'NONE',  ( 7.500000000000000000, 0.0000000000000000000, -23.50000000000000000 ) ) ;
#340 = EDGE_CURVE ( 'NONE', #302, #42, #71, .T. ) ;
#341 = ORIENTED_EDGE ( 'NONE', *, *, #154, .T. ) ;
#342 = AXIS2_PLACEMENT_3D ( 'NONE', #102, #265, #192 ) ;
#343 = CARTESIAN_POINT ( 'NONE',  ( 0.0000000000000000000, 2.500000000000000000, -27.00000000000000000 ) ) ;
#344 = CARTESIAN_POINT ( 'NONE',  ( 0.0000000000000000000, 0.0000000000000000000, 0.0000000000000000000 ) ) ;
#345 = VERTEX_POINT ( 'NONE', #14 ) ;
#346 = PRODUCT_DEFINITION ( 'UNKNOWN', '', #128, #108 ) ;
#347 = ORIENTED_EDGE ( 'NONE', *, *, #151, .F. ) ;
#348 = PRESENTATION_STYLE_ASSIGNMENT (( #293 ) ) ;
#349 = LINE ( 'NONE', #343, #18 ) ;
#350 = CARTESIAN_POINT ( 'NONE',  ( 0.0000000000000000000, 0.0000000000000000000, 0.0000000000000000000 ) ) ;
ENDSEC;
END-ISO-10303-21;
