ISO-10303-21;
HEADER;
FILE_DESCRIPTION (( 'STEP AP214' ),
    '1' );
FILE_NAME ('EMC-V34-BP.STEP',
    '2020-04-03T14:55:20',
    ( '' ),
    ( '' ),
    'SwSTEP 2.0',
    'SolidWorks 2020',
    '' );
FILE_SCHEMA (( 'AUTOMOTIVE_DESIGN' ));
ENDSEC;

DATA;
#1 = FACE_OUTER_BOUND ( 'NONE', #314, .T. ) ;
#2 = LINE ( 'NONE', #305, #349 ) ;
#3 = LINE ( 'NONE', #269, #258 ) ;
#4 = FACE_OUTER_BOUND ( 'NONE', #45, .T. ) ;
#5 = FACE_BOUND ( 'NONE', #123, .T. ) ;
#6 = EDGE_CURVE ( 'NONE', #242, #320, #120, .T. ) ;
#7 = ORIENTED_EDGE ( 'NONE', *, *, #169, .T. ) ;
#8 = CARTESIAN_POINT ( 'NONE',  ( 0.0000000000000000000, 2.500000000000000000, -33.00000000000000000 ) ) ;
#9 = CARTESIAN_POINT ( 'NONE',  ( 51.25000000000000711, 2.500000000000000000, -3.000000000000002665 ) ) ;
#10 = EDGE_CURVE ( 'NONE', #218, #205, #236, .T. ) ;
#11 = ORIENTED_EDGE ( 'NONE', *, *, #107, .T. ) ;
#12 = SURFACE_SIDE_STYLE ('',( #255 ) ) ;
#13 = VECTOR ( 'NONE', #200, 1000.000000000000000 ) ;
#14 = STYLED_ITEM ( 'NONE', ( #339 ), #108 ) ;
#15 = CARTESIAN_POINT ( 'NONE',  ( 62.50000000000000000, 0.0000000000000000000, -33.00000000000000000 ) ) ;
#16 = ORIENTED_EDGE ( 'NONE', *, *, #301, .T. ) ;
#17 = SURFACE_STYLE_USAGE ( .BOTH. , #12 ) ;
#18 = CIRCLE ( 'NONE', #201, 2.250000000000001776 ) ;
#19 = ORIENTED_EDGE ( 'NONE', *, *, #310, .F. ) ;
#20 = VERTEX_POINT ( 'NONE', #240 ) ;
#21 = APPLICATION_CONTEXT ( 'automotive_design' ) ;
#22 = VECTOR ( 'NONE', #63, 1000.000000000000000 ) ;
#23 = DIRECTION ( 'NONE',  ( 0.0000000000000000000, 0.0000000000000000000, -1.000000000000000000 ) ) ;
#24 = DIRECTION ( 'NONE',  ( 0.0000000000000000000, 1.000000000000000000, 0.0000000000000000000 ) ) ;
#25 = EDGE_CURVE ( 'NONE', #208, #20, #159, .T. ) ;
#26 = FACE_OUTER_BOUND ( 'NONE', #185, .T. ) ;
#27 = VERTEX_POINT ( 'NONE', #322 ) ;
#28 = CYLINDRICAL_SURFACE ( 'NONE', #87, 2.250000000000005329 ) ;
#29 = FACE_BOUND ( 'NONE', #177, .T. ) ;
#30 = PLANE ( 'NONE',  #225 ) ;
#31 = DIRECTION ( 'NONE',  ( -0.0000000000000000000, -1.000000000000000000, -0.0000000000000000000 ) ) ;
#32 = VECTOR ( 'NONE', #80, 1000.000000000000000 ) ;
#33 = DIRECTION ( 'NONE',  ( -0.0000000000000000000, -1.000000000000000000, -0.0000000000000000000 ) ) ;
#34 = ORIENTED_EDGE ( 'NONE', *, *, #311, .F. ) ;
#35 = FACE_OUTER_BOUND ( 'NONE', #39, .T. ) ;
#36 = CYLINDRICAL_SURFACE ( 'NONE', #132, 2.250000000000001776 ) ;
#37 = ORIENTED_EDGE ( 'NONE', *, *, #89, .F. ) ;
#38 = CARTESIAN_POINT ( 'NONE',  ( 62.50000000000000000, 2.500000000000000000, 0.0000000000000000000 ) ) ;
#39 = EDGE_LOOP ( 'NONE', ( #104, #72, #348, #237 ) ) ;
#40 = DIRECTION ( 'NONE',  ( 1.000000000000000000, 0.0000000000000000000, 0.0000000000000000000 ) ) ;
#41 = AXIS2_PLACEMENT_3D ( 'NONE', #298, #222, #53 ) ;
#42 = DIRECTION ( 'NONE',  ( 0.0000000000000000000, 0.0000000000000000000, -1.000000000000000000 ) ) ;
#43 = EDGE_LOOP ( 'NONE', ( #350, #287, #192, #304 ) ) ;
#44 = ORIENTED_EDGE ( 'NONE', *, *, #207, .F. ) ;
#45 = EDGE_LOOP ( 'NONE', ( #344, #306, #7, #149 ) ) ;
#46 = STYLED_ITEM ( 'NONE', ( #256 ), #277 ) ;
#47 = FACE_OUTER_BOUND ( 'NONE', #165, .T. ) ;
#48 = CARTESIAN_POINT ( 'NONE',  ( 62.50000000000000000, 2.500000000000000000, 0.0000000000000000000 ) ) ;
#49 = DIRECTION ( 'NONE',  ( 0.0000000000000000000, 0.0000000000000000000, 1.000000000000000000 ) ) ;
#50 = DIRECTION ( 'NONE',  ( 0.0000000000000000000, -1.000000000000000000, 0.0000000000000000000 ) ) ;
#51 = VECTOR ( 'NONE', #111, 1000.000000000000000 ) ;
#52 = APPLICATION_CONTEXT ( 'automotive_design' ) ;
#53 = DIRECTION ( 'NONE',  ( 1.000000000000000000, 0.0000000000000000000, -0.0000000000000000000 ) ) ;
#54 = PRODUCT_DEFINITION ( 'UNKNOWN', '', #270, #286 ) ;
#55 = CARTESIAN_POINT ( 'NONE',  ( 51.25000000000000711, 2.500000000000000000, -0.7500000000000002220 ) ) ;
#56 = LINE ( 'NONE', #178, #220 ) ;
#57 = VERTEX_POINT ( 'NONE', #164 ) ;
#58 = LINE ( 'NONE', #175, #215 ) ;
#59 = ADVANCED_FACE ( 'NONE', ( #47 ), #263, .F. ) ;
#60 = FACE_OUTER_BOUND ( 'NONE', #251, .T. ) ;
#61 = ORIENTED_EDGE ( 'NONE', *, *, #147, .T. ) ;
#62 = PRODUCT_CONTEXT ( 'NONE', #21, 'mechanical' ) ;
#63 = DIRECTION ( 'NONE',  ( -0.0000000000000000000, -1.000000000000000000, -0.0000000000000000000 ) ) ;
#64 = ORIENTED_EDGE ( 'NONE', *, *, #321, .T. ) ;
#65 =( NAMED_UNIT ( * ) SI_UNIT ( $, .STERADIAN. ) SOLID_ANGLE_UNIT ( ) );
#66 = ORIENTED_EDGE ( 'NONE', *, *, #301, .F. ) ;
#67 = VECTOR ( 'NONE', #155, 1000.000000000000000 ) ;
#68 = DIRECTION ( 'NONE',  ( 0.0000000000000000000, 1.000000000000000000, 0.0000000000000000000 ) ) ;
#69 = CARTESIAN_POINT ( 'NONE',  ( 11.25000000000000000, 2.500000000000000000, -30.00000000000000355 ) ) ;
#70 = ADVANCED_FACE ( 'NONE', ( #212 ), #191, .F. ) ;
#71 = CIRCLE ( 'NONE', #268, 2.250000000000002220 ) ;
#72 = ORIENTED_EDGE ( 'NONE', *, *, #262, .T. ) ;
#73 = DIRECTION ( 'NONE',  ( 1.000000000000000000, 0.0000000000000000000, 0.0000000000000000000 ) ) ;
#74 = DIRECTION ( 'NONE',  ( 0.0000000000000000000, 0.0000000000000000000, 1.000000000000000000 ) ) ;
#75 = AXIS2_PLACEMENT_3D ( 'NONE', #162, #315, #49 ) ;
#76 = EDGE_LOOP ( 'NONE', ( #44, #337 ) ) ;
#77 = EDGE_LOOP ( 'NONE', ( #346, #160, #66, #293 ) ) ;
#78 = DIRECTION ( 'NONE',  ( -1.000000000000000000, 0.0000000000000000000, -0.0000000000000000000 ) ) ;
#79 = LINE ( 'NONE', #122, #67 ) ;
#80 = DIRECTION ( 'NONE',  ( -0.0000000000000000000, -1.000000000000000000, -0.0000000000000000000 ) ) ;
#81 = CARTESIAN_POINT ( 'NONE',  ( 51.25000000000000711, 2.500000000000000000, -3.000000000000002665 ) ) ;
#82 = CARTESIAN_POINT ( 'NONE',  ( 51.25000000000000711, 0.0000000000000000000, -0.7500000000000002220 ) ) ;
#83 = ADVANCED_FACE ( 'NONE', ( #135, #1, #29 ), #296, .T. ) ;
#84 = PRODUCT ( 'EMC-V34-BP', 'EMC-V34-BP', '', ( #62 ) ) ;
#85 = LINE ( 'NONE', #176, #13 ) ;
#86 = AXIS2_PLACEMENT_3D ( 'NONE', #331, #195, #248 ) ;
#87 = AXIS2_PLACEMENT_3D ( 'NONE', #138, #203, #42 ) ;
#88 = VERTEX_POINT ( 'NONE', #168 ) ;
#89 = EDGE_CURVE ( 'NONE', #261, #228, #271, .T. ) ;
#90 = CARTESIAN_POINT ( 'NONE',  ( 0.0000000000000000000, 2.500000000000000000, 0.0000000000000000000 ) ) ;
#91 = ORIENTED_EDGE ( 'NONE', *, *, #243, .F. ) ;
#92 = CARTESIAN_POINT ( 'NONE',  ( 0.0000000000000000000, 0.0000000000000000000, 0.0000000000000000000 ) ) ;
#93 = ADVANCED_FACE ( 'NONE', ( #139 ), #288, .F. ) ;
#94 = ORIENTED_EDGE ( 'NONE', *, *, #309, .T. ) ;
#95 = PRODUCT_RELATED_PRODUCT_CATEGORY ( 'part', '', ( #84 ) ) ;
#96 = SURFACE_STYLE_FILL_AREA ( #182 ) ;
#97 = APPLICATION_PROTOCOL_DEFINITION ( 'draft international standard', 'automotive_design', 1998, #21 ) ;
#98 = VECTOR ( 'NONE', #146, 1000.000000000000000 ) ;
#99 = DIRECTION ( 'NONE',  ( 0.0000000000000000000, 0.0000000000000000000, 1.000000000000000000 ) ) ;
#100 = CARTESIAN_POINT ( 'NONE',  ( 62.50000000000000000, 2.500000000000000000, -33.00000000000000000 ) ) ;
#101 = ORIENTED_EDGE ( 'NONE', *, *, #235, .T. ) ;
#102 = VECTOR ( 'NONE', #272, 1000.000000000000000 ) ;
#103 = ORIENTED_EDGE ( 'NONE', *, *, #308, .T. ) ;
#104 = ORIENTED_EDGE ( 'NONE', *, *, #295, .F. ) ;
#105 = UNCERTAINTY_MEASURE_WITH_UNIT (LENGTH_MEASURE( 1.000000000000000082E-05 ), #206, 'distance_accuracy_value', 'NONE');
#106 = CARTESIAN_POINT ( 'NONE',  ( 51.25000000000000711, 0.0000000000000000000, -3.000000000000002665 ) ) ;
#107 = EDGE_CURVE ( 'NONE', #320, #242, #18, .T. ) ;
#108 = ADVANCED_BREP_SHAPE_REPRESENTATION ( 'EMC-V34-BP', ( #277, #335 ), #127 ) ;
#109 = ORIENTED_EDGE ( 'NONE', *, *, #140, .F. ) ;
#110 = ORIENTED_EDGE ( 'NONE', *, *, #214, .F. ) ;
#111 = DIRECTION ( 'NONE',  ( -1.000000000000000000, -0.0000000000000000000, -0.0000000000000000000 ) ) ;
#112 = DIRECTION ( 'NONE',  ( 0.0000000000000000000, 0.0000000000000000000, 1.000000000000000000 ) ) ;
#113 = CARTESIAN_POINT ( 'NONE',  ( 51.25000000000000711, 2.500000000000000000, -5.250000000000004441 ) ) ;
#114 = COLOUR_RGB ( '',0.7921568627450980005, 0.8196078431372548767, 0.9333333333333333481 ) ;
#115 = DIRECTION ( 'NONE',  ( 0.0000000000000000000, -0.0000000000000000000, -1.000000000000000000 ) ) ;
#116 = DIRECTION ( 'NONE',  ( 0.0000000000000000000, 1.000000000000000000, 0.0000000000000000000 ) ) ;
#117 = PLANE ( 'NONE',  #86 ) ;
#118 = ORIENTED_EDGE ( 'NONE', *, *, #6, .T. ) ;
#119 = DIRECTION ( 'NONE',  ( 0.0000000000000000000, 0.0000000000000000000, 1.000000000000000000 ) ) ;
#120 = CIRCLE ( 'NONE', #75, 2.250000000000001776 ) ;
#121 = ORIENTED_EDGE ( 'NONE', *, *, #10, .F. ) ;
#122 = CARTESIAN_POINT ( 'NONE',  ( 0.0000000000000000000, 0.0000000000000000000, -33.00000000000000000 ) ) ;
#123 = EDGE_LOOP ( 'NONE', ( #275, #307 ) ) ;
#124 = CARTESIAN_POINT ( 'NONE',  ( 62.50000000000000000, 0.0000000000000000000, 0.0000000000000000000 ) ) ;
#125 = ADVANCED_FACE ( 'NONE', ( #26 ), #238, .F. ) ;
#126 = AXIS2_PLACEMENT_3D ( 'NONE', #69, #68, #284 ) ;
#127 =( GEOMETRIC_REPRESENTATION_CONTEXT ( 3 ) GLOBAL_UNCERTAINTY_ASSIGNED_CONTEXT ( ( #193 ) ) GLOBAL_UNIT_ASSIGNED_CONTEXT ( ( #259, #342, #65 ) ) REPRESENTATION_CONTEXT ( 'NONE', 'WORKASPACE' ) );
#128 = ADVANCED_FACE ( 'NONE', ( #60 ), #117, .F. ) ;
#129 = VERTEX_POINT ( 'NONE', #15 ) ;
#130 = ORIENTED_EDGE ( 'NONE', *, *, #6, .F. ) ;
#131 = ADVANCED_FACE ( 'NONE', ( #152, #5, #336 ), #30, .F. ) ;
#132 = AXIS2_PLACEMENT_3D ( 'NONE', #81, #33, #247 ) ;
#133 = CARTESIAN_POINT ( 'NONE',  ( 11.25000000000000000, 2.500000000000000000, -30.00000000000000355 ) ) ;
#134 = DIRECTION ( 'NONE',  ( 0.0000000000000000000, 0.0000000000000000000, 1.000000000000000000 ) ) ;
#135 = FACE_BOUND ( 'NONE', #345, .T. ) ;
#136 = AXIS2_PLACEMENT_3D ( 'NONE', #171, #273, #172 ) ;
#137 = CARTESIAN_POINT ( 'NONE',  ( 0.0000000000000000000, 2.500000000000000000, 0.0000000000000000000 ) ) ;
#138 = CARTESIAN_POINT ( 'NONE',  ( 11.25000000000000000, 2.500000000000000000, -30.00000000000000355 ) ) ;
#139 = FACE_OUTER_BOUND ( 'NONE', #210, .T. ) ;
#140 = EDGE_CURVE ( 'NONE', #202, #267, #141, .T. ) ;
#141 = LINE ( 'NONE', #223, #167 ) ;
#142 = EDGE_CURVE ( 'NONE', #27, #57, #285, .T. ) ;
#143 = CARTESIAN_POINT ( 'NONE',  ( 51.25000000000000711, 0.0000000000000000000, -3.000000000000002665 ) ) ;
#144 = LINE ( 'NONE', #113, #233 ) ;
#145 = PRESENTATION_LAYER_ASSIGNMENT (  '', '', ( #46 ) ) ;
#146 = DIRECTION ( 'NONE',  ( -0.0000000000000000000, -1.000000000000000000, -0.0000000000000000000 ) ) ;
#147 = EDGE_CURVE ( 'NONE', #267, #338, #85, .T. ) ;
#148 = CARTESIAN_POINT ( 'NONE',  ( 51.25000000000000711, 2.500000000000000000, -3.000000000000002665 ) ) ;
#149 = ORIENTED_EDGE ( 'NONE', *, *, #25, .F. ) ;
#150 = CARTESIAN_POINT ( 'NONE',  ( 0.0000000000000000000, 2.500000000000000000, 0.0000000000000000000 ) ) ;
#151 = CYLINDRICAL_SURFACE ( 'NONE', #324, 2.250000000000001776 ) ;
#152 = FACE_OUTER_BOUND ( 'NONE', #43, .T. ) ;
#153 = AXIS2_PLACEMENT_3D ( 'NONE', #106, #213, #74 ) ;
#154 = FILL_AREA_STYLE ('',( #283 ) ) ;
#155 = DIRECTION ( 'NONE',  ( -1.000000000000000000, -0.0000000000000000000, -0.0000000000000000000 ) ) ;
#156 =( LENGTH_UNIT ( ) NAMED_UNIT ( * ) SI_UNIT ( .MILLI., .METRE. ) );
#157 = EDGE_CURVE ( 'NONE', #161, #208, #2, .T. ) ;
#158 =( NAMED_UNIT ( * ) SI_UNIT ( $, .STERADIAN. ) SOLID_ANGLE_UNIT ( ) );
#159 = CIRCLE ( 'NONE', #153, 2.250000000000002220 ) ;
#160 = ORIENTED_EDGE ( 'NONE', *, *, #157, .T. ) ;
#161 = VERTEX_POINT ( 'NONE', #55 ) ;
#162 = CARTESIAN_POINT ( 'NONE',  ( 11.25000000000000000, 0.0000000000000000000, -30.00000000000000355 ) ) ;
#163 = DIRECTION ( 'NONE',  ( -0.0000000000000000000, -1.000000000000000000, -0.0000000000000000000 ) ) ;
#164 = CARTESIAN_POINT ( 'NONE',  ( 11.25000000000000000, 2.500000000000000000, -27.75000000000000000 ) ) ;
#165 = EDGE_LOOP ( 'NONE', ( #61, #231, #121, #94 ) ) ;
#166 = DIRECTION ( 'NONE',  ( 0.0000000000000000000, 0.0000000000000000000, -1.000000000000000000 ) ) ;
#167 = VECTOR ( 'NONE', #219, 1000.000000000000000 ) ;
#168 = CARTESIAN_POINT ( 'NONE',  ( 51.25000000000000711, 2.500000000000000000, -5.250000000000004441 ) ) ;
#169 = EDGE_CURVE ( 'NONE', #88, #20, #144, .T. ) ;
#170 = DIRECTION ( 'NONE',  ( 0.0000000000000000000, 1.000000000000000000, 0.0000000000000000000 ) ) ;
#171 = CARTESIAN_POINT ( 'NONE',  ( 51.25000000000000711, 2.500000000000000000, -3.000000000000002665 ) ) ;
#172 = DIRECTION ( 'NONE',  ( 0.0000000000000000000, 0.0000000000000000000, 1.000000000000000000 ) ) ;
#173 = CLOSED_SHELL ( 'NONE', ( #188, #93, #131, #83, #128, #59, #70, #125, #329, #190 ) ) ;
#174 = PRESENTATION_LAYER_ASSIGNMENT (  '', '', ( #14 ) ) ;
#175 = CARTESIAN_POINT ( 'NONE',  ( 62.50000000000000000, 0.0000000000000000000, 0.0000000000000000000 ) ) ;
#176 = CARTESIAN_POINT ( 'NONE',  ( 0.0000000000000000000, 0.0000000000000000000, 0.0000000000000000000 ) ) ;
#177 = EDGE_LOOP ( 'NONE', ( #16, #179 ) ) ;
#178 = CARTESIAN_POINT ( 'NONE',  ( 62.50000000000000000, 2.500000000000000000, -33.00000000000000000 ) ) ;
#179 = ORIENTED_EDGE ( 'NONE', *, *, #25, .T. ) ;
#180 =( NAMED_UNIT ( * ) PLANE_ANGLE_UNIT ( ) SI_UNIT ( $, .RADIAN. ) );
#181 = CIRCLE ( 'NONE', #136, 2.250000000000002220 ) ;
#182 = FILL_AREA_STYLE ('',( #312 ) ) ;
#183 = EDGE_CURVE ( 'NONE', #161, #88, #181, .T. ) ;
#184 = SURFACE_STYLE_USAGE ( .BOTH. , #343 ) ;
#185 = EDGE_LOOP ( 'NONE', ( #332, #260, #37, #101 ) ) ;
#186 = CARTESIAN_POINT ( 'NONE',  ( 0.0000000000000000000, 2.500000000000000000, -33.00000000000000000 ) ) ;
#187 = CARTESIAN_POINT ( 'NONE',  ( 0.0000000000000000000, 0.0000000000000000000, 0.0000000000000000000 ) ) ;
#188 = ADVANCED_FACE ( 'NONE', ( #278 ), #36, .F. ) ;
#189 = AXIS2_PLACEMENT_3D ( 'NONE', #143, #116, #112 ) ;
#190 = ADVANCED_FACE ( 'NONE', ( #4 ), #151, .F. ) ;
#191 = PLANE ( 'NONE',  #257 ) ;
#192 = ORIENTED_EDGE ( 'NONE', *, *, #310, .T. ) ;
#193 = UNCERTAINTY_MEASURE_WITH_UNIT (LENGTH_MEASURE( 1.000000000000000082E-05 ), #259, 'distance_accuracy_value', 'NONE');
#194 = DIRECTION ( 'NONE',  ( -1.000000000000000000, 0.0000000000000000000, 0.0000000000000000000 ) ) ;
#195 = DIRECTION ( 'NONE',  ( 1.000000000000000000, -0.0000000000000000000, 0.0000000000000000000 ) ) ;
#196 = CARTESIAN_POINT ( 'NONE',  ( 11.25000000000000000, 0.0000000000000000000, -27.75000000000000000 ) ) ;
#197 = CARTESIAN_POINT ( 'NONE',  ( 0.0000000000000000000, 2.500000000000000000, -33.00000000000000000 ) ) ;
#198 = LINE ( 'NONE', #245, #22 ) ;
#199 = LINE ( 'NONE', #8, #230 ) ;
#200 = DIRECTION ( 'NONE',  ( 1.000000000000000000, 0.0000000000000000000, 0.0000000000000000000 ) ) ;
#201 = AXIS2_PLACEMENT_3D ( 'NONE', #266, #24, #134 ) ;
#202 = VERTEX_POINT ( 'NONE', #323 ) ;
#203 = DIRECTION ( 'NONE',  ( -0.0000000000000000000, -1.000000000000000000, -0.0000000000000000000 ) ) ;
#204 = DIRECTION ( 'NONE',  ( 0.0000000000000000000, 0.0000000000000000000, -1.000000000000000000 ) ) ;
#205 = VERTEX_POINT ( 'NONE', #38 ) ;
#206 =( LENGTH_UNIT ( ) NAMED_UNIT ( * ) SI_UNIT ( .MILLI., .METRE. ) );
#207 = EDGE_CURVE ( 'NONE', #88, #161, #71, .T. ) ;
#208 = VERTEX_POINT ( 'NONE', #82 ) ;
#209 = SHAPE_DEFINITION_REPRESENTATION ( #330, #108 ) ;
#210 = EDGE_LOOP ( 'NONE', ( #279, #249, #130, #224 ) ) ;
#211 = ORIENTED_EDGE ( 'NONE', *, *, #235, .F. ) ;
#212 = FACE_OUTER_BOUND ( 'NONE', #254, .T. ) ;
#213 = DIRECTION ( 'NONE',  ( 0.0000000000000000000, 1.000000000000000000, 0.0000000000000000000 ) ) ;
#214 = EDGE_CURVE ( 'NONE', #228, #218, #226, .T. ) ;
#215 = VECTOR ( 'NONE', #166, 1000.000000000000000 ) ;
#216 = ORIENTED_EDGE ( 'NONE', *, *, #140, .T. ) ;
#217 = EDGE_CURVE ( 'NONE', #27, #242, #198, .T. ) ;
#218 = VERTEX_POINT ( 'NONE', #300 ) ;
#219 = DIRECTION ( 'NONE',  ( -0.0000000000000000000, -0.0000000000000000000, 1.000000000000000000 ) ) ;
#220 = VECTOR ( 'NONE', #280, 1000.000000000000000 ) ;
#221 = CARTESIAN_POINT ( 'NONE',  ( 0.0000000000000000000, 2.500000000000000000, 0.0000000000000000000 ) ) ;
#222 = DIRECTION ( 'NONE',  ( 0.0000000000000000000, 0.0000000000000000000, 1.000000000000000000 ) ) ;
#223 = CARTESIAN_POINT ( 'NONE',  ( 0.0000000000000000000, 0.0000000000000000000, 0.0000000000000000000 ) ) ;
#224 = ORIENTED_EDGE ( 'NONE', *, *, #217, .F. ) ;
#225 = AXIS2_PLACEMENT_3D ( 'NONE', #221, #274, #115 ) ;
#226 = LINE ( 'NONE', #90, #102 ) ;
#227 =( GEOMETRIC_REPRESENTATION_CONTEXT ( 3 ) GLOBAL_UNCERTAINTY_ASSIGNED_CONTEXT ( ( #292 ) ) GLOBAL_UNIT_ASSIGNED_CONTEXT ( ( #156, #281, #158 ) ) REPRESENTATION_CONTEXT ( 'NONE', 'WORKASPACE' ) );
#228 = VERTEX_POINT ( 'NONE', #197 ) ;
#229 = CARTESIAN_POINT ( 'NONE',  ( 0.0000000000000000000, 0.0000000000000000000, 0.0000000000000000000 ) ) ;
#230 = VECTOR ( 'NONE', #327, 1000.000000000000000 ) ;
#231 = ORIENTED_EDGE ( 'NONE', *, *, #321, .F. ) ;
#232 = ORIENTED_EDGE ( 'NONE', *, *, #309, .F. ) ;
#233 = VECTOR ( 'NONE', #326, 1000.000000000000000 ) ;
#234 = MECHANICAL_DESIGN_GEOMETRIC_PRESENTATION_REPRESENTATION (  '', ( #14 ), #227 ) ;
#235 = EDGE_CURVE ( 'NONE', #261, #129, #56, .T. ) ;
#236 = LINE ( 'NONE', #137, #313 ) ;
#237 = ORIENTED_EDGE ( 'NONE', *, *, #107, .F. ) ;
#238 = PLANE ( 'NONE',  #41 ) ;
#239 = AXIS2_PLACEMENT_3D ( 'NONE', #133, #163, #265 ) ;
#240 = CARTESIAN_POINT ( 'NONE',  ( 51.25000000000000711, 0.0000000000000000000, -5.250000000000004441 ) ) ;
#241 = DIRECTION ( 'NONE',  ( 0.0000000000000000000, 0.0000000000000000000, -1.000000000000000000 ) ) ;
#242 = VERTEX_POINT ( 'NONE', #253 ) ;
#243 = EDGE_CURVE ( 'NONE', #129, #202, #79, .T. ) ;
#244 = CARTESIAN_POINT ( 'NONE',  ( 11.25000000000000000, 2.500000000000000000, -27.75000000000000000 ) ) ;
#245 = CARTESIAN_POINT ( 'NONE',  ( 11.25000000000000000, 2.500000000000000000, -32.25000000000000711 ) ) ;
#246 =( GEOMETRIC_REPRESENTATION_CONTEXT ( 3 ) GLOBAL_UNCERTAINTY_ASSIGNED_CONTEXT ( ( #105 ) ) GLOBAL_UNIT_ASSIGNED_CONTEXT ( ( #206, #180, #282 ) ) REPRESENTATION_CONTEXT ( 'NONE', 'WORKASPACE' ) );
#247 = DIRECTION ( 'NONE',  ( 0.0000000000000000000, 0.0000000000000000000, -1.000000000000000000 ) ) ;
#248 = DIRECTION ( 'NONE',  ( 0.0000000000000000000, 0.0000000000000000000, -1.000000000000000000 ) ) ;
#249 = ORIENTED_EDGE ( 'NONE', *, *, #295, .T. ) ;
#250 = DIRECTION ( 'NONE',  ( -0.0000000000000000000, -1.000000000000000000, -0.0000000000000000000 ) ) ;
#251 = EDGE_LOOP ( 'NONE', ( #216, #232, #110, #103 ) ) ;
#252 = AXIS2_PLACEMENT_3D ( 'NONE', #303, #170, #299 ) ;
#253 = CARTESIAN_POINT ( 'NONE',  ( 11.25000000000000000, 0.0000000000000000000, -32.25000000000000711 ) ) ;
#254 = EDGE_LOOP ( 'NONE', ( #347, #211, #19, #64 ) ) ;
#255 = SURFACE_STYLE_FILL_AREA ( #154 ) ;
#256 = PRESENTATION_STYLE_ASSIGNMENT (( #184 ) ) ;
#257 = AXIS2_PLACEMENT_3D ( 'NONE', #48, #194, #316 ) ;
#258 = VECTOR ( 'NONE', #276, 1000.000000000000000 ) ;
#259 =( LENGTH_UNIT ( ) NAMED_UNIT ( * ) SI_UNIT ( .MILLI., .METRE. ) );
#260 = ORIENTED_EDGE ( 'NONE', *, *, #308, .F. ) ;
#261 = VERTEX_POINT ( 'NONE', #100 ) ;
#262 = EDGE_CURVE ( 'NONE', #57, #27, #264, .T. ) ;
#263 = PLANE ( 'NONE',  #297 ) ;
#264 = CIRCLE ( 'NONE', #126, 2.250000000000001776 ) ;
#265 = DIRECTION ( 'NONE',  ( 0.0000000000000000000, 0.0000000000000000000, -1.000000000000000000 ) ) ;
#266 = CARTESIAN_POINT ( 'NONE',  ( 11.25000000000000000, 0.0000000000000000000, -30.00000000000000355 ) ) ;
#267 = VERTEX_POINT ( 'NONE', #92 ) ;
#268 = AXIS2_PLACEMENT_3D ( 'NONE', #9, #328, #119 ) ;
#269 = CARTESIAN_POINT ( 'NONE',  ( 62.50000000000000000, 2.500000000000000000, 0.0000000000000000000 ) ) ;
#270 = PRODUCT_DEFINITION_FORMATION_WITH_SPECIFIED_SOURCE ( 'ANY', '', #84, .NOT_KNOWN. ) ;
#271 = LINE ( 'NONE', #186, #51 ) ;
#272 = DIRECTION ( 'NONE',  ( -0.0000000000000000000, -0.0000000000000000000, 1.000000000000000000 ) ) ;
#273 = DIRECTION ( 'NONE',  ( 0.0000000000000000000, 1.000000000000000000, 0.0000000000000000000 ) ) ;
#274 = DIRECTION ( 'NONE',  ( 0.0000000000000000000, -1.000000000000000000, 0.0000000000000000000 ) ) ;
#275 = ORIENTED_EDGE ( 'NONE', *, *, #142, .F. ) ;
#276 = DIRECTION ( 'NONE',  ( -0.0000000000000000000, -1.000000000000000000, -0.0000000000000000000 ) ) ;
#277 = MANIFOLD_SOLID_BREP ( 'Boss-Extrude1', #173 ) ;
#278 = FACE_OUTER_BOUND ( 'NONE', #77, .T. ) ;
#279 = ORIENTED_EDGE ( 'NONE', *, *, #142, .T. ) ;
#280 = DIRECTION ( 'NONE',  ( -0.0000000000000000000, -1.000000000000000000, -0.0000000000000000000 ) ) ;
#281 =( NAMED_UNIT ( * ) PLANE_ANGLE_UNIT ( ) SI_UNIT ( $, .RADIAN. ) );
#282 =( NAMED_UNIT ( * ) SI_UNIT ( $, .STERADIAN. ) SOLID_ANGLE_UNIT ( ) );
#283 = FILL_AREA_STYLE_COLOUR ( '', #319 ) ;
#284 = DIRECTION ( 'NONE',  ( 0.0000000000000000000, 0.0000000000000000000, 1.000000000000000000 ) ) ;
#285 = CIRCLE ( 'NONE', #252, 2.250000000000001776 ) ;
#286 = PRODUCT_DEFINITION_CONTEXT ( 'detailed design', #52, 'design' ) ;
#287 = ORIENTED_EDGE ( 'NONE', *, *, #10, .T. ) ;
#288 = CYLINDRICAL_SURFACE ( 'NONE', #239, 2.250000000000005329 ) ;
#289 = DIRECTION ( 'NONE',  ( 0.0000000000000000000, -0.0000000000000000000, -1.000000000000000000 ) ) ;
#290 = CIRCLE ( 'NONE', #189, 2.250000000000002220 ) ;
#291 = ORIENTED_EDGE ( 'NONE', *, *, #147, .F. ) ;
#292 = UNCERTAINTY_MEASURE_WITH_UNIT (LENGTH_MEASURE( 1.000000000000000082E-05 ), #156, 'distance_accuracy_value', 'NONE');
#293 = ORIENTED_EDGE ( 'NONE', *, *, #169, .F. ) ;
#294 = CARTESIAN_POINT ( 'NONE',  ( 62.50000000000000000, 2.500000000000000000, 0.0000000000000000000 ) ) ;
#295 = EDGE_CURVE ( 'NONE', #57, #320, #340, .T. ) ;
#296 = PLANE ( 'NONE',  #334 ) ;
#297 = AXIS2_PLACEMENT_3D ( 'NONE', #317, #23, #78 ) ;
#298 = CARTESIAN_POINT ( 'NONE',  ( 0.0000000000000000000, 2.500000000000000000, -33.00000000000000000 ) ) ;
#299 = DIRECTION ( 'NONE',  ( 0.0000000000000000000, 0.0000000000000000000, 1.000000000000000000 ) ) ;
#300 = CARTESIAN_POINT ( 'NONE',  ( 0.0000000000000000000, 2.500000000000000000, 0.0000000000000000000 ) ) ;
#301 = EDGE_CURVE ( 'NONE', #20, #208, #290, .T. ) ;
#302 = LINE ( 'NONE', #294, #318 ) ;
#303 = CARTESIAN_POINT ( 'NONE',  ( 11.25000000000000000, 2.500000000000000000, -30.00000000000000355 ) ) ;
#304 = ORIENTED_EDGE ( 'NONE', *, *, #89, .T. ) ;
#305 = CARTESIAN_POINT ( 'NONE',  ( 51.25000000000000711, 2.500000000000000000, -0.7500000000000002220 ) ) ;
#306 = ORIENTED_EDGE ( 'NONE', *, *, #183, .T. ) ;
#307 = ORIENTED_EDGE ( 'NONE', *, *, #262, .F. ) ;
#308 = EDGE_CURVE ( 'NONE', #228, #202, #199, .T. ) ;
#309 = EDGE_CURVE ( 'NONE', #218, #267, #325, .T. ) ;
#310 = EDGE_CURVE ( 'NONE', #205, #261, #302, .T. ) ;
#311 = EDGE_CURVE ( 'NONE', #338, #129, #58, .T. ) ;
#312 = FILL_AREA_STYLE_COLOUR ( '', #114 ) ;
#313 = VECTOR ( 'NONE', #73, 1000.000000000000000 ) ;
#314 = EDGE_LOOP ( 'NONE', ( #109, #91, #34, #291 ) ) ;
#315 = DIRECTION ( 'NONE',  ( 0.0000000000000000000, 1.000000000000000000, 0.0000000000000000000 ) ) ;
#316 = DIRECTION ( 'NONE',  ( 0.0000000000000000000, 0.0000000000000000000, 1.000000000000000000 ) ) ;
#317 = CARTESIAN_POINT ( 'NONE',  ( 0.0000000000000000000, 2.500000000000000000, 0.0000000000000000000 ) ) ;
#318 = VECTOR ( 'NONE', #241, 1000.000000000000000 ) ;
#319 = COLOUR_RGB ( '',0.7921568627450980005, 0.8196078431372548767, 0.9333333333333333481 ) ;
#320 = VERTEX_POINT ( 'NONE', #196 ) ;
#321 = EDGE_CURVE ( 'NONE', #205, #338, #3, .T. ) ;
#322 = CARTESIAN_POINT ( 'NONE',  ( 11.25000000000000000, 2.500000000000000000, -32.25000000000000711 ) ) ;
#323 = CARTESIAN_POINT ( 'NONE',  ( 0.0000000000000000000, 0.0000000000000000000, -33.00000000000000000 ) ) ;
#324 = AXIS2_PLACEMENT_3D ( 'NONE', #148, #250, #204 ) ;
#325 = LINE ( 'NONE', #150, #32 ) ;
#326 = DIRECTION ( 'NONE',  ( -0.0000000000000000000, -1.000000000000000000, -0.0000000000000000000 ) ) ;
#327 = DIRECTION ( 'NONE',  ( -0.0000000000000000000, -1.000000000000000000, -0.0000000000000000000 ) ) ;
#328 = DIRECTION ( 'NONE',  ( 0.0000000000000000000, 1.000000000000000000, 0.0000000000000000000 ) ) ;
#329 = ADVANCED_FACE ( 'NONE', ( #35 ), #28, .F. ) ;
#330 = PRODUCT_DEFINITION_SHAPE ( 'NONE', 'NONE',  #54 ) ;
#331 = CARTESIAN_POINT ( 'NONE',  ( 0.0000000000000000000, 2.500000000000000000, 0.0000000000000000000 ) ) ;
#332 = ORIENTED_EDGE ( 'NONE', *, *, #243, .T. ) ;
#333 = APPLICATION_PROTOCOL_DEFINITION ( 'draft international standard', 'automotive_design', 1998, #52 ) ;
#334 = AXIS2_PLACEMENT_3D ( 'NONE', #187, #50, #289 ) ;
#335 = AXIS2_PLACEMENT_3D ( 'NONE', #229, #99, #40 ) ;
#336 = FACE_BOUND ( 'NONE', #76, .T. ) ;
#337 = ORIENTED_EDGE ( 'NONE', *, *, #183, .F. ) ;
#338 = VERTEX_POINT ( 'NONE', #124 ) ;
#339 = PRESENTATION_STYLE_ASSIGNMENT (( #17 ) ) ;
#340 = LINE ( 'NONE', #244, #98 ) ;
#341 = MECHANICAL_DESIGN_GEOMETRIC_PRESENTATION_REPRESENTATION (  '', ( #46 ), #246 ) ;
#342 =( NAMED_UNIT ( * ) PLANE_ANGLE_UNIT ( ) SI_UNIT ( $, .RADIAN. ) );
#343 = SURFACE_SIDE_STYLE ('',( #96 ) ) ;
#344 = ORIENTED_EDGE ( 'NONE', *, *, #157, .F. ) ;
#345 = EDGE_LOOP ( 'NONE', ( #118, #11 ) ) ;
#346 = ORIENTED_EDGE ( 'NONE', *, *, #207, .T. ) ;
#347 = ORIENTED_EDGE ( 'NONE', *, *, #311, .T. ) ;
#348 = ORIENTED_EDGE ( 'NONE', *, *, #217, .T. ) ;
#349 = VECTOR ( 'NONE', #31, 1000.000000000000000 ) ;
#350 = ORIENTED_EDGE ( 'NONE', *, *, #214, .T. ) ;
ENDSEC;
END-ISO-10303-21;
