ISO-10303-21;
HEADER;
FILE_DESCRIPTION (( 'STEP AP214' ),
    '1' );
FILE_NAME ('EMC-V52-BP.STEP',
    '2020-04-03T14:30:24',
    ( '' ),
    ( '' ),
    'SwSTEP 2.0',
    'SolidWorks 2020',
    '' );
FILE_SCHEMA (( 'AUTOMOTIVE_DESIGN' ));
ENDSEC;

DATA;
#1 = DIRECTION ( 'NONE',  ( 0.0000000000000000000, 0.0000000000000000000, 1.000000000000000000 ) ) ;
#2 = DIRECTION ( 'NONE',  ( -0.0000000000000000000, -0.0000000000000000000, 1.000000000000000000 ) ) ;
#3 = CARTESIAN_POINT ( 'NONE',  ( 47.00000000000000000, 0.0000000000000000000, 0.0000000000000000000 ) ) ;
#4 = AXIS2_PLACEMENT_3D ( 'NONE', #341, #177, #66 ) ;
#5 = DIRECTION ( 'NONE',  ( 0.0000000000000000000, 0.0000000000000000000, 1.000000000000000000 ) ) ;
#6 = DIRECTION ( 'NONE',  ( -0.0000000000000000000, -0.0000000000000000000, 1.000000000000000000 ) ) ;
#7 = CYLINDRICAL_SURFACE ( 'NONE', #203, 1.750000000000003553 ) ;
#8 = EDGE_CURVE ( 'NONE', #126, #25, #82, .T. ) ;
#9 = CARTESIAN_POINT ( 'NONE',  ( 0.0000000000000000000, 0.0000000000000000000, -22.00000000000000000 ) ) ;
#10 = DIRECTION ( 'NONE',  ( -0.0000000000000000000, 1.000000000000000000, -0.0000000000000000000 ) ) ;
#11 = VECTOR ( 'NONE', #213, 1000.000000000000000 ) ;
#12 = CARTESIAN_POINT ( 'NONE',  ( 0.0000000000000000000, 0.0000000000000000000, -22.00000000000000000 ) ) ;
#13 = EDGE_CURVE ( 'NONE', #101, #184, #63, .T. ) ;
#14 = ORIENTED_EDGE ( 'NONE', *, *, #305, .F. ) ;
#15 = CARTESIAN_POINT ( 'NONE',  ( 0.0000000000000000000, 3.000000000000000000, -22.00000000000000000 ) ) ;
#16 = AXIS2_PLACEMENT_3D ( 'NONE', #143, #337, #228 ) ;
#17 = AXIS2_PLACEMENT_3D ( 'NONE', #67, #38, #307 ) ;
#18 = ORIENTED_EDGE ( 'NONE', *, *, #320, .F. ) ;
#19 = SURFACE_STYLE_USAGE ( .BOTH. , #86 ) ;
#20 = ORIENTED_EDGE ( 'NONE', *, *, #172, .F. ) ;
#21 = ORIENTED_EDGE ( 'NONE', *, *, #106, .F. ) ;
#22 = CIRCLE ( 'NONE', #288, 1.750000000000005107 ) ;
#23 = ORIENTED_EDGE ( 'NONE', *, *, #193, .F. ) ;
#24 = ORIENTED_EDGE ( 'NONE', *, *, #8, .T. ) ;
#25 = VERTEX_POINT ( 'NONE', #350 ) ;
#26 = CARTESIAN_POINT ( 'NONE',  ( 0.0000000000000000000, 3.000000000000000000, -22.00000000000000000 ) ) ;
#27 = DIRECTION ( 'NONE',  ( 0.0000000000000000000, 1.000000000000000000, 0.0000000000000000000 ) ) ;
#28 = FACE_BOUND ( 'NONE', #300, .T. ) ;
#29 = EDGE_CURVE ( 'NONE', #269, #301, #84, .T. ) ;
#30 = CARTESIAN_POINT ( 'NONE',  ( 47.00000000000000000, 3.000000000000000000, 0.0000000000000000000 ) ) ;
#31 = FILL_AREA_STYLE ('',( #253 ) ) ;
#32 = FACE_OUTER_BOUND ( 'NONE', #170, .T. ) ;
#33 = ADVANCED_BREP_SHAPE_REPRESENTATION ( 'EMC-V52-BP', ( #176, #187 ), #264 ) ;
#34 = VECTOR ( 'NONE', #2, 1000.000000000000000 ) ;
#35 = CARTESIAN_POINT ( 'NONE',  ( 43.00000000000000000, 0.0000000000000000000, -3.000000000000003997 ) ) ;
#36 = DIRECTION ( 'NONE',  ( 1.000000000000000000, -0.0000000000000000000, 0.0000000000000000000 ) ) ;
#37 = UNCERTAINTY_MEASURE_WITH_UNIT (LENGTH_MEASURE( 1.000000000000000082E-05 ), #98, 'distance_accuracy_value', 'NONE');
#38 = DIRECTION ( 'NONE',  ( 0.0000000000000000000, 1.000000000000000000, 0.0000000000000000000 ) ) ;
#39 = PLANE ( 'NONE',  #16 ) ;
#40 = FACE_OUTER_BOUND ( 'NONE', #102, .T. ) ;
#41 = EDGE_LOOP ( 'NONE', ( #296, #345, #47, #324 ) ) ;
#42 = AXIS2_PLACEMENT_3D ( 'NONE', #74, #123, #339 ) ;
#43 =( NAMED_UNIT ( * ) PLANE_ANGLE_UNIT ( ) SI_UNIT ( $, .RADIAN. ) );
#44 = CYLINDRICAL_SURFACE ( 'NONE', #4, 1.750000000000005107 ) ;
#45 = CARTESIAN_POINT ( 'NONE',  ( 4.000000000000003553, 0.0000000000000000000, -20.75000000000000355 ) ) ;
#46 = DIRECTION ( 'NONE',  ( 1.000000000000000000, 0.0000000000000000000, 0.0000000000000000000 ) ) ;
#47 = ORIENTED_EDGE ( 'NONE', *, *, #29, .T. ) ;
#48 = ORIENTED_EDGE ( 'NONE', *, *, #338, .F. ) ;
#49 = EDGE_CURVE ( 'NONE', #301, #101, #109, .T. ) ;
#50 = AXIS2_PLACEMENT_3D ( 'NONE', #302, #190, #1 ) ;
#51 = EDGE_LOOP ( 'NONE', ( #326, #267, #233, #232 ) ) ;
#52 = EDGE_LOOP ( 'NONE', ( #18, #344, #183, #205 ) ) ;
#53 = ORIENTED_EDGE ( 'NONE', *, *, #13, .T. ) ;
#54 = EDGE_CURVE ( 'NONE', #131, #211, #22, .T. ) ;
#55 = COLOUR_RGB ( '',0.7921568627450980005, 0.8196078431372548767, 0.9333333333333333481 ) ;
#56 = CARTESIAN_POINT ( 'NONE',  ( 47.00000000000000000, 3.000000000000000000, -22.00000000000000000 ) ) ;
#57 = PLANE ( 'NONE',  #146 ) ;
#58 = CARTESIAN_POINT ( 'NONE',  ( 0.0000000000000000000, 3.000000000000000000, 0.0000000000000000000 ) ) ;
#59 =( LENGTH_UNIT ( ) NAMED_UNIT ( * ) SI_UNIT ( .MILLI., .METRE. ) );
#60 = CARTESIAN_POINT ( 'NONE',  ( 47.00000000000000000, 3.000000000000000000, 0.0000000000000000000 ) ) ;
#61 = EDGE_CURVE ( 'NONE', #269, #340, #132, .T. ) ;
#62 = FACE_OUTER_BOUND ( 'NONE', #52, .T. ) ;
#63 = LINE ( 'NONE', #9, #348 ) ;
#64 = PRESENTATION_LAYER_ASSIGNMENT (  '', '', ( #137 ) ) ;
#65 = DIRECTION ( 'NONE',  ( 0.0000000000000000000, -0.0000000000000000000, -1.000000000000000000 ) ) ;
#66 = DIRECTION ( 'NONE',  ( 0.0000000000000000000, 0.0000000000000000000, 1.000000000000000000 ) ) ;
#67 = CARTESIAN_POINT ( 'NONE',  ( 4.000000000000003553, 0.0000000000000000000, -19.00000000000000000 ) ) ;
#68 = SURFACE_STYLE_FILL_AREA ( #202 ) ;
#69 = CARTESIAN_POINT ( 'NONE',  ( 0.0000000000000000000, 3.000000000000000000, 0.0000000000000000000 ) ) ;
#70 = VERTEX_POINT ( 'NONE', #274 ) ;
#71 = AXIS2_PLACEMENT_3D ( 'NONE', #242, #87, #89 ) ;
#72 = DIRECTION ( 'NONE',  ( 0.0000000000000000000, 0.0000000000000000000, 1.000000000000000000 ) ) ;
#73 = STYLED_ITEM ( 'NONE', ( #265 ), #33 ) ;
#74 = CARTESIAN_POINT ( 'NONE',  ( 43.00000000000000000, 0.0000000000000000000, -3.000000000000003997 ) ) ;
#75 =( NAMED_UNIT ( * ) SI_UNIT ( $, .STERADIAN. ) SOLID_ANGLE_UNIT ( ) );
#76 = ORIENTED_EDGE ( 'NONE', *, *, #106, .T. ) ;
#77 = ADVANCED_FACE ( 'NONE', ( #32 ), #138, .F. ) ;
#78 = VERTEX_POINT ( 'NONE', #135 ) ;
#79 = ORIENTED_EDGE ( 'NONE', *, *, #127, .T. ) ;
#80 = EDGE_LOOP ( 'NONE', ( #53, #238, #155, #290 ) ) ;
#81 = ORIENTED_EDGE ( 'NONE', *, *, #328, .T. ) ;
#82 = LINE ( 'NONE', #251, #83 ) ;
#83 = VECTOR ( 'NONE', #278, 1000.000000000000000 ) ;
#84 = LINE ( 'NONE', #60, #195 ) ;
#85 = CARTESIAN_POINT ( 'NONE',  ( 0.0000000000000000000, 3.000000000000000000, 0.0000000000000000000 ) ) ;
#86 = SURFACE_SIDE_STYLE ('',( #136 ) ) ;
#87 = DIRECTION ( 'NONE',  ( -1.000000000000000000, 0.0000000000000000000, 0.0000000000000000000 ) ) ;
#88 =( NAMED_UNIT ( * ) PLANE_ANGLE_UNIT ( ) SI_UNIT ( $, .RADIAN. ) );
#89 = DIRECTION ( 'NONE',  ( 0.0000000000000000000, 0.0000000000000000000, 1.000000000000000000 ) ) ;
#90 = VECTOR ( 'NONE', #118, 1000.000000000000000 ) ;
#91 = DIRECTION ( 'NONE',  ( 0.0000000000000000000, 0.0000000000000000000, 1.000000000000000000 ) ) ;
#92 = CARTESIAN_POINT ( 'NONE',  ( 4.000000000000003553, 3.000000000000000000, -20.75000000000000355 ) ) ;
#93 = ADVANCED_FACE ( 'NONE', ( #185 ), #157, .F. ) ;
#94 = SHAPE_DEFINITION_REPRESENTATION ( #313, #33 ) ;
#95 = CARTESIAN_POINT ( 'NONE',  ( 0.0000000000000000000, 0.0000000000000000000, 0.0000000000000000000 ) ) ;
#96 = VECTOR ( 'NONE', #6, 1000.000000000000000 ) ;
#97 = PRODUCT_CONTEXT ( 'NONE', #323, 'mechanical' ) ;
#98 =( LENGTH_UNIT ( ) NAMED_UNIT ( * ) SI_UNIT ( .MILLI., .METRE. ) );
#99 = EDGE_CURVE ( 'NONE', #78, #131, #134, .T. ) ;
#100 = EDGE_LOOP ( 'NONE', ( #266, #208 ) ) ;
#101 = VERTEX_POINT ( 'NONE', #117 ) ;
#102 = EDGE_LOOP ( 'NONE', ( #239, #349, #125, #24 ) ) ;
#103 = ORIENTED_EDGE ( 'NONE', *, *, #320, .T. ) ;
#104 = VECTOR ( 'NONE', #289, 1000.000000000000000 ) ;
#105 = ORIENTED_EDGE ( 'NONE', *, *, #273, .F. ) ;
#106 = EDGE_CURVE ( 'NONE', #340, #101, #188, .T. ) ;
#107 = CARTESIAN_POINT ( 'NONE',  ( 4.000000000000003553, 3.000000000000000000, -17.24999999999999289 ) ) ;
#108 = DIRECTION ( 'NONE',  ( -0.0000000000000000000, 1.000000000000000000, -0.0000000000000000000 ) ) ;
#109 = LINE ( 'NONE', #56, #11 ) ;
#110 = EDGE_CURVE ( 'NONE', #70, #126, #115, .T. ) ;
#111 = CIRCLE ( 'NONE', #42, 1.750000000000003553 ) ;
#112 = DIRECTION ( 'NONE',  ( -0.0000000000000000000, 1.000000000000000000, -0.0000000000000000000 ) ) ;
#113 = PRESENTATION_LAYER_ASSIGNMENT (  '', '', ( #73 ) ) ;
#114 = FACE_OUTER_BOUND ( 'NONE', #41, .T. ) ;
#115 = LINE ( 'NONE', #312, #96 ) ;
#116 = FACE_BOUND ( 'NONE', #100, .T. ) ;
#117 = CARTESIAN_POINT ( 'NONE',  ( 47.00000000000000000, 0.0000000000000000000, -22.00000000000000000 ) ) ;
#118 = DIRECTION ( 'NONE',  ( -0.0000000000000000000, 1.000000000000000000, -0.0000000000000000000 ) ) ;
#119 = FACE_OUTER_BOUND ( 'NONE', #80, .T. ) ;
#120 = EDGE_CURVE ( 'NONE', #301, #70, #221, .T. ) ;
#121 = DIRECTION ( 'NONE',  ( 0.0000000000000000000, 0.0000000000000000000, -1.000000000000000000 ) ) ;
#122 = FACE_OUTER_BOUND ( 'NONE', #151, .T. ) ;
#123 = DIRECTION ( 'NONE',  ( 0.0000000000000000000, 1.000000000000000000, 0.0000000000000000000 ) ) ;
#124 = AXIS2_PLACEMENT_3D ( 'NONE', #58, #36, #159 ) ;
#125 = ORIENTED_EDGE ( 'NONE', *, *, #262, .F. ) ;
#126 = VERTEX_POINT ( 'NONE', #85 ) ;
#127 = EDGE_CURVE ( 'NONE', #240, #212, #225, .T. ) ;
#128 = CIRCLE ( 'NONE', #206, 1.750000000000003553 ) ;
#129 = ORIENTED_EDGE ( 'NONE', *, *, #286, .F. ) ;
#130 = ORIENTED_EDGE ( 'NONE', *, *, #268, .F. ) ;
#131 = VERTEX_POINT ( 'NONE', #107 ) ;
#132 = LINE ( 'NONE', #30, #217 ) ;
#133 = DIRECTION ( 'NONE',  ( -0.0000000000000000000, 1.000000000000000000, -0.0000000000000000000 ) ) ;
#134 = LINE ( 'NONE', #327, #282 ) ;
#135 = CARTESIAN_POINT ( 'NONE',  ( 4.000000000000003553, 0.0000000000000000000, -17.24999999999999289 ) ) ;
#136 = SURFACE_STYLE_FILL_AREA ( #31 ) ;
#137 = STYLED_ITEM ( 'NONE', ( #318 ), #176 ) ;
#138 = CYLINDRICAL_SURFACE ( 'NONE', #50, 1.750000000000003553 ) ;
#139 = CARTESIAN_POINT ( 'NONE',  ( 4.000000000000003553, 0.0000000000000000000, -19.00000000000000000 ) ) ;
#140 = CARTESIAN_POINT ( 'NONE',  ( 43.00000000000000000, 0.0000000000000000000, -3.000000000000003997 ) ) ;
#141 = CARTESIAN_POINT ( 'NONE',  ( 0.0000000000000000000, 3.000000000000000000, 0.0000000000000000000 ) ) ;
#142 = ADVANCED_FACE ( 'NONE', ( #309, #28, #219 ), #244, .T. ) ;
#143 = CARTESIAN_POINT ( 'NONE',  ( 0.0000000000000000000, 3.000000000000000000, -22.00000000000000000 ) ) ;
#144 = PLANE ( 'NONE',  #325 ) ;
#145 = CIRCLE ( 'NONE', #294, 1.750000000000003553 ) ;
#146 = AXIS2_PLACEMENT_3D ( 'NONE', #141, #222, #65 ) ;
#147 = APPLICATION_PROTOCOL_DEFINITION ( 'draft international standard', 'automotive_design', 1998, #336 ) ;
#148 = CARTESIAN_POINT ( 'NONE',  ( 43.00000000000000000, 0.0000000000000000000, -4.750000000000007994 ) ) ;
#149 = ORIENTED_EDGE ( 'NONE', *, *, #268, .T. ) ;
#150 = ADVANCED_FACE ( 'NONE', ( #332 ), #283, .F. ) ;
#151 = EDGE_LOOP ( 'NONE', ( #48, #322, #292, #152 ) ) ;
#152 = ORIENTED_EDGE ( 'NONE', *, *, #54, .T. ) ;
#153 = ORIENTED_EDGE ( 'NONE', *, *, #154, .T. ) ;
#154 = EDGE_CURVE ( 'NONE', #161, #263, #128, .T. ) ;
#155 = ORIENTED_EDGE ( 'NONE', *, *, #120, .F. ) ;
#156 = DIRECTION ( 'NONE',  ( 0.0000000000000000000, 0.0000000000000000000, 1.000000000000000000 ) ) ;
#157 = PLANE ( 'NONE',  #71 ) ;
#158 = LINE ( 'NONE', #216, #34 ) ;
#159 = DIRECTION ( 'NONE',  ( 0.0000000000000000000, 0.0000000000000000000, -1.000000000000000000 ) ) ;
#160 = CYLINDRICAL_SURFACE ( 'NONE', #303, 1.750000000000005107 ) ;
#161 = VERTEX_POINT ( 'NONE', #317 ) ;
#162 = CARTESIAN_POINT ( 'NONE',  ( 47.00000000000000000, 3.000000000000000000, -22.00000000000000000 ) ) ;
#163 = VECTOR ( 'NONE', #169, 1000.000000000000000 ) ;
#164 = DIRECTION ( 'NONE',  ( 0.0000000000000000000, -0.0000000000000000000, -1.000000000000000000 ) ) ;
#165 = AXIS2_PLACEMENT_3D ( 'NONE', #166, #335, #315 ) ;
#166 = CARTESIAN_POINT ( 'NONE',  ( 4.000000000000003553, 0.0000000000000000000, -19.00000000000000000 ) ) ;
#167 = DIRECTION ( 'NONE',  ( -1.000000000000000000, 0.0000000000000000000, -0.0000000000000000000 ) ) ;
#168 = CARTESIAN_POINT ( 'NONE',  ( 47.00000000000000000, 0.0000000000000000000, 0.0000000000000000000 ) ) ;
#169 = DIRECTION ( 'NONE',  ( 1.000000000000000000, 0.0000000000000000000, 0.0000000000000000000 ) ) ;
#170 = EDGE_LOOP ( 'NONE', ( #130, #297, #175, #210 ) ) ;
#171 = CARTESIAN_POINT ( 'NONE',  ( 0.0000000000000000000, 3.000000000000000000, 0.0000000000000000000 ) ) ;
#172 = EDGE_CURVE ( 'NONE', #263, #161, #111, .T. ) ;
#173 = CLOSED_SHELL ( 'NONE', ( #343, #279, #150, #236, #93, #243, #346, #142, #214, #77 ) ) ;
#174 =( NAMED_UNIT ( * ) PLANE_ANGLE_UNIT ( ) SI_UNIT ( $, .RADIAN. ) );
#175 = ORIENTED_EDGE ( 'NONE', *, *, #273, .T. ) ;
#176 = MANIFOLD_SOLID_BREP ( 'Cut-Extrude1', #173 ) ;
#177 = DIRECTION ( 'NONE',  ( -0.0000000000000000000, 1.000000000000000000, -0.0000000000000000000 ) ) ;
#178 = EDGE_CURVE ( 'NONE', #70, #184, #291, .T. ) ;
#179 = VERTEX_POINT ( 'NONE', #45 ) ;
#180 = ORIENTED_EDGE ( 'NONE', *, *, #61, .T. ) ;
#181 = EDGE_LOOP ( 'NONE', ( #153, #319 ) ) ;
#182 = MECHANICAL_DESIGN_GEOMETRIC_PRESENTATION_REPRESENTATION (  '', ( #137 ), #255 ) ;
#183 = ORIENTED_EDGE ( 'NONE', *, *, #314, .T. ) ;
#184 = VERTEX_POINT ( 'NONE', #12 ) ;
#185 = FACE_OUTER_BOUND ( 'NONE', #272, .T. ) ;
#186 = DIRECTION ( 'NONE',  ( -0.0000000000000000000, 1.000000000000000000, -0.0000000000000000000 ) ) ;
#187 = AXIS2_PLACEMENT_3D ( 'NONE', #231, #72, #46 ) ;
#188 = LINE ( 'NONE', #3, #248 ) ;
#189 = CARTESIAN_POINT ( 'NONE',  ( 43.00000000000000000, 0.0000000000000000000, -1.250000000000000444 ) ) ;
#190 = DIRECTION ( 'NONE',  ( -0.0000000000000000000, 1.000000000000000000, -0.0000000000000000000 ) ) ;
#191 = FACE_OUTER_BOUND ( 'NONE', #260, .T. ) ;
#192 = CARTESIAN_POINT ( 'NONE',  ( 43.00000000000000000, 3.000000000000000000, -3.000000000000003997 ) ) ;
#193 = EDGE_CURVE ( 'NONE', #25, #340, #229, .T. ) ;
#194 =( NAMED_UNIT ( * ) SI_UNIT ( $, .STERADIAN. ) SOLID_ANGLE_UNIT ( ) );
#195 = VECTOR ( 'NONE', #308, 1000.000000000000000 ) ;
#196 = DIRECTION ( 'NONE',  ( 0.0000000000000000000, 0.0000000000000000000, 1.000000000000000000 ) ) ;
#197 = AXIS2_PLACEMENT_3D ( 'NONE', #224, #199, #5 ) ;
#198 = UNCERTAINTY_MEASURE_WITH_UNIT (LENGTH_MEASURE( 1.000000000000000082E-05 ), #59, 'distance_accuracy_value', 'NONE');
#199 = DIRECTION ( 'NONE',  ( 0.0000000000000000000, 1.000000000000000000, 0.0000000000000000000 ) ) ;
#200 = SURFACE_STYLE_USAGE ( .BOTH. , #256 ) ;
#201 = FILL_AREA_STYLE_COLOUR ( '', #55 ) ;
#202 = FILL_AREA_STYLE ('',( #201 ) ) ;
#203 = AXIS2_PLACEMENT_3D ( 'NONE', #35, #133, #331 ) ;
#204 = DIRECTION ( 'NONE',  ( 0.0000000000000000000, 0.0000000000000000000, 1.000000000000000000 ) ) ;
#205 = ORIENTED_EDGE ( 'NONE', *, *, #99, .F. ) ;
#206 = AXIS2_PLACEMENT_3D ( 'NONE', #140, #334, #204 ) ;
#207 = VECTOR ( 'NONE', #108, 1000.000000000000000 ) ;
#208 = ORIENTED_EDGE ( 'NONE', *, *, #314, .F. ) ;
#209 = PRODUCT_RELATED_PRODUCT_CATEGORY ( 'part', '', ( #237 ) ) ;
#210 = ORIENTED_EDGE ( 'NONE', *, *, #286, .T. ) ;
#211 = VERTEX_POINT ( 'NONE', #92 ) ;
#212 = VERTEX_POINT ( 'NONE', #287 ) ;
#213 = DIRECTION ( 'NONE',  ( -0.0000000000000000000, -1.000000000000000000, -0.0000000000000000000 ) ) ;
#214 = ADVANCED_FACE ( 'NONE', ( #122 ), #44, .F. ) ;
#215 = CARTESIAN_POINT ( 'NONE',  ( 0.0000000000000000000, 0.0000000000000000000, 0.0000000000000000000 ) ) ;
#216 = CARTESIAN_POINT ( 'NONE',  ( 0.0000000000000000000, 0.0000000000000000000, 0.0000000000000000000 ) ) ;
#217 = VECTOR ( 'NONE', #333, 1000.000000000000000 ) ;
#218 = COLOUR_RGB ( '',0.7921568627450980005, 0.8196078431372548767, 0.9333333333333333481 ) ;
#219 = FACE_OUTER_BOUND ( 'NONE', #271, .T. ) ;
#220 = CARTESIAN_POINT ( 'NONE',  ( 47.00000000000000000, 3.000000000000000000, 0.0000000000000000000 ) ) ;
#221 = LINE ( 'NONE', #26, #316 ) ;
#222 = DIRECTION ( 'NONE',  ( 0.0000000000000000000, -1.000000000000000000, 0.0000000000000000000 ) ) ;
#223 = DIRECTION ( 'NONE',  ( -1.000000000000000000, -0.0000000000000000000, -0.0000000000000000000 ) ) ;
#224 = CARTESIAN_POINT ( 'NONE',  ( 4.000000000000003553, 3.000000000000000000, -19.00000000000000000 ) ) ;
#225 = CIRCLE ( 'NONE', #298, 1.750000000000003553 ) ;
#226 = CIRCLE ( 'NONE', #165, 1.750000000000005107 ) ;
#227 = LINE ( 'NONE', #171, #104 ) ;
#228 = DIRECTION ( 'NONE',  ( 1.000000000000000000, 0.0000000000000000000, -0.0000000000000000000 ) ) ;
#229 = LINE ( 'NONE', #95, #163 ) ;
#230 = VECTOR ( 'NONE', #259, 1000.000000000000000 ) ;
#231 = CARTESIAN_POINT ( 'NONE',  ( 0.0000000000000000000, 0.0000000000000000000, 0.0000000000000000000 ) ) ;
#232 = ORIENTED_EDGE ( 'NONE', *, *, #178, .T. ) ;
#233 = ORIENTED_EDGE ( 'NONE', *, *, #110, .F. ) ;
#234 = ORIENTED_EDGE ( 'NONE', *, *, #49, .F. ) ;
#235 =( GEOMETRIC_REPRESENTATION_CONTEXT ( 3 ) GLOBAL_UNCERTAINTY_ASSIGNED_CONTEXT ( ( #261 ) ) GLOBAL_UNIT_ASSIGNED_CONTEXT ( ( #257, #43, #75 ) ) REPRESENTATION_CONTEXT ( 'NONE', 'WORKASPACE' ) );
#236 = ADVANCED_FACE ( 'NONE', ( #40 ), #144, .F. ) ;
#237 = PRODUCT ( 'EMC-V52-BP', 'EMC-V52-BP', '', ( #97 ) ) ;
#238 = ORIENTED_EDGE ( 'NONE', *, *, #178, .F. ) ;
#239 = ORIENTED_EDGE ( 'NONE', *, *, #193, .T. ) ;
#240 = VERTEX_POINT ( 'NONE', #285 ) ;
#241 = MECHANICAL_DESIGN_GEOMETRIC_PRESENTATION_REPRESENTATION (  '', ( #73 ), #235 ) ;
#242 = CARTESIAN_POINT ( 'NONE',  ( 47.00000000000000000, 3.000000000000000000, 0.0000000000000000000 ) ) ;
#243 = ADVANCED_FACE ( 'NONE', ( #119 ), #39, .F. ) ;
#244 = PLANE ( 'NONE',  #270 ) ;
#245 = CARTESIAN_POINT ( 'NONE',  ( 43.00000000000000000, 0.0000000000000000000, -4.750000000000007994 ) ) ;
#246 = CARTESIAN_POINT ( 'NONE',  ( 4.000000000000003553, 3.000000000000000000, -19.00000000000000000 ) ) ;
#247 = CARTESIAN_POINT ( 'NONE',  ( 4.000000000000003553, 0.0000000000000000000, -20.75000000000000355 ) ) ;
#248 = VECTOR ( 'NONE', #249, 1000.000000000000000 ) ;
#249 = DIRECTION ( 'NONE',  ( 0.0000000000000000000, 0.0000000000000000000, -1.000000000000000000 ) ) ;
#250 = FACE_BOUND ( 'NONE', #342, .T. ) ;
#251 = CARTESIAN_POINT ( 'NONE',  ( 0.0000000000000000000, 3.000000000000000000, 0.0000000000000000000 ) ) ;
#252 = PRODUCT_DEFINITION_CONTEXT ( 'detailed design', #336, 'design' ) ;
#253 = FILL_AREA_STYLE_COLOUR ( '', #218 ) ;
#254 =( NAMED_UNIT ( * ) SI_UNIT ( $, .STERADIAN. ) SOLID_ANGLE_UNIT ( ) );
#255 =( GEOMETRIC_REPRESENTATION_CONTEXT ( 3 ) GLOBAL_UNCERTAINTY_ASSIGNED_CONTEXT ( ( #37 ) ) GLOBAL_UNIT_ASSIGNED_CONTEXT ( ( #98, #174, #254 ) ) REPRESENTATION_CONTEXT ( 'NONE', 'WORKASPACE' ) );
#256 = SURFACE_SIDE_STYLE ('',( #68 ) ) ;
#257 =( LENGTH_UNIT ( ) NAMED_UNIT ( * ) SI_UNIT ( .MILLI., .METRE. ) );
#258 = LINE ( 'NONE', #245, #310 ) ;
#259 = DIRECTION ( 'NONE',  ( -0.0000000000000000000, -1.000000000000000000, -0.0000000000000000000 ) ) ;
#260 = EDGE_LOOP ( 'NONE', ( #20, #149, #79, #105 ) ) ;
#261 = UNCERTAINTY_MEASURE_WITH_UNIT (LENGTH_MEASURE( 1.000000000000000082E-05 ), #257, 'distance_accuracy_value', 'NONE');
#262 = EDGE_CURVE ( 'NONE', #126, #269, #227, .T. ) ;
#263 = VERTEX_POINT ( 'NONE', #148 ) ;
#264 =( GEOMETRIC_REPRESENTATION_CONTEXT ( 3 ) GLOBAL_UNCERTAINTY_ASSIGNED_CONTEXT ( ( #198 ) ) GLOBAL_UNIT_ASSIGNED_CONTEXT ( ( #59, #88, #194 ) ) REPRESENTATION_CONTEXT ( 'NONE', 'WORKASPACE' ) );
#265 = PRESENTATION_STYLE_ASSIGNMENT (( #19 ) ) ;
#266 = ORIENTED_EDGE ( 'NONE', *, *, #54, .F. ) ;
#267 = ORIENTED_EDGE ( 'NONE', *, *, #8, .F. ) ;
#268 = EDGE_CURVE ( 'NONE', #263, #240, #258, .T. ) ;
#269 = VERTEX_POINT ( 'NONE', #220 ) ;
#270 = AXIS2_PLACEMENT_3D ( 'NONE', #215, #306, #164 ) ;
#271 = EDGE_LOOP ( 'NONE', ( #14, #295, #21, #23 ) ) ;
#272 = EDGE_LOOP ( 'NONE', ( #76, #234, #321, #180 ) ) ;
#273 = EDGE_CURVE ( 'NONE', #161, #212, #284, .T. ) ;
#274 = CARTESIAN_POINT ( 'NONE',  ( 0.0000000000000000000, 3.000000000000000000, -22.00000000000000000 ) ) ;
#275 = CIRCLE ( 'NONE', #17, 1.750000000000005107 ) ;
#276 = DIRECTION ( 'NONE',  ( 0.0000000000000000000, 1.000000000000000000, 0.0000000000000000000 ) ) ;
#277 = LINE ( 'NONE', #247, #207 ) ;
#278 = DIRECTION ( 'NONE',  ( -0.0000000000000000000, -1.000000000000000000, -0.0000000000000000000 ) ) ;
#279 = ADVANCED_FACE ( 'NONE', ( #62 ), #160, .F. ) ;
#280 = DIRECTION ( 'NONE',  ( 0.0000000000000000000, 1.000000000000000000, 0.0000000000000000000 ) ) ;
#281 = CARTESIAN_POINT ( 'NONE',  ( 43.00000000000000000, 3.000000000000000000, -3.000000000000003997 ) ) ;
#282 = VECTOR ( 'NONE', #112, 1000.000000000000000 ) ;
#283 = PLANE ( 'NONE',  #124 ) ;
#284 = LINE ( 'NONE', #189, #90 ) ;
#285 = CARTESIAN_POINT ( 'NONE',  ( 43.00000000000000000, 3.000000000000000000, -4.750000000000007994 ) ) ;
#286 = EDGE_CURVE ( 'NONE', #212, #240, #145, .T. ) ;
#287 = CARTESIAN_POINT ( 'NONE',  ( 43.00000000000000000, 3.000000000000000000, -1.250000000000000444 ) ) ;
#288 = AXIS2_PLACEMENT_3D ( 'NONE', #246, #280, #196 ) ;
#289 = DIRECTION ( 'NONE',  ( 1.000000000000000000, 0.0000000000000000000, 0.0000000000000000000 ) ) ;
#290 = ORIENTED_EDGE ( 'NONE', *, *, #49, .T. ) ;
#291 = LINE ( 'NONE', #15, #230 ) ;
#292 = ORIENTED_EDGE ( 'NONE', *, *, #99, .T. ) ;
#293 = PRODUCT_DEFINITION ( 'UNKNOWN', '', #311, #252 ) ;
#294 = AXIS2_PLACEMENT_3D ( 'NONE', #281, #27, #91 ) ;
#295 = ORIENTED_EDGE ( 'NONE', *, *, #13, .F. ) ;
#296 = ORIENTED_EDGE ( 'NONE', *, *, #110, .T. ) ;
#297 = ORIENTED_EDGE ( 'NONE', *, *, #154, .F. ) ;
#298 = AXIS2_PLACEMENT_3D ( 'NONE', #192, #276, #156 ) ;
#299 = CIRCLE ( 'NONE', #197, 1.750000000000005107 ) ;
#300 = EDGE_LOOP ( 'NONE', ( #81, #103 ) ) ;
#301 = VERTEX_POINT ( 'NONE', #162 ) ;
#302 = CARTESIAN_POINT ( 'NONE',  ( 43.00000000000000000, 0.0000000000000000000, -3.000000000000003997 ) ) ;
#303 = AXIS2_PLACEMENT_3D ( 'NONE', #139, #186, #304 ) ;
#304 = DIRECTION ( 'NONE',  ( 0.0000000000000000000, 0.0000000000000000000, 1.000000000000000000 ) ) ;
#305 = EDGE_CURVE ( 'NONE', #184, #25, #158, .T. ) ;
#306 = DIRECTION ( 'NONE',  ( 0.0000000000000000000, -1.000000000000000000, 0.0000000000000000000 ) ) ;
#307 = DIRECTION ( 'NONE',  ( 0.0000000000000000000, 0.0000000000000000000, 1.000000000000000000 ) ) ;
#308 = DIRECTION ( 'NONE',  ( 0.0000000000000000000, 0.0000000000000000000, -1.000000000000000000 ) ) ;
#309 = FACE_BOUND ( 'NONE', #181, .T. ) ;
#310 = VECTOR ( 'NONE', #10, 1000.000000000000000 ) ;
#311 = PRODUCT_DEFINITION_FORMATION_WITH_SPECIFIED_SOURCE ( 'ANY', '', #237, .NOT_KNOWN. ) ;
#312 = CARTESIAN_POINT ( 'NONE',  ( 0.0000000000000000000, 3.000000000000000000, 0.0000000000000000000 ) ) ;
#313 = PRODUCT_DEFINITION_SHAPE ( 'NONE', 'NONE',  #293 ) ;
#314 = EDGE_CURVE ( 'NONE', #211, #131, #299, .T. ) ;
#315 = DIRECTION ( 'NONE',  ( 0.0000000000000000000, 0.0000000000000000000, 1.000000000000000000 ) ) ;
#316 = VECTOR ( 'NONE', #223, 1000.000000000000000 ) ;
#317 = CARTESIAN_POINT ( 'NONE',  ( 43.00000000000000000, 0.0000000000000000000, -1.250000000000000444 ) ) ;
#318 = PRESENTATION_STYLE_ASSIGNMENT (( #200 ) ) ;
#319 = ORIENTED_EDGE ( 'NONE', *, *, #172, .T. ) ;
#320 = EDGE_CURVE ( 'NONE', #179, #78, #226, .T. ) ;
#321 = ORIENTED_EDGE ( 'NONE', *, *, #29, .F. ) ;
#322 = ORIENTED_EDGE ( 'NONE', *, *, #328, .F. ) ;
#323 = APPLICATION_CONTEXT ( 'automotive_design' ) ;
#324 = ORIENTED_EDGE ( 'NONE', *, *, #120, .T. ) ;
#325 = AXIS2_PLACEMENT_3D ( 'NONE', #69, #121, #167 ) ;
#326 = ORIENTED_EDGE ( 'NONE', *, *, #305, .T. ) ;
#327 = CARTESIAN_POINT ( 'NONE',  ( 4.000000000000003553, 0.0000000000000000000, -17.24999999999999289 ) ) ;
#328 = EDGE_CURVE ( 'NONE', #78, #179, #275, .T. ) ;
#329 = APPLICATION_PROTOCOL_DEFINITION ( 'draft international standard', 'automotive_design', 1998, #323 ) ;
#330 = DIRECTION ( 'NONE',  ( -1.000000000000000000, -0.0000000000000000000, -0.0000000000000000000 ) ) ;
#331 = DIRECTION ( 'NONE',  ( 0.0000000000000000000, 0.0000000000000000000, 1.000000000000000000 ) ) ;
#332 = FACE_OUTER_BOUND ( 'NONE', #51, .T. ) ;
#333 = DIRECTION ( 'NONE',  ( -0.0000000000000000000, -1.000000000000000000, -0.0000000000000000000 ) ) ;
#334 = DIRECTION ( 'NONE',  ( 0.0000000000000000000, 1.000000000000000000, 0.0000000000000000000 ) ) ;
#335 = DIRECTION ( 'NONE',  ( 0.0000000000000000000, 1.000000000000000000, 0.0000000000000000000 ) ) ;
#336 = APPLICATION_CONTEXT ( 'automotive_design' ) ;
#337 = DIRECTION ( 'NONE',  ( 0.0000000000000000000, 0.0000000000000000000, 1.000000000000000000 ) ) ;
#338 = EDGE_CURVE ( 'NONE', #179, #211, #277, .T. ) ;
#339 = DIRECTION ( 'NONE',  ( 0.0000000000000000000, 0.0000000000000000000, 1.000000000000000000 ) ) ;
#340 = VERTEX_POINT ( 'NONE', #168 ) ;
#341 = CARTESIAN_POINT ( 'NONE',  ( 4.000000000000003553, 0.0000000000000000000, -19.00000000000000000 ) ) ;
#342 = EDGE_LOOP ( 'NONE', ( #129, #347 ) ) ;
#343 = ADVANCED_FACE ( 'NONE', ( #191 ), #7, .F. ) ;
#344 = ORIENTED_EDGE ( 'NONE', *, *, #338, .T. ) ;
#345 = ORIENTED_EDGE ( 'NONE', *, *, #262, .T. ) ;
#346 = ADVANCED_FACE ( 'NONE', ( #250, #116, #114 ), #57, .F. ) ;
#347 = ORIENTED_EDGE ( 'NONE', *, *, #127, .F. ) ;
#348 = VECTOR ( 'NONE', #330, 1000.000000000000000 ) ;
#349 = ORIENTED_EDGE ( 'NONE', *, *, #61, .F. ) ;
#350 = CARTESIAN_POINT ( 'NONE',  ( 0.0000000000000000000, 0.0000000000000000000, 0.0000000000000000000 ) ) ;
ENDSEC;
END-ISO-10303-21;
