ISO-10303-21;
HEADER;
FILE_DESCRIPTION (( 'STEP AP214' ),
    '1' );
FILE_NAME ('EMC-V53-BP.STEP',
    '2020-04-03T14:43:12',
    ( '' ),
    ( '' ),
    'SwSTEP 2.0',
    'SolidWorks 2020',
    '' );
FILE_SCHEMA (( 'AUTOMOTIVE_DESIGN' ));
ENDSEC;

DATA;
#1 = AXIS2_PLACEMENT_3D ( 'NONE', #183, #105, #289 ) ;
#2 = PRODUCT_DEFINITION_FORMATION_WITH_SPECIFIED_SOURCE ( 'ANY', '', #242, .NOT_KNOWN. ) ;
#3 = EDGE_CURVE ( 'NONE', #299, #189, #121, .T. ) ;
#4 = FACE_BOUND ( 'NONE', #86, .T. ) ;
#5 = APPLICATION_CONTEXT ( 'automotive_design' ) ;
#6 = ORIENTED_EDGE ( 'NONE', *, *, #218, .T. ) ;
#7 = ORIENTED_EDGE ( 'NONE', *, *, #122, .F. ) ;
#8 = CARTESIAN_POINT ( 'NONE',  ( 62.00000000000000000, 2.500000000000000000, -27.00000000000000000 ) ) ;
#9 = CARTESIAN_POINT ( 'NONE',  ( 0.0000000000000000000, 0.0000000000000000000, 0.0000000000000000000 ) ) ;
#10 = ADVANCED_FACE ( 'NONE', ( #127 ), #232, .F. ) ;
#11 = CARTESIAN_POINT ( 'NONE',  ( 62.00000000000000000, 2.500000000000000000, 0.0000000000000000000 ) ) ;
#12 = AXIS2_PLACEMENT_3D ( 'NONE', #182, #93, #341 ) ;
#13 = CARTESIAN_POINT ( 'NONE',  ( 0.0000000000000000000, 0.0000000000000000000, -27.00000000000000000 ) ) ;
#14 = EDGE_LOOP ( 'NONE', ( #295, #228, #61, #294 ) ) ;
#15 = CARTESIAN_POINT ( 'NONE',  ( 6.000000000000000000, 0.0000000000000000000, -21.80000000000000071 ) ) ;
#16 = ORIENTED_EDGE ( 'NONE', *, *, #320, .F. ) ;
#17 = CARTESIAN_POINT ( 'NONE',  ( 56.00000000000000711, 2.500000000000000000, -3.499999999999999556 ) ) ;
#18 = ORIENTED_EDGE ( 'NONE', *, *, #298, .F. ) ;
#19 = LINE ( 'NONE', #206, #82 ) ;
#20 = VECTOR ( 'NONE', #115, 1000.000000000000000 ) ;
#21 = VECTOR ( 'NONE', #42, 1000.000000000000000 ) ;
#22 = DIRECTION ( 'NONE',  ( 0.0000000000000000000, -0.0000000000000000000, -1.000000000000000000 ) ) ;
#23 = SURFACE_STYLE_USAGE ( .BOTH. , #211 ) ;
#24 = EDGE_CURVE ( 'NONE', #186, #143, #277, .T. ) ;
#25 = CARTESIAN_POINT ( 'NONE',  ( 0.0000000000000000000, 2.500000000000000000, -27.00000000000000000 ) ) ;
#26 = COLOUR_RGB ( '',0.7921568627450980005, 0.8196078431372548767, 0.9333333333333333481 ) ;
#27 =( NAMED_UNIT ( * ) SI_UNIT ( $, .STERADIAN. ) SOLID_ANGLE_UNIT ( ) );
#28 = ADVANCED_FACE ( 'NONE', ( #229 ), #46, .F. ) ;
#29 = SHAPE_DEFINITION_REPRESENTATION ( #304, #207 ) ;
#30 = AXIS2_PLACEMENT_3D ( 'NONE', #331, #77, #154 ) ;
#31 = VERTEX_POINT ( 'NONE', #88 ) ;
#32 = DIRECTION ( 'NONE',  ( 1.000000000000000000, 0.0000000000000000000, -0.0000000000000000000 ) ) ;
#33 = ORIENTED_EDGE ( 'NONE', *, *, #126, .T. ) ;
#34 = EDGE_CURVE ( 'NONE', #189, #258, #332, .T. ) ;
#35 = ORIENTED_EDGE ( 'NONE', *, *, #79, .T. ) ;
#36 = ORIENTED_EDGE ( 'NONE', *, *, #104, .T. ) ;
#37 =( GEOMETRIC_REPRESENTATION_CONTEXT ( 3 ) GLOBAL_UNCERTAINTY_ASSIGNED_CONTEXT ( ( #238 ) ) GLOBAL_UNIT_ASSIGNED_CONTEXT ( ( #133, #161, #27 ) ) REPRESENTATION_CONTEXT ( 'NONE', 'WORKASPACE' ) );
#38 = FACE_BOUND ( 'NONE', #84, .T. ) ;
#39 = ORIENTED_EDGE ( 'NONE', *, *, #214, .F. ) ;
#40 = DIRECTION ( 'NONE',  ( 0.0000000000000000000, -0.0000000000000000000, -1.000000000000000000 ) ) ;
#41 = VERTEX_POINT ( 'NONE', #200 ) ;
#42 = DIRECTION ( 'NONE',  ( -1.000000000000000000, -0.0000000000000000000, -0.0000000000000000000 ) ) ;
#43 = EDGE_LOOP ( 'NONE', ( #325, #125, #16, #33 ) ) ;
#44 = FACE_OUTER_BOUND ( 'NONE', #190, .T. ) ;
#45 = EDGE_CURVE ( 'NONE', #350, #219, #174, .T. ) ;
#46 = PLANE ( 'NONE',  #52 ) ;
#47 = CYLINDRICAL_SURFACE ( 'NONE', #60, 1.699999999999999289 ) ;
#48 = CARTESIAN_POINT ( 'NONE',  ( 6.000000000000000000, 2.500000000000000000, -25.19999999999999929 ) ) ;
#49 = LINE ( 'NONE', #194, #231 ) ;
#50 = DIRECTION ( 'NONE',  ( 0.0000000000000000000, 1.000000000000000000, 0.0000000000000000000 ) ) ;
#51 = CARTESIAN_POINT ( 'NONE',  ( 0.0000000000000000000, 0.0000000000000000000, 0.0000000000000000000 ) ) ;
#52 = AXIS2_PLACEMENT_3D ( 'NONE', #114, #254, #283 ) ;
#53 =( NAMED_UNIT ( * ) PLANE_ANGLE_UNIT ( ) SI_UNIT ( $, .RADIAN. ) );
#54 = AXIS2_PLACEMENT_3D ( 'NONE', #310, #50, #70 ) ;
#55 = CARTESIAN_POINT ( 'NONE',  ( 56.00000000000000711, 0.0000000000000000000, -5.200000000000000178 ) ) ;
#56 = CARTESIAN_POINT ( 'NONE',  ( 6.000000000000000000, 2.500000000000000000, -23.50000000000000000 ) ) ;
#57 = VECTOR ( 'NONE', #275, 1000.000000000000000 ) ;
#58 = CARTESIAN_POINT ( 'NONE',  ( 56.00000000000000711, 0.0000000000000000000, -3.499999999999999556 ) ) ;
#59 = ORIENTED_EDGE ( 'NONE', *, *, #136, .T. ) ;
#60 = AXIS2_PLACEMENT_3D ( 'NONE', #17, #313, #204 ) ;
#61 = ORIENTED_EDGE ( 'NONE', *, *, #337, .F. ) ;
#62 = EDGE_CURVE ( 'NONE', #41, #140, #312, .T. ) ;
#63 = PRODUCT_DEFINITION ( 'UNKNOWN', '', #2, #102 ) ;
#64 = ORIENTED_EDGE ( 'NONE', *, *, #160, .F. ) ;
#65 = CIRCLE ( 'NONE', #236, 1.699999999999999512 ) ;
#66 = MANIFOLD_SOLID_BREP ( 'Boss-Extrude1', #224 ) ;
#67 = DIRECTION ( 'NONE',  ( 0.0000000000000000000, 0.0000000000000000000, 1.000000000000000000 ) ) ;
#68 = ORIENTED_EDGE ( 'NONE', *, *, #164, .F. ) ;
#69 = CARTESIAN_POINT ( 'NONE',  ( 56.00000000000000711, 2.500000000000000000, -5.200000000000000178 ) ) ;
#70 = DIRECTION ( 'NONE',  ( 0.0000000000000000000, 0.0000000000000000000, 1.000000000000000000 ) ) ;
#71 = ORIENTED_EDGE ( 'NONE', *, *, #214, .T. ) ;
#72 = FILL_AREA_STYLE ('',( #173 ) ) ;
#73 = DIRECTION ( 'NONE',  ( 0.0000000000000000000, 0.0000000000000000000, 1.000000000000000000 ) ) ;
#74 = FACE_OUTER_BOUND ( 'NONE', #203, .T. ) ;
#75 = ORIENTED_EDGE ( 'NONE', *, *, #24, .T. ) ;
#76 = CARTESIAN_POINT ( 'NONE',  ( 62.00000000000000000, 2.500000000000000000, 0.0000000000000000000 ) ) ;
#77 = DIRECTION ( 'NONE',  ( -0.0000000000000000000, -1.000000000000000000, -0.0000000000000000000 ) ) ;
#78 = LINE ( 'NONE', #135, #162 ) ;
#79 = EDGE_CURVE ( 'NONE', #171, #143, #65, .T. ) ;
#80 = UNCERTAINTY_MEASURE_WITH_UNIT (LENGTH_MEASURE( 1.000000000000000082E-05 ), #158, 'distance_accuracy_value', 'NONE');
#81 = CIRCLE ( 'NONE', #1, 1.699999999999999512 ) ;
#82 = VECTOR ( 'NONE', #124, 1000.000000000000000 ) ;
#83 = ORIENTED_EDGE ( 'NONE', *, *, #3, .T. ) ;
#84 = EDGE_LOOP ( 'NONE', ( #253, #35 ) ) ;
#85 = FACE_OUTER_BOUND ( 'NONE', #328, .T. ) ;
#86 = EDGE_LOOP ( 'NONE', ( #96, #6 ) ) ;
#87 = ORIENTED_EDGE ( 'NONE', *, *, #108, .T. ) ;
#88 = CARTESIAN_POINT ( 'NONE',  ( 0.0000000000000000000, 0.0000000000000000000, 0.0000000000000000000 ) ) ;
#89 = PLANE ( 'NONE',  #145 ) ;
#90 = FILL_AREA_STYLE ('',( #172 ) ) ;
#91 = LINE ( 'NONE', #95, #199 ) ;
#92 = ORIENTED_EDGE ( 'NONE', *, *, #108, .F. ) ;
#93 = DIRECTION ( 'NONE',  ( 0.0000000000000000000, 0.0000000000000000000, 1.000000000000000000 ) ) ;
#94 = DIRECTION ( 'NONE',  ( -0.0000000000000000000, -1.000000000000000000, -0.0000000000000000000 ) ) ;
#95 = CARTESIAN_POINT ( 'NONE',  ( 56.00000000000000711, 2.500000000000000000, -1.800000000000000266 ) ) ;
#96 = ORIENTED_EDGE ( 'NONE', *, *, #337, .T. ) ;
#97 = DIRECTION ( 'NONE',  ( 0.0000000000000000000, 0.0000000000000000000, -1.000000000000000000 ) ) ;
#98 = DIRECTION ( 'NONE',  ( 0.0000000000000000000, 1.000000000000000000, 0.0000000000000000000 ) ) ;
#99 = EDGE_CURVE ( 'NONE', #143, #171, #336, .T. ) ;
#100 = DIRECTION ( 'NONE',  ( 0.0000000000000000000, 0.0000000000000000000, 1.000000000000000000 ) ) ;
#101 = APPLICATION_CONTEXT ( 'automotive_design' ) ;
#102 = PRODUCT_DEFINITION_CONTEXT ( 'detailed design', #5, 'design' ) ;
#103 = LINE ( 'NONE', #110, #239 ) ;
#104 = EDGE_CURVE ( 'NONE', #152, #31, #103, .T. ) ;
#105 = DIRECTION ( 'NONE',  ( 0.0000000000000000000, 1.000000000000000000, 0.0000000000000000000 ) ) ;
#106 = DIRECTION ( 'NONE',  ( 0.0000000000000000000, 0.0000000000000000000, 1.000000000000000000 ) ) ;
#107 = APPLICATION_PROTOCOL_DEFINITION ( 'draft international standard', 'automotive_design', 1998, #5 ) ;
#108 = EDGE_CURVE ( 'NONE', #269, #187, #49, .T. ) ;
#109 = ORIENTED_EDGE ( 'NONE', *, *, #79, .F. ) ;
#110 = CARTESIAN_POINT ( 'NONE',  ( 0.0000000000000000000, 0.0000000000000000000, 0.0000000000000000000 ) ) ;
#111 = VECTOR ( 'NONE', #146, 1000.000000000000000 ) ;
#112 = ORIENTED_EDGE ( 'NONE', *, *, #34, .T. ) ;
#113 = ORIENTED_EDGE ( 'NONE', *, *, #160, .T. ) ;
#114 = CARTESIAN_POINT ( 'NONE',  ( 0.0000000000000000000, 2.500000000000000000, 0.0000000000000000000 ) ) ;
#115 = DIRECTION ( 'NONE',  ( -0.0000000000000000000, -1.000000000000000000, -0.0000000000000000000 ) ) ;
#116 = AXIS2_PLACEMENT_3D ( 'NONE', #339, #196, #309 ) ;
#117 = CARTESIAN_POINT ( 'NONE',  ( 62.00000000000000000, 2.500000000000000000, 0.0000000000000000000 ) ) ;
#118 = DIRECTION ( 'NONE',  ( -0.0000000000000000000, -0.0000000000000000000, 1.000000000000000000 ) ) ;
#119 = CIRCLE ( 'NONE', #163, 1.700000000000000178 ) ;
#120 = DIRECTION ( 'NONE',  ( -1.000000000000000000, -0.0000000000000000000, -0.0000000000000000000 ) ) ;
#121 = LINE ( 'NONE', #11, #265 ) ;
#122 = EDGE_CURVE ( 'NONE', #269, #152, #264, .T. ) ;
#123 = LINE ( 'NONE', #51, #138 ) ;
#124 = DIRECTION ( 'NONE',  ( 1.000000000000000000, 0.0000000000000000000, 0.0000000000000000000 ) ) ;
#125 = ORIENTED_EDGE ( 'NONE', *, *, #263, .F. ) ;
#126 = EDGE_CURVE ( 'NONE', #187, #31, #78, .T. ) ;
#127 = FACE_OUTER_BOUND ( 'NONE', #221, .T. ) ;
#128 = VECTOR ( 'NONE', #120, 1000.000000000000000 ) ;
#129 = DIRECTION ( 'NONE',  ( 0.0000000000000000000, 0.0000000000000000000, 1.000000000000000000 ) ) ;
#130 = DIRECTION ( 'NONE',  ( 0.0000000000000000000, 0.0000000000000000000, 1.000000000000000000 ) ) ;
#131 =( NAMED_UNIT ( * ) SI_UNIT ( $, .STERADIAN. ) SOLID_ANGLE_UNIT ( ) );
#132 = DIRECTION ( 'NONE',  ( -0.0000000000000000000, -1.000000000000000000, -0.0000000000000000000 ) ) ;
#133 =( LENGTH_UNIT ( ) NAMED_UNIT ( * ) SI_UNIT ( .MILLI., .METRE. ) );
#134 = AXIS2_PLACEMENT_3D ( 'NONE', #56, #234, #340 ) ;
#135 = CARTESIAN_POINT ( 'NONE',  ( 0.0000000000000000000, 2.500000000000000000, 0.0000000000000000000 ) ) ;
#136 = EDGE_CURVE ( 'NONE', #153, #186, #81, .T. ) ;
#137 = ORIENTED_EDGE ( 'NONE', *, *, #3, .F. ) ;
#138 = VECTOR ( 'NONE', #305, 1000.000000000000000 ) ;
#139 = AXIS2_PLACEMENT_3D ( 'NONE', #252, #197, #209 ) ;
#140 = VERTEX_POINT ( 'NONE', #184 ) ;
#141 = PLANE ( 'NONE',  #344 ) ;
#142 = EDGE_LOOP ( 'NONE', ( #326, #156, #217, #165 ) ) ;
#143 = VERTEX_POINT ( 'NONE', #55 ) ;
#144 = VECTOR ( 'NONE', #303, 1000.000000000000000 ) ;
#145 = AXIS2_PLACEMENT_3D ( 'NONE', #227, #276, #22 ) ;
#146 = DIRECTION ( 'NONE',  ( -0.0000000000000000000, -1.000000000000000000, -0.0000000000000000000 ) ) ;
#147 = FACE_OUTER_BOUND ( 'NONE', #191, .T. ) ;
#148 = ORIENTED_EDGE ( 'NONE', *, *, #136, .F. ) ;
#149 = CYLINDRICAL_SURFACE ( 'NONE', #30, 1.699999999999999289 ) ;
#150 = FACE_OUTER_BOUND ( 'NONE', #14, .T. ) ;
#151 = VECTOR ( 'NONE', #94, 1000.000000000000000 ) ;
#152 = VERTEX_POINT ( 'NONE', #159 ) ;
#153 = VERTEX_POINT ( 'NONE', #291 ) ;
#154 = DIRECTION ( 'NONE',  ( 0.0000000000000000000, 0.0000000000000000000, -1.000000000000000000 ) ) ;
#155 = APPLICATION_PROTOCOL_DEFINITION ( 'draft international standard', 'automotive_design', 1998, #101 ) ;
#156 = ORIENTED_EDGE ( 'NONE', *, *, #167, .T. ) ;
#157 = DIRECTION ( 'NONE',  ( 0.0000000000000000000, 1.000000000000000000, 0.0000000000000000000 ) ) ;
#158 =( LENGTH_UNIT ( ) NAMED_UNIT ( * ) SI_UNIT ( .MILLI., .METRE. ) );
#159 = CARTESIAN_POINT ( 'NONE',  ( 0.0000000000000000000, 0.0000000000000000000, -27.00000000000000000 ) ) ;
#160 = EDGE_CURVE ( 'NONE', #350, #41, #287, .T. ) ;
#161 =( NAMED_UNIT ( * ) PLANE_ANGLE_UNIT ( ) SI_UNIT ( $, .RADIAN. ) );
#162 = VECTOR ( 'NONE', #132, 1000.000000000000000 ) ;
#163 = AXIS2_PLACEMENT_3D ( 'NONE', #278, #98, #130 ) ;
#164 = EDGE_CURVE ( 'NONE', #31, #307, #123, .T. ) ;
#165 = ORIENTED_EDGE ( 'NONE', *, *, #24, .F. ) ;
#166 = FACE_OUTER_BOUND ( 'NONE', #216, .T. ) ;
#167 = EDGE_CURVE ( 'NONE', #153, #171, #91, .T. ) ;
#168 = ORIENTED_EDGE ( 'NONE', *, *, #122, .T. ) ;
#169 = FACE_OUTER_BOUND ( 'NONE', #43, .T. ) ;
#170 = AXIS2_PLACEMENT_3D ( 'NONE', #205, #157, #129 ) ;
#171 = VERTEX_POINT ( 'NONE', #179 ) ;
#172 = FILL_AREA_STYLE_COLOUR ( '', #311 ) ;
#173 = FILL_AREA_STYLE_COLOUR ( '', #26 ) ;
#174 = LINE ( 'NONE', #193, #293 ) ;
#175 = ORIENTED_EDGE ( 'NONE', *, *, #218, .F. ) ;
#176 = PRESENTATION_LAYER_ASSIGNMENT (  '', '', ( #319 ) ) ;
#177 = CYLINDRICAL_SURFACE ( 'NONE', #139, 1.700000000000000178 ) ;
#178 = CARTESIAN_POINT ( 'NONE',  ( 56.00000000000000711, 0.0000000000000000000, -3.499999999999999556 ) ) ;
#179 = CARTESIAN_POINT ( 'NONE',  ( 56.00000000000000711, 0.0000000000000000000, -1.800000000000000266 ) ) ;
#180 =( NAMED_UNIT ( * ) PLANE_ANGLE_UNIT ( ) SI_UNIT ( $, .RADIAN. ) );
#181 = CARTESIAN_POINT ( 'NONE',  ( 0.0000000000000000000, 2.500000000000000000, 0.0000000000000000000 ) ) ;
#182 = CARTESIAN_POINT ( 'NONE',  ( 0.0000000000000000000, 0.0000000000000000000, 0.0000000000000000000 ) ) ;
#183 = CARTESIAN_POINT ( 'NONE',  ( 56.00000000000000711, 2.500000000000000000, -3.499999999999999556 ) ) ;
#184 = CARTESIAN_POINT ( 'NONE',  ( 6.000000000000000000, 0.0000000000000000000, -25.19999999999999929 ) ) ;
#185 = ADVANCED_FACE ( 'NONE', ( #44 ), #256, .F. ) ;
#186 = VERTEX_POINT ( 'NONE', #69 ) ;
#187 = VERTEX_POINT ( 'NONE', #181 ) ;
#188 = CIRCLE ( 'NONE', #54, 1.699999999999999512 ) ;
#189 = VERTEX_POINT ( 'NONE', #8 ) ;
#190 = EDGE_LOOP ( 'NONE', ( #315, #113, #250, #175 ) ) ;
#191 = EDGE_LOOP ( 'NONE', ( #87, #220, #83, #240 ) ) ;
#192 =( GEOMETRIC_REPRESENTATION_CONTEXT ( 3 ) GLOBAL_UNCERTAINTY_ASSIGNED_CONTEXT ( ( #80 ) ) GLOBAL_UNIT_ASSIGNED_CONTEXT ( ( #158, #53, #314 ) ) REPRESENTATION_CONTEXT ( 'NONE', 'WORKASPACE' ) );
#193 = CARTESIAN_POINT ( 'NONE',  ( 6.000000000000000000, 2.500000000000000000, -21.80000000000000071 ) ) ;
#194 = CARTESIAN_POINT ( 'NONE',  ( 0.0000000000000000000, 2.500000000000000000, 0.0000000000000000000 ) ) ;
#195 = SURFACE_STYLE_FILL_AREA ( #90 ) ;
#196 = DIRECTION ( 'NONE',  ( 0.0000000000000000000, 1.000000000000000000, 0.0000000000000000000 ) ) ;
#197 = DIRECTION ( 'NONE',  ( -0.0000000000000000000, -1.000000000000000000, -0.0000000000000000000 ) ) ;
#198 = ORIENTED_EDGE ( 'NONE', *, *, #249, .F. ) ;
#199 = VECTOR ( 'NONE', #222, 1000.000000000000000 ) ;
#200 = CARTESIAN_POINT ( 'NONE',  ( 6.000000000000000000, 2.500000000000000000, -25.19999999999999929 ) ) ;
#201 = LINE ( 'NONE', #226, #57 ) ;
#202 =( LENGTH_UNIT ( ) NAMED_UNIT ( * ) SI_UNIT ( .MILLI., .METRE. ) );
#203 = EDGE_LOOP ( 'NONE', ( #338, #59, #75, #109 ) ) ;
#204 = DIRECTION ( 'NONE',  ( 0.0000000000000000000, 0.0000000000000000000, -1.000000000000000000 ) ) ;
#205 = CARTESIAN_POINT ( 'NONE',  ( 6.000000000000000000, 0.0000000000000000000, -23.50000000000000000 ) ) ;
#206 = CARTESIAN_POINT ( 'NONE',  ( 0.0000000000000000000, 2.500000000000000000, 0.0000000000000000000 ) ) ;
#207 = ADVANCED_BREP_SHAPE_REPRESENTATION ( 'EMC-V53-BP', ( #66, #12 ), #192 ) ;
#208 = DIRECTION ( 'NONE',  ( -0.0000000000000000000, -1.000000000000000000, -0.0000000000000000000 ) ) ;
#209 = DIRECTION ( 'NONE',  ( 0.0000000000000000000, 0.0000000000000000000, -1.000000000000000000 ) ) ;
#210 = CARTESIAN_POINT ( 'NONE',  ( 62.00000000000000000, 0.0000000000000000000, -27.00000000000000000 ) ) ;
#211 = SURFACE_SIDE_STYLE ('',( #195 ) ) ;
#212 = AXIS2_PLACEMENT_3D ( 'NONE', #327, #67, #32 ) ;
#213 =( GEOMETRIC_REPRESENTATION_CONTEXT ( 3 ) GLOBAL_UNCERTAINTY_ASSIGNED_CONTEXT ( ( #349 ) ) GLOBAL_UNIT_ASSIGNED_CONTEXT ( ( #202, #180, #131 ) ) REPRESENTATION_CONTEXT ( 'NONE', 'WORKASPACE' ) );
#214 = EDGE_CURVE ( 'NONE', #307, #258, #201, .T. ) ;
#215 = EDGE_LOOP ( 'NONE', ( #36, #308, #92, #168 ) ) ;
#216 = EDGE_LOOP ( 'NONE', ( #273, #7, #322, #112 ) ) ;
#217 = ORIENTED_EDGE ( 'NONE', *, *, #99, .F. ) ;
#218 = EDGE_CURVE ( 'NONE', #219, #140, #329, .T. ) ;
#219 = VERTEX_POINT ( 'NONE', #15 ) ;
#220 = ORIENTED_EDGE ( 'NONE', *, *, #320, .T. ) ;
#221 = EDGE_LOOP ( 'NONE', ( #71, #266, #137, #241 ) ) ;
#222 = DIRECTION ( 'NONE',  ( -0.0000000000000000000, -1.000000000000000000, -0.0000000000000000000 ) ) ;
#223 = FACE_BOUND ( 'NONE', #297, .T. ) ;
#224 = CLOSED_SHELL ( 'NONE', ( #235, #346, #292, #288, #28, #280, #10, #270, #185, #255 ) ) ;
#225 = DIRECTION ( 'NONE',  ( -1.000000000000000000, 0.0000000000000000000, 0.0000000000000000000 ) ) ;
#226 = CARTESIAN_POINT ( 'NONE',  ( 62.00000000000000000, 0.0000000000000000000, 0.0000000000000000000 ) ) ;
#227 = CARTESIAN_POINT ( 'NONE',  ( 0.0000000000000000000, 2.500000000000000000, 0.0000000000000000000 ) ) ;
#228 = ORIENTED_EDGE ( 'NONE', *, *, #45, .T. ) ;
#229 = FACE_OUTER_BOUND ( 'NONE', #215, .T. ) ;
#230 = SURFACE_SIDE_STYLE ('',( #317 ) ) ;
#231 = VECTOR ( 'NONE', #118, 1000.000000000000000 ) ;
#232 = PLANE ( 'NONE',  #260 ) ;
#233 = CARTESIAN_POINT ( 'NONE',  ( 6.000000000000000000, 2.500000000000000000, -23.50000000000000000 ) ) ;
#234 = DIRECTION ( 'NONE',  ( 0.0000000000000000000, 1.000000000000000000, 0.0000000000000000000 ) ) ;
#235 = ADVANCED_FACE ( 'NONE', ( #316 ), #149, .F. ) ;
#236 = AXIS2_PLACEMENT_3D ( 'NONE', #178, #345, #106 ) ;
#237 = MECHANICAL_DESIGN_GEOMETRIC_PRESENTATION_REPRESENTATION (  '', ( #319 ), #213 ) ;
#238 = UNCERTAINTY_MEASURE_WITH_UNIT (LENGTH_MEASURE( 1.000000000000000082E-05 ), #133, 'distance_accuracy_value', 'NONE');
#239 = VECTOR ( 'NONE', #300, 1000.000000000000000 ) ;
#240 = ORIENTED_EDGE ( 'NONE', *, *, #347, .T. ) ;
#241 = ORIENTED_EDGE ( 'NONE', *, *, #263, .T. ) ;
#242 = PRODUCT ( 'EMC-V53-BP', 'EMC-V53-BP', '', ( #284 ) ) ;
#243 = EDGE_LOOP ( 'NONE', ( #247, #64 ) ) ;
#244 = DIRECTION ( 'NONE',  ( 0.0000000000000000000, 0.0000000000000000000, -1.000000000000000000 ) ) ;
#245 = EDGE_CURVE ( 'NONE', #41, #350, #271, .T. ) ;
#246 = DIRECTION ( 'NONE',  ( 0.0000000000000000000, -1.000000000000000000, 0.0000000000000000000 ) ) ;
#247 = ORIENTED_EDGE ( 'NONE', *, *, #245, .F. ) ;
#248 = FACE_BOUND ( 'NONE', #243, .T. ) ;
#249 = EDGE_CURVE ( 'NONE', #258, #152, #251, .T. ) ;
#250 = ORIENTED_EDGE ( 'NONE', *, *, #62, .T. ) ;
#251 = LINE ( 'NONE', #13, #128 ) ;
#252 = CARTESIAN_POINT ( 'NONE',  ( 6.000000000000000000, 2.500000000000000000, -23.50000000000000000 ) ) ;
#253 = ORIENTED_EDGE ( 'NONE', *, *, #99, .T. ) ;
#254 = DIRECTION ( 'NONE',  ( 1.000000000000000000, -0.0000000000000000000, 0.0000000000000000000 ) ) ;
#255 = ADVANCED_FACE ( 'NONE', ( #74 ), #47, .F. ) ;
#256 = CYLINDRICAL_SURFACE ( 'NONE', #318, 1.700000000000000178 ) ;
#257 = LINE ( 'NONE', #282, #21 ) ;
#258 = VERTEX_POINT ( 'NONE', #210 ) ;
#259 = CARTESIAN_POINT ( 'NONE',  ( 62.00000000000000000, 0.0000000000000000000, 0.0000000000000000000 ) ) ;
#260 = AXIS2_PLACEMENT_3D ( 'NONE', #117, #225, #73 ) ;
#261 = AXIS2_PLACEMENT_3D ( 'NONE', #9, #246, #40 ) ;
#262 = PRESENTATION_STYLE_ASSIGNMENT (( #335 ) ) ;
#263 = EDGE_CURVE ( 'NONE', #299, #307, #306, .T. ) ;
#264 = LINE ( 'NONE', #25, #321 ) ;
#265 = VECTOR ( 'NONE', #281, 1000.000000000000000 ) ;
#266 = ORIENTED_EDGE ( 'NONE', *, *, #34, .F. ) ;
#267 = ORIENTED_EDGE ( 'NONE', *, *, #104, .F. ) ;
#268 = CARTESIAN_POINT ( 'NONE',  ( 0.0000000000000000000, 2.500000000000000000, 0.0000000000000000000 ) ) ;
#269 = VERTEX_POINT ( 'NONE', #272 ) ;
#270 = ADVANCED_FACE ( 'NONE', ( #166 ), #302, .F. ) ;
#271 = CIRCLE ( 'NONE', #116, 1.700000000000000178 ) ;
#272 = CARTESIAN_POINT ( 'NONE',  ( 0.0000000000000000000, 2.500000000000000000, -27.00000000000000000 ) ) ;
#273 = ORIENTED_EDGE ( 'NONE', *, *, #249, .T. ) ;
#274 = CARTESIAN_POINT ( 'NONE',  ( 56.00000000000000711, 2.500000000000000000, -5.199999999999999289 ) ) ;
#275 = DIRECTION ( 'NONE',  ( 0.0000000000000000000, 0.0000000000000000000, -1.000000000000000000 ) ) ;
#276 = DIRECTION ( 'NONE',  ( 0.0000000000000000000, -1.000000000000000000, 0.0000000000000000000 ) ) ;
#277 = LINE ( 'NONE', #274, #111 ) ;
#278 = CARTESIAN_POINT ( 'NONE',  ( 6.000000000000000000, 0.0000000000000000000, -23.50000000000000000 ) ) ;
#279 = AXIS2_PLACEMENT_3D ( 'NONE', #58, #342, #100 ) ;
#280 = ADVANCED_FACE ( 'NONE', ( #169 ), #141, .F. ) ;
#281 = DIRECTION ( 'NONE',  ( 0.0000000000000000000, 0.0000000000000000000, -1.000000000000000000 ) ) ;
#282 = CARTESIAN_POINT ( 'NONE',  ( 0.0000000000000000000, 2.500000000000000000, -27.00000000000000000 ) ) ;
#283 = DIRECTION ( 'NONE',  ( 0.0000000000000000000, 0.0000000000000000000, -1.000000000000000000 ) ) ;
#284 = PRODUCT_CONTEXT ( 'NONE', #101, 'mechanical' ) ;
#285 = DIRECTION ( 'NONE',  ( -0.0000000000000000000, -1.000000000000000000, -0.0000000000000000000 ) ) ;
#286 = CARTESIAN_POINT ( 'NONE',  ( 6.000000000000000000, 2.500000000000000000, -21.80000000000000071 ) ) ;
#287 = CIRCLE ( 'NONE', #134, 1.700000000000000178 ) ;
#288 = ADVANCED_FACE ( 'NONE', ( #4, #85, #38 ), #296, .T. ) ;
#289 = DIRECTION ( 'NONE',  ( 0.0000000000000000000, 0.0000000000000000000, 1.000000000000000000 ) ) ;
#290 = PRESENTATION_STYLE_ASSIGNMENT (( #23 ) ) ;
#291 = CARTESIAN_POINT ( 'NONE',  ( 56.00000000000000711, 2.500000000000000000, -1.800000000000000266 ) ) ;
#292 = ADVANCED_FACE ( 'NONE', ( #147, #248, #223 ), #89, .F. ) ;
#293 = VECTOR ( 'NONE', #330, 1000.000000000000000 ) ;
#294 = ORIENTED_EDGE ( 'NONE', *, *, #62, .F. ) ;
#295 = ORIENTED_EDGE ( 'NONE', *, *, #245, .T. ) ;
#296 = PLANE ( 'NONE',  #261 ) ;
#297 = EDGE_LOOP ( 'NONE', ( #18, #148 ) ) ;
#298 = EDGE_CURVE ( 'NONE', #186, #153, #188, .T. ) ;
#299 = VERTEX_POINT ( 'NONE', #76 ) ;
#300 = DIRECTION ( 'NONE',  ( -0.0000000000000000000, -0.0000000000000000000, 1.000000000000000000 ) ) ;
#301 = DIRECTION ( 'NONE',  ( -1.000000000000000000, 0.0000000000000000000, -0.0000000000000000000 ) ) ;
#302 = PLANE ( 'NONE',  #212 ) ;
#303 = DIRECTION ( 'NONE',  ( -0.0000000000000000000, -1.000000000000000000, -0.0000000000000000000 ) ) ;
#304 = PRODUCT_DEFINITION_SHAPE ( 'NONE', 'NONE',  #63 ) ;
#305 = DIRECTION ( 'NONE',  ( 1.000000000000000000, 0.0000000000000000000, 0.0000000000000000000 ) ) ;
#306 = LINE ( 'NONE', #323, #20 ) ;
#307 = VERTEX_POINT ( 'NONE', #259 ) ;
#308 = ORIENTED_EDGE ( 'NONE', *, *, #126, .F. ) ;
#309 = DIRECTION ( 'NONE',  ( 0.0000000000000000000, 0.0000000000000000000, 1.000000000000000000 ) ) ;
#310 = CARTESIAN_POINT ( 'NONE',  ( 56.00000000000000711, 2.500000000000000000, -3.499999999999999556 ) ) ;
#311 = COLOUR_RGB ( '',0.7921568627450980005, 0.8196078431372548767, 0.9333333333333333481 ) ;
#312 = LINE ( 'NONE', #48, #144 ) ;
#313 = DIRECTION ( 'NONE',  ( -0.0000000000000000000, -1.000000000000000000, -0.0000000000000000000 ) ) ;
#314 =( NAMED_UNIT ( * ) SI_UNIT ( $, .STERADIAN. ) SOLID_ANGLE_UNIT ( ) );
#315 = ORIENTED_EDGE ( 'NONE', *, *, #45, .F. ) ;
#316 = FACE_OUTER_BOUND ( 'NONE', #142, .T. ) ;
#317 = SURFACE_STYLE_FILL_AREA ( #72 ) ;
#318 = AXIS2_PLACEMENT_3D ( 'NONE', #233, #285, #97 ) ;
#319 = STYLED_ITEM ( 'NONE', ( #262 ), #207 ) ;
#320 = EDGE_CURVE ( 'NONE', #187, #299, #19, .T. ) ;
#321 = VECTOR ( 'NONE', #208, 1000.000000000000000 ) ;
#322 = ORIENTED_EDGE ( 'NONE', *, *, #347, .F. ) ;
#323 = CARTESIAN_POINT ( 'NONE',  ( 62.00000000000000000, 2.500000000000000000, 0.0000000000000000000 ) ) ;
#324 = MECHANICAL_DESIGN_GEOMETRIC_PRESENTATION_REPRESENTATION (  '', ( #343 ), #37 ) ;
#325 = ORIENTED_EDGE ( 'NONE', *, *, #164, .T. ) ;
#326 = ORIENTED_EDGE ( 'NONE', *, *, #298, .T. ) ;
#327 = CARTESIAN_POINT ( 'NONE',  ( 0.0000000000000000000, 2.500000000000000000, -27.00000000000000000 ) ) ;
#328 = EDGE_LOOP ( 'NONE', ( #267, #198, #39, #68 ) ) ;
#329 = CIRCLE ( 'NONE', #170, 1.700000000000000178 ) ;
#330 = DIRECTION ( 'NONE',  ( -0.0000000000000000000, -1.000000000000000000, -0.0000000000000000000 ) ) ;
#331 = CARTESIAN_POINT ( 'NONE',  ( 56.00000000000000711, 2.500000000000000000, -3.499999999999999556 ) ) ;
#332 = LINE ( 'NONE', #334, #151 ) ;
#333 = PRODUCT_RELATED_PRODUCT_CATEGORY ( 'part', '', ( #242 ) ) ;
#334 = CARTESIAN_POINT ( 'NONE',  ( 62.00000000000000000, 2.500000000000000000, -27.00000000000000000 ) ) ;
#335 = SURFACE_STYLE_USAGE ( .BOTH. , #230 ) ;
#336 = CIRCLE ( 'NONE', #279, 1.699999999999999512 ) ;
#337 = EDGE_CURVE ( 'NONE', #140, #219, #119, .T. ) ;
#338 = ORIENTED_EDGE ( 'NONE', *, *, #167, .F. ) ;
#339 = CARTESIAN_POINT ( 'NONE',  ( 6.000000000000000000, 2.500000000000000000, -23.50000000000000000 ) ) ;
#340 = DIRECTION ( 'NONE',  ( 0.0000000000000000000, 0.0000000000000000000, 1.000000000000000000 ) ) ;
#341 = DIRECTION ( 'NONE',  ( 1.000000000000000000, 0.0000000000000000000, 0.0000000000000000000 ) ) ;
#342 = DIRECTION ( 'NONE',  ( 0.0000000000000000000, 1.000000000000000000, 0.0000000000000000000 ) ) ;
#343 = STYLED_ITEM ( 'NONE', ( #290 ), #66 ) ;
#344 = AXIS2_PLACEMENT_3D ( 'NONE', #268, #244, #301 ) ;
#345 = DIRECTION ( 'NONE',  ( 0.0000000000000000000, 1.000000000000000000, 0.0000000000000000000 ) ) ;
#346 = ADVANCED_FACE ( 'NONE', ( #150 ), #177, .F. ) ;
#347 = EDGE_CURVE ( 'NONE', #189, #269, #257, .T. ) ;
#348 = PRESENTATION_LAYER_ASSIGNMENT (  '', '', ( #343 ) ) ;
#349 = UNCERTAINTY_MEASURE_WITH_UNIT (LENGTH_MEASURE( 1.000000000000000082E-05 ), #202, 'distance_accuracy_value', 'NONE');
#350 = VERTEX_POINT ( 'NONE', #286 ) ;
ENDSEC;
END-ISO-10303-21;
