ISO-10303-21;
HEADER;
FILE_DESCRIPTION (( 'STEP AP214' ),
    '1' );
FILE_NAME ('EMC-V54-BP.STEP',
    '2020-04-03T14:36:20',
    ( '' ),
    ( '' ),
    'SwSTEP 2.0',
    'SolidWorks 2020',
    '' );
FILE_SCHEMA (( 'AUTOMOTIVE_DESIGN' ));
ENDSEC;

DATA;
#1 = DIRECTION ( 'NONE',  ( 0.0000000000000000000, -0.0000000000000000000, -1.000000000000000000 ) ) ;
#2 = VERTEX_POINT ( 'NONE', #232 ) ;
#3 = CYLINDRICAL_SURFACE ( 'NONE', #126, 2.249999999999996003 ) ;
#4 = ORIENTED_EDGE ( 'NONE', *, *, #340, .T. ) ;
#5 = CARTESIAN_POINT ( 'NONE',  ( 11.25000000000000000, 2.500000000000000000, -28.25000000000000000 ) ) ;
#6 = EDGE_CURVE ( 'NONE', #203, #169, #291, .T. ) ;
#7 = ORIENTED_EDGE ( 'NONE', *, *, #82, .T. ) ;
#8 = PRESENTATION_LAYER_ASSIGNMENT (  '', '', ( #54 ) ) ;
#9 = DIRECTION ( 'NONE',  ( -0.0000000000000000000, -1.000000000000000000, -0.0000000000000000000 ) ) ;
#10 = VERTEX_POINT ( 'NONE', #177 ) ;
#11 = EDGE_LOOP ( 'NONE', ( #275, #66 ) ) ;
#12 = ORIENTED_EDGE ( 'NONE', *, *, #318, .F. ) ;
#13 = AXIS2_PLACEMENT_3D ( 'NONE', #41, #120, #69 ) ;
#14 = PLANE ( 'NONE',  #251 ) ;
#15 = SHAPE_DEFINITION_REPRESENTATION ( #322, #52 ) ;
#16 = CARTESIAN_POINT ( 'NONE',  ( 11.25000000000000000, 0.0000000000000000000, -30.50000000000000355 ) ) ;
#17 = ORIENTED_EDGE ( 'NONE', *, *, #247, .T. ) ;
#18 = ORIENTED_EDGE ( 'NONE', *, *, #340, .F. ) ;
#19 = CYLINDRICAL_SURFACE ( 'NONE', #172, 2.250000000000005329 ) ;
#20 = FILL_AREA_STYLE_COLOUR ( '', #344 ) ;
#21 = COLOUR_RGB ( '',0.7921568627450980005, 0.8196078431372548767, 0.9333333333333333481 ) ;
#22 = SURFACE_SIDE_STYLE ('',( #317 ) ) ;
#23 = DIRECTION ( 'NONE',  ( 0.0000000000000000000, 0.0000000000000000000, 1.000000000000000000 ) ) ;
#24 = CARTESIAN_POINT ( 'NONE',  ( 90.00000000000000000, 0.0000000000000000000, 0.0000000000000000000 ) ) ;
#25 = CARTESIAN_POINT ( 'NONE',  ( 90.00000000000000000, 2.500000000000000000, 0.0000000000000000000 ) ) ;
#26 = EDGE_LOOP ( 'NONE', ( #67, #18, #190, #149 ) ) ;
#27 = CARTESIAN_POINT ( 'NONE',  ( 0.0000000000000000000, 2.500000000000000000, -34.00000000000000000 ) ) ;
#28 = ORIENTED_EDGE ( 'NONE', *, *, #178, .T. ) ;
#29 = DIRECTION ( 'NONE',  ( -0.0000000000000000000, -1.000000000000000000, -0.0000000000000000000 ) ) ;
#30 = VERTEX_POINT ( 'NONE', #200 ) ;
#31 = DIRECTION ( 'NONE',  ( -1.000000000000000000, 0.0000000000000000000, -0.0000000000000000000 ) ) ;
#32 = VERTEX_POINT ( 'NONE', #258 ) ;
#33 = AXIS2_PLACEMENT_3D ( 'NONE', #307, #289, #208 ) ;
#34 = EDGE_CURVE ( 'NONE', #64, #301, #61, .T. ) ;
#35 = UNCERTAINTY_MEASURE_WITH_UNIT (LENGTH_MEASURE( 1.000000000000000082E-05 ), #38, 'distance_accuracy_value', 'NONE');
#36 = CARTESIAN_POINT ( 'NONE',  ( 0.0000000000000000000, 0.0000000000000000000, -34.00000000000000000 ) ) ;
#37 = DIRECTION ( 'NONE',  ( 0.0000000000000000000, 0.0000000000000000000, 1.000000000000000000 ) ) ;
#38 =( LENGTH_UNIT ( ) NAMED_UNIT ( * ) SI_UNIT ( .MILLI., .METRE. ) );
#39 = DIRECTION ( 'NONE',  ( 1.000000000000000000, 0.0000000000000000000, -0.0000000000000000000 ) ) ;
#40 = ADVANCED_FACE ( 'NONE', ( #62 ), #336, .F. ) ;
#41 = CARTESIAN_POINT ( 'NONE',  ( 78.75000000000000000, 2.500000000000000000, -3.500000000000003109 ) ) ;
#42 = LINE ( 'NONE', #36, #187 ) ;
#43 = VECTOR ( 'NONE', #158, 1000.000000000000000 ) ;
#44 = CARTESIAN_POINT ( 'NONE',  ( 11.25000000000000000, 2.500000000000000000, -30.50000000000000355 ) ) ;
#45 = ADVANCED_FACE ( 'NONE', ( #150 ), #14, .F. ) ;
#46 = CARTESIAN_POINT ( 'NONE',  ( 0.0000000000000000000, 2.500000000000000000, -34.00000000000000000 ) ) ;
#47 = CARTESIAN_POINT ( 'NONE',  ( 90.00000000000000000, 2.500000000000000000, 0.0000000000000000000 ) ) ;
#48 = LINE ( 'NONE', #185, #349 ) ;
#49 = DIRECTION ( 'NONE',  ( -0.0000000000000000000, -1.000000000000000000, -0.0000000000000000000 ) ) ;
#50 = FACE_OUTER_BOUND ( 'NONE', #335, .T. ) ;
#51 = EDGE_LOOP ( 'NONE', ( #113, #55, #202, #12 ) ) ;
#52 = ADVANCED_BREP_SHAPE_REPRESENTATION ( 'EMC-V54-BP', ( #242, #239 ), #188 ) ;
#53 = DIRECTION ( 'NONE',  ( -1.000000000000000000, 0.0000000000000000000, 0.0000000000000000000 ) ) ;
#54 = STYLED_ITEM ( 'NONE', ( #68 ), #52 ) ;
#55 = ORIENTED_EDGE ( 'NONE', *, *, #290, .T. ) ;
#56 = EDGE_CURVE ( 'NONE', #301, #64, #263, .T. ) ;
#57 = DIRECTION ( 'NONE',  ( -0.0000000000000000000, -1.000000000000000000, -0.0000000000000000000 ) ) ;
#58 = FACE_OUTER_BOUND ( 'NONE', #314, .T. ) ;
#59 = EDGE_CURVE ( 'NONE', #141, #10, #332, .T. ) ;
#60 = CARTESIAN_POINT ( 'NONE',  ( 78.75000000000000000, 0.0000000000000000000, -3.500000000000003109 ) ) ;
#61 = CIRCLE ( 'NONE', #33, 2.250000000000001776 ) ;
#62 = FACE_OUTER_BOUND ( 'NONE', #26, .T. ) ;
#63 = APPLICATION_PROTOCOL_DEFINITION ( 'draft international standard', 'automotive_design', 1998, #111 ) ;
#64 = VERTEX_POINT ( 'NONE', #124 ) ;
#65 = SURFACE_STYLE_USAGE ( .BOTH. , #334 ) ;
#66 = ORIENTED_EDGE ( 'NONE', *, *, #56, .T. ) ;
#67 = ORIENTED_EDGE ( 'NONE', *, *, #77, .T. ) ;
#68 = PRESENTATION_STYLE_ASSIGNMENT (( #65 ) ) ;
#69 = DIRECTION ( 'NONE',  ( 0.0000000000000000000, 0.0000000000000000000, 1.000000000000000000 ) ) ;
#70 = EDGE_CURVE ( 'NONE', #139, #2, #221, .T. ) ;
#71 = DIRECTION ( 'NONE',  ( -0.0000000000000000000, -1.000000000000000000, -0.0000000000000000000 ) ) ;
#72 = AXIS2_PLACEMENT_3D ( 'NONE', #213, #215, #214 ) ;
#73 = VECTOR ( 'NONE', #166, 1000.000000000000000 ) ;
#74 = DIRECTION ( 'NONE',  ( -0.0000000000000000000, -1.000000000000000000, -0.0000000000000000000 ) ) ;
#75 = CARTESIAN_POINT ( 'NONE',  ( 0.0000000000000000000, 0.0000000000000000000, 0.0000000000000000000 ) ) ;
#76 = CARTESIAN_POINT ( 'NONE',  ( 78.75000000000000000, 2.500000000000000000, -3.500000000000003109 ) ) ;
#77 = EDGE_CURVE ( 'NONE', #276, #30, #42, .T. ) ;
#78 = FACE_OUTER_BOUND ( 'NONE', #226, .T. ) ;
#79 = APPLICATION_CONTEXT ( 'automotive_design' ) ;
#80 =( NAMED_UNIT ( * ) SI_UNIT ( $, .STERADIAN. ) SOLID_ANGLE_UNIT ( ) );
#81 = ORIENTED_EDGE ( 'NONE', *, *, #178, .F. ) ;
#82 = EDGE_CURVE ( 'NONE', #91, #230, #272, .T. ) ;
#83 = ORIENTED_EDGE ( 'NONE', *, *, #6, .T. ) ;
#84 = CARTESIAN_POINT ( 'NONE',  ( 90.00000000000000000, 0.0000000000000000000, -34.00000000000000000 ) ) ;
#85 = AXIS2_PLACEMENT_3D ( 'NONE', #191, #53, #88 ) ;
#86 = PRODUCT_DEFINITION_FORMATION_WITH_SPECIFIED_SOURCE ( 'ANY', '', #216, .NOT_KNOWN. ) ;
#87 = ORIENTED_EDGE ( 'NONE', *, *, #136, .T. ) ;
#88 = DIRECTION ( 'NONE',  ( 0.0000000000000000000, 0.0000000000000000000, 1.000000000000000000 ) ) ;
#89 = EDGE_LOOP ( 'NONE', ( #28, #174, #312, #83 ) ) ;
#90 =( NAMED_UNIT ( * ) PLANE_ANGLE_UNIT ( ) SI_UNIT ( $, .RADIAN. ) );
#91 = VERTEX_POINT ( 'NONE', #235 ) ;
#92 = PRESENTATION_LAYER_ASSIGNMENT (  '', '', ( #244 ) ) ;
#93 = PRODUCT_CONTEXT ( 'NONE', #79, 'mechanical' ) ;
#94 = ORIENTED_EDGE ( 'NONE', *, *, #77, .F. ) ;
#95 = EDGE_CURVE ( 'NONE', #2, #139, #269, .T. ) ;
#96 = ORIENTED_EDGE ( 'NONE', *, *, #95, .F. ) ;
#97 = ORIENTED_EDGE ( 'NONE', *, *, #132, .F. ) ;
#98 = VECTOR ( 'NONE', #57, 1000.000000000000000 ) ;
#99 = DIRECTION ( 'NONE',  ( -0.0000000000000000000, -1.000000000000000000, -0.0000000000000000000 ) ) ;
#100 = CARTESIAN_POINT ( 'NONE',  ( 11.25000000000000000, 2.500000000000000000, -30.50000000000000355 ) ) ;
#101 = DIRECTION ( 'NONE',  ( 0.0000000000000000000, 0.0000000000000000000, -1.000000000000000000 ) ) ;
#102 = DIRECTION ( 'NONE',  ( 0.0000000000000000000, -1.000000000000000000, 0.0000000000000000000 ) ) ;
#103 = CARTESIAN_POINT ( 'NONE',  ( 11.25000000000000000, 2.500000000000000000, -28.25000000000000000 ) ) ;
#104 = ADVANCED_FACE ( 'NONE', ( #268 ), #240, .F. ) ;
#105 = DIRECTION ( 'NONE',  ( 0.0000000000000000000, 0.0000000000000000000, -1.000000000000000000 ) ) ;
#106 = AXIS2_PLACEMENT_3D ( 'NONE', #16, #284, #339 ) ;
#107 = VECTOR ( 'NONE', #9, 1000.000000000000000 ) ;
#108 = FACE_BOUND ( 'NONE', #253, .T. ) ;
#109 = LINE ( 'NONE', #138, #281 ) ;
#110 = ORIENTED_EDGE ( 'NONE', *, *, #206, .F. ) ;
#111 = APPLICATION_CONTEXT ( 'automotive_design' ) ;
#112 = CARTESIAN_POINT ( 'NONE',  ( 78.75000000000000000, 2.500000000000000000, -3.500000000000003109 ) ) ;
#113 = ORIENTED_EDGE ( 'NONE', *, *, #95, .T. ) ;
#114 = CARTESIAN_POINT ( 'NONE',  ( 0.0000000000000000000, 2.500000000000000000, 0.0000000000000000000 ) ) ;
#115 = CLOSED_SHELL ( 'NONE', ( #343, #104, #286, #162, #45, #296, #259, #40, #157, #121 ) ) ;
#116 = ORIENTED_EDGE ( 'NONE', *, *, #136, .F. ) ;
#117 = CARTESIAN_POINT ( 'NONE',  ( 78.75000000000000000, 0.0000000000000000000, -1.250000000000007105 ) ) ;
#118 = EDGE_LOOP ( 'NONE', ( #234, #219 ) ) ;
#119 = AXIS2_PLACEMENT_3D ( 'NONE', #309, #285, #37 ) ;
#120 = DIRECTION ( 'NONE',  ( 0.0000000000000000000, 1.000000000000000000, 0.0000000000000000000 ) ) ;
#121 = ADVANCED_FACE ( 'NONE', ( #134 ), #241, .F. ) ;
#122 = ORIENTED_EDGE ( 'NONE', *, *, #59, .F. ) ;
#123 = FILL_AREA_STYLE_COLOUR ( '', #21 ) ;
#124 = CARTESIAN_POINT ( 'NONE',  ( 11.25000000000000000, 0.0000000000000000000, -32.75000000000000711 ) ) ;
#125 = DIRECTION ( 'NONE',  ( 1.000000000000000000, -0.0000000000000000000, 0.0000000000000000000 ) ) ;
#126 = AXIS2_PLACEMENT_3D ( 'NONE', #112, #29, #142 ) ;
#127 = ORIENTED_EDGE ( 'NONE', *, *, #206, .T. ) ;
#128 = DIRECTION ( 'NONE',  ( 0.0000000000000000000, -0.0000000000000000000, -1.000000000000000000 ) ) ;
#129 = UNCERTAINTY_MEASURE_WITH_UNIT (LENGTH_MEASURE( 1.000000000000000082E-05 ), #329, 'distance_accuracy_value', 'NONE');
#130 = FILL_AREA_STYLE ('',( #20 ) ) ;
#131 = AXIS2_PLACEMENT_3D ( 'NONE', #60, #194, #279 ) ;
#132 = EDGE_CURVE ( 'NONE', #10, #141, #212, .T. ) ;
#133 = DIRECTION ( 'NONE',  ( 0.0000000000000000000, 0.0000000000000000000, 1.000000000000000000 ) ) ;
#134 = FACE_OUTER_BOUND ( 'NONE', #310, .T. ) ;
#135 = LINE ( 'NONE', #5, #98 ) ;
#136 = EDGE_CURVE ( 'NONE', #230, #203, #346, .T. ) ;
#137 = AXIS2_PLACEMENT_3D ( 'NONE', #304, #274, #31 ) ;
#138 = CARTESIAN_POINT ( 'NONE',  ( 11.25000000000000000, 2.500000000000000000, -32.75000000000000711 ) ) ;
#139 = VERTEX_POINT ( 'NONE', #103 ) ;
#140 = DIRECTION ( 'NONE',  ( -0.0000000000000000000, -1.000000000000000000, -0.0000000000000000000 ) ) ;
#141 = VERTEX_POINT ( 'NONE', #267 ) ;
#142 = DIRECTION ( 'NONE',  ( 0.0000000000000000000, 0.0000000000000000000, -1.000000000000000000 ) ) ;
#143 = PRESENTATION_STYLE_ASSIGNMENT (( #243 ) ) ;
#144 = EDGE_CURVE ( 'NONE', #32, #280, #333, .T. ) ;
#145 = VECTOR ( 'NONE', #209, 1000.000000000000000 ) ;
#146 = ORIENTED_EDGE ( 'NONE', *, *, #323, .F. ) ;
#147 = ORIENTED_EDGE ( 'NONE', *, *, #197, .T. ) ;
#148 = DIRECTION ( 'NONE',  ( -1.000000000000000000, -0.0000000000000000000, -0.0000000000000000000 ) ) ;
#149 = ORIENTED_EDGE ( 'NONE', *, *, #184, .T. ) ;
#150 = FACE_OUTER_BOUND ( 'NONE', #249, .T. ) ;
#151 = CARTESIAN_POINT ( 'NONE',  ( 0.0000000000000000000, 2.500000000000000000, -34.00000000000000000 ) ) ;
#152 = EDGE_CURVE ( 'NONE', #255, #91, #315, .T. ) ;
#153 = ORIENTED_EDGE ( 'NONE', *, *, #318, .T. ) ;
#154 = VECTOR ( 'NONE', #342, 1000.000000000000000 ) ;
#155 = DIRECTION ( 'NONE',  ( 0.0000000000000000000, 1.000000000000000000, 0.0000000000000000000 ) ) ;
#156 = CARTESIAN_POINT ( 'NONE',  ( 0.0000000000000000000, 0.0000000000000000000, 0.0000000000000000000 ) ) ;
#157 = ADVANCED_FACE ( 'NONE', ( #78 ), #19, .F. ) ;
#158 = DIRECTION ( 'NONE',  ( -0.0000000000000000000, -0.0000000000000000000, 1.000000000000000000 ) ) ;
#159 = VECTOR ( 'NONE', #222, 1000.000000000000000 ) ;
#160 = CARTESIAN_POINT ( 'NONE',  ( 90.00000000000000000, 2.500000000000000000, -34.00000000000000000 ) ) ;
#161 = FACE_BOUND ( 'NONE', #118, .T. ) ;
#162 = ADVANCED_FACE ( 'NONE', ( #320, #316, #161 ), #319, .T. ) ;
#163 = FACE_BOUND ( 'NONE', #264, .T. ) ;
#164 = EDGE_LOOP ( 'NONE', ( #331, #278, #229, #288 ) ) ;
#165 = AXIS2_PLACEMENT_3D ( 'NONE', #151, #179, #39 ) ;
#166 = DIRECTION ( 'NONE',  ( 1.000000000000000000, 0.0000000000000000000, 0.0000000000000000000 ) ) ;
#167 = ORIENTED_EDGE ( 'NONE', *, *, #283, .T. ) ;
#168 = PLANE ( 'NONE',  #137 ) ;
#169 = VERTEX_POINT ( 'NONE', #75 ) ;
#170 = VERTEX_POINT ( 'NONE', #24 ) ;
#171 = CARTESIAN_POINT ( 'NONE',  ( 78.75000000000000000, 2.500000000000000000, -5.749999999999999112 ) ) ;
#172 = AXIS2_PLACEMENT_3D ( 'NONE', #347, #294, #101 ) ;
#173 = ORIENTED_EDGE ( 'NONE', *, *, #6, .F. ) ;
#174 = ORIENTED_EDGE ( 'NONE', *, *, #197, .F. ) ;
#175 = AXIS2_PLACEMENT_3D ( 'NONE', #211, #49, #105 ) ;
#176 = ORIENTED_EDGE ( 'NONE', *, *, #70, .T. ) ;
#177 = CARTESIAN_POINT ( 'NONE',  ( 78.75000000000000000, 2.500000000000000000, -1.250000000000007105 ) ) ;
#178 = EDGE_CURVE ( 'NONE', #169, #170, #48, .T. ) ;
#179 = DIRECTION ( 'NONE',  ( 0.0000000000000000000, 0.0000000000000000000, 1.000000000000000000 ) ) ;
#180 = CARTESIAN_POINT ( 'NONE',  ( 0.0000000000000000000, 0.0000000000000000000, 0.0000000000000000000 ) ) ;
#181 = VECTOR ( 'NONE', #99, 1000.000000000000000 ) ;
#182 = PRODUCT_DEFINITION_CONTEXT ( 'detailed design', #111, 'design' ) ;
#183 = LINE ( 'NONE', #156, #43 ) ;
#184 = EDGE_CURVE ( 'NONE', #91, #276, #295, .T. ) ;
#185 = CARTESIAN_POINT ( 'NONE',  ( 0.0000000000000000000, 0.0000000000000000000, 0.0000000000000000000 ) ) ;
#186 = CARTESIAN_POINT ( 'NONE',  ( 90.00000000000000000, 2.500000000000000000, 0.0000000000000000000 ) ) ;
#187 = VECTOR ( 'NONE', #148, 1000.000000000000000 ) ;
#188 =( GEOMETRIC_REPRESENTATION_CONTEXT ( 3 ) GLOBAL_UNCERTAINTY_ASSIGNED_CONTEXT ( ( #266 ) ) GLOBAL_UNIT_ASSIGNED_CONTEXT ( ( #313, #228, #198 ) ) REPRESENTATION_CONTEXT ( 'NONE', 'WORKASPACE' ) );
#189 = DIRECTION ( 'NONE',  ( 1.000000000000000000, 0.0000000000000000000, 0.0000000000000000000 ) ) ;
#190 = ORIENTED_EDGE ( 'NONE', *, *, #82, .F. ) ;
#191 = CARTESIAN_POINT ( 'NONE',  ( 90.00000000000000000, 2.500000000000000000, 0.0000000000000000000 ) ) ;
#192 = ORIENTED_EDGE ( 'NONE', *, *, #152, .T. ) ;
#193 =( GEOMETRIC_REPRESENTATION_CONTEXT ( 3 ) GLOBAL_UNCERTAINTY_ASSIGNED_CONTEXT ( ( #129 ) ) GLOBAL_UNIT_ASSIGNED_CONTEXT ( ( #329, #90, #80 ) ) REPRESENTATION_CONTEXT ( 'NONE', 'WORKASPACE' ) );
#194 = DIRECTION ( 'NONE',  ( 0.0000000000000000000, 1.000000000000000000, 0.0000000000000000000 ) ) ;
#195 = PRODUCT_RELATED_PRODUCT_CATEGORY ( 'part', '', ( #216 ) ) ;
#196 = ORIENTED_EDGE ( 'NONE', *, *, #56, .F. ) ;
#197 = EDGE_CURVE ( 'NONE', #255, #170, #298, .T. ) ;
#198 =( NAMED_UNIT ( * ) SI_UNIT ( $, .STERADIAN. ) SOLID_ANGLE_UNIT ( ) );
#199 = VECTOR ( 'NONE', #74, 1000.000000000000000 ) ;
#200 = CARTESIAN_POINT ( 'NONE',  ( 0.0000000000000000000, 0.0000000000000000000, -34.00000000000000000 ) ) ;
#201 = FILL_AREA_STYLE ('',( #123 ) ) ;
#202 = ORIENTED_EDGE ( 'NONE', *, *, #34, .F. ) ;
#203 = VERTEX_POINT ( 'NONE', #293 ) ;
#204 = AXIS2_PLACEMENT_3D ( 'NONE', #114, #282, #1 ) ;
#205 = CARTESIAN_POINT ( 'NONE',  ( 0.0000000000000000000, 2.500000000000000000, 0.0000000000000000000 ) ) ;
#206 = EDGE_CURVE ( 'NONE', #30, #169, #183, .T. ) ;
#207 =( NAMED_UNIT ( * ) SI_UNIT ( $, .STERADIAN. ) SOLID_ANGLE_UNIT ( ) );
#208 = DIRECTION ( 'NONE',  ( 0.0000000000000000000, 0.0000000000000000000, 1.000000000000000000 ) ) ;
#209 = DIRECTION ( 'NONE',  ( 0.0000000000000000000, 0.0000000000000000000, -1.000000000000000000 ) ) ;
#210 = PRODUCT_DEFINITION ( 'UNKNOWN', '', #86, #182 ) ;
#211 = CARTESIAN_POINT ( 'NONE',  ( 78.75000000000000000, 2.500000000000000000, -3.500000000000003109 ) ) ;
#212 = CIRCLE ( 'NONE', #302, 2.249999999999996003 ) ;
#213 = CARTESIAN_POINT ( 'NONE',  ( 78.75000000000000000, 0.0000000000000000000, -3.500000000000003109 ) ) ;
#214 = DIRECTION ( 'NONE',  ( 0.0000000000000000000, 0.0000000000000000000, 1.000000000000000000 ) ) ;
#215 = DIRECTION ( 'NONE',  ( 0.0000000000000000000, 1.000000000000000000, 0.0000000000000000000 ) ) ;
#216 = PRODUCT ( 'EMC-V54-BP', 'EMC-V54-BP', '', ( #93 ) ) ;
#217 = CARTESIAN_POINT ( 'NONE',  ( 11.25000000000000000, 0.0000000000000000000, -28.25000000000000000 ) ) ;
#218 = LINE ( 'NONE', #27, #270 ) ;
#219 = ORIENTED_EDGE ( 'NONE', *, *, #271, .T. ) ;
#220 = CARTESIAN_POINT ( 'NONE',  ( 90.00000000000000000, 0.0000000000000000000, 0.0000000000000000000 ) ) ;
#221 = CIRCLE ( 'NONE', #119, 2.250000000000001776 ) ;
#222 = DIRECTION ( 'NONE',  ( -0.0000000000000000000, -1.000000000000000000, -0.0000000000000000000 ) ) ;
#223 = ORIENTED_EDGE ( 'NONE', *, *, #247, .F. ) ;
#224 = DIRECTION ( 'NONE',  ( 0.0000000000000000000, 0.0000000000000000000, -1.000000000000000000 ) ) ;
#225 = ORIENTED_EDGE ( 'NONE', *, *, #152, .F. ) ;
#226 = EDGE_LOOP ( 'NONE', ( #256, #176, #153, #196 ) ) ;
#227 = VECTOR ( 'NONE', #71, 1000.000000000000000 ) ;
#228 =( NAMED_UNIT ( * ) PLANE_ANGLE_UNIT ( ) SI_UNIT ( $, .RADIAN. ) );
#229 = ORIENTED_EDGE ( 'NONE', *, *, #144, .F. ) ;
#230 = VERTEX_POINT ( 'NONE', #46 ) ;
#231 =( NAMED_UNIT ( * ) PLANE_ANGLE_UNIT ( ) SI_UNIT ( $, .RADIAN. ) );
#232 = CARTESIAN_POINT ( 'NONE',  ( 11.25000000000000000, 2.500000000000000000, -32.75000000000000711 ) ) ;
#233 = VECTOR ( 'NONE', #236, 1000.000000000000000 ) ;
#234 = ORIENTED_EDGE ( 'NONE', *, *, #144, .T. ) ;
#235 = CARTESIAN_POINT ( 'NONE',  ( 90.00000000000000000, 2.500000000000000000, -34.00000000000000000 ) ) ;
#236 = DIRECTION ( 'NONE',  ( -1.000000000000000000, -0.0000000000000000000, -0.0000000000000000000 ) ) ;
#237 = LINE ( 'NONE', #220, #238 ) ;
#238 = VECTOR ( 'NONE', #224, 1000.000000000000000 ) ;
#239 = AXIS2_PLACEMENT_3D ( 'NONE', #261, #308, #337 ) ;
#240 = CYLINDRICAL_SURFACE ( 'NONE', #321, 2.250000000000005329 ) ;
#241 = CYLINDRICAL_SURFACE ( 'NONE', #175, 2.249999999999996003 ) ;
#242 = MANIFOLD_SOLID_BREP ( 'Boss-Extrude1', #115 ) ;
#243 = SURFACE_STYLE_USAGE ( .BOTH. , #22 ) ;
#244 = STYLED_ITEM ( 'NONE', ( #143 ), #242 ) ;
#245 = LINE ( 'NONE', #300, #73 ) ;
#246 = ORIENTED_EDGE ( 'NONE', *, *, #328, .T. ) ;
#247 = EDGE_CURVE ( 'NONE', #170, #276, #237, .T. ) ;
#248 = FACE_OUTER_BOUND ( 'NONE', #164, .T. ) ;
#249 = EDGE_LOOP ( 'NONE', ( #127, #173, #116, #4 ) ) ;
#250 = ORIENTED_EDGE ( 'NONE', *, *, #132, .T. ) ;
#251 = AXIS2_PLACEMENT_3D ( 'NONE', #205, #125, #260 ) ;
#252 = DIRECTION ( 'NONE',  ( -0.0000000000000000000, -1.000000000000000000, -0.0000000000000000000 ) ) ;
#253 = EDGE_LOOP ( 'NONE', ( #96, #305 ) ) ;
#254 = SURFACE_STYLE_FILL_AREA ( #201 ) ;
#255 = VERTEX_POINT ( 'NONE', #25 ) ;
#256 = ORIENTED_EDGE ( 'NONE', *, *, #290, .F. ) ;
#257 = AXIS2_PLACEMENT_3D ( 'NONE', #44, #155, #133 ) ;
#258 = CARTESIAN_POINT ( 'NONE',  ( 78.75000000000000000, 0.0000000000000000000, -5.749999999999999112 ) ) ;
#259 = ADVANCED_FACE ( 'NONE', ( #50 ), #348, .F. ) ;
#260 = DIRECTION ( 'NONE',  ( 0.0000000000000000000, 0.0000000000000000000, -1.000000000000000000 ) ) ;
#261 = CARTESIAN_POINT ( 'NONE',  ( 0.0000000000000000000, 0.0000000000000000000, 0.0000000000000000000 ) ) ;
#262 = EDGE_LOOP ( 'NONE', ( #110, #94, #223, #81 ) ) ;
#263 = CIRCLE ( 'NONE', #106, 2.250000000000001776 ) ;
#264 = EDGE_LOOP ( 'NONE', ( #122, #97 ) ) ;
#265 = CARTESIAN_POINT ( 'NONE',  ( 0.0000000000000000000, 2.500000000000000000, -34.00000000000000000 ) ) ;
#266 = UNCERTAINTY_MEASURE_WITH_UNIT (LENGTH_MEASURE( 1.000000000000000082E-05 ), #313, 'distance_accuracy_value', 'NONE');
#267 = CARTESIAN_POINT ( 'NONE',  ( 78.75000000000000000, 2.500000000000000000, -5.749999999999999112 ) ) ;
#268 = FACE_OUTER_BOUND ( 'NONE', #51, .T. ) ;
#269 = CIRCLE ( 'NONE', #257, 2.250000000000001776 ) ;
#270 = VECTOR ( 'NONE', #140, 1000.000000000000000 ) ;
#271 = EDGE_CURVE ( 'NONE', #280, #32, #287, .T. ) ;
#272 = LINE ( 'NONE', #265, #233 ) ;
#273 = DIRECTION ( 'NONE',  ( -0.0000000000000000000, -1.000000000000000000, -0.0000000000000000000 ) ) ;
#274 = DIRECTION ( 'NONE',  ( 0.0000000000000000000, 0.0000000000000000000, -1.000000000000000000 ) ) ;
#275 = ORIENTED_EDGE ( 'NONE', *, *, #34, .T. ) ;
#276 = VERTEX_POINT ( 'NONE', #84 ) ;
#277 = CARTESIAN_POINT ( 'NONE',  ( 78.75000000000000000, 2.500000000000000000, -1.250000000000007105 ) ) ;
#278 = ORIENTED_EDGE ( 'NONE', *, *, #323, .T. ) ;
#279 = DIRECTION ( 'NONE',  ( 0.0000000000000000000, 0.0000000000000000000, 1.000000000000000000 ) ) ;
#280 = VERTEX_POINT ( 'NONE', #117 ) ;
#281 = VECTOR ( 'NONE', #252, 1000.000000000000000 ) ;
#282 = DIRECTION ( 'NONE',  ( 0.0000000000000000000, -1.000000000000000000, 0.0000000000000000000 ) ) ;
#283 = EDGE_CURVE ( 'NONE', #141, #32, #299, .T. ) ;
#284 = DIRECTION ( 'NONE',  ( 0.0000000000000000000, 1.000000000000000000, 0.0000000000000000000 ) ) ;
#285 = DIRECTION ( 'NONE',  ( 0.0000000000000000000, 1.000000000000000000, 0.0000000000000000000 ) ) ;
#286 = ADVANCED_FACE ( 'NONE', ( #58, #108, #163 ), #303, .F. ) ;
#287 = CIRCLE ( 'NONE', #131, 2.249999999999996003 ) ;
#288 = ORIENTED_EDGE ( 'NONE', *, *, #283, .F. ) ;
#289 = DIRECTION ( 'NONE',  ( 0.0000000000000000000, 1.000000000000000000, 0.0000000000000000000 ) ) ;
#290 = EDGE_CURVE ( 'NONE', #139, #301, #135, .T. ) ;
#291 = LINE ( 'NONE', #338, #181 ) ;
#292 = MECHANICAL_DESIGN_GEOMETRIC_PRESENTATION_REPRESENTATION (  '', ( #244 ), #193 ) ;
#293 = CARTESIAN_POINT ( 'NONE',  ( 0.0000000000000000000, 2.500000000000000000, 0.0000000000000000000 ) ) ;
#294 = DIRECTION ( 'NONE',  ( -0.0000000000000000000, -1.000000000000000000, -0.0000000000000000000 ) ) ;
#295 = LINE ( 'NONE', #160, #199 ) ;
#296 = ADVANCED_FACE ( 'NONE', ( #326 ), #168, .F. ) ;
#297 = CARTESIAN_POINT ( 'NONE',  ( 0.0000000000000000000, 2.500000000000000000, 0.0000000000000000000 ) ) ;
#298 = LINE ( 'NONE', #47, #227 ) ;
#299 = LINE ( 'NONE', #171, #159 ) ;
#300 = CARTESIAN_POINT ( 'NONE',  ( 0.0000000000000000000, 2.500000000000000000, 0.0000000000000000000 ) ) ;
#301 = VERTEX_POINT ( 'NONE', #217 ) ;
#302 = AXIS2_PLACEMENT_3D ( 'NONE', #76, #341, #23 ) ;
#303 = PLANE ( 'NONE',  #204 ) ;
#304 = CARTESIAN_POINT ( 'NONE',  ( 0.0000000000000000000, 2.500000000000000000, 0.0000000000000000000 ) ) ;
#305 = ORIENTED_EDGE ( 'NONE', *, *, #70, .F. ) ;
#306 = MECHANICAL_DESIGN_GEOMETRIC_PRESENTATION_REPRESENTATION (  '', ( #54 ), #350 ) ;
#307 = CARTESIAN_POINT ( 'NONE',  ( 11.25000000000000000, 0.0000000000000000000, -30.50000000000000355 ) ) ;
#308 = DIRECTION ( 'NONE',  ( 0.0000000000000000000, 0.0000000000000000000, 1.000000000000000000 ) ) ;
#309 = CARTESIAN_POINT ( 'NONE',  ( 11.25000000000000000, 2.500000000000000000, -30.50000000000000355 ) ) ;
#310 = EDGE_LOOP ( 'NONE', ( #146, #250, #167, #327 ) ) ;
#311 = AXIS2_PLACEMENT_3D ( 'NONE', #180, #102, #128 ) ;
#312 = ORIENTED_EDGE ( 'NONE', *, *, #328, .F. ) ;
#313 =( LENGTH_UNIT ( ) NAMED_UNIT ( * ) SI_UNIT ( .MILLI., .METRE. ) );
#314 = EDGE_LOOP ( 'NONE', ( #87, #246, #192, #7 ) ) ;
#315 = LINE ( 'NONE', #186, #145 ) ;
#316 = FACE_OUTER_BOUND ( 'NONE', #262, .T. ) ;
#317 = SURFACE_STYLE_FILL_AREA ( #130 ) ;
#318 = EDGE_CURVE ( 'NONE', #2, #64, #109, .T. ) ;
#319 = PLANE ( 'NONE',  #311 ) ;
#320 = FACE_BOUND ( 'NONE', #11, .T. ) ;
#321 = AXIS2_PLACEMENT_3D ( 'NONE', #100, #273, #345 ) ;
#322 = PRODUCT_DEFINITION_SHAPE ( 'NONE', 'NONE',  #210 ) ;
#323 = EDGE_CURVE ( 'NONE', #10, #280, #324, .T. ) ;
#324 = LINE ( 'NONE', #277, #107 ) ;
#325 = ORIENTED_EDGE ( 'NONE', *, *, #184, .F. ) ;
#326 = FACE_OUTER_BOUND ( 'NONE', #89, .T. ) ;
#327 = ORIENTED_EDGE ( 'NONE', *, *, #271, .F. ) ;
#328 = EDGE_CURVE ( 'NONE', #203, #255, #245, .T. ) ;
#329 =( LENGTH_UNIT ( ) NAMED_UNIT ( * ) SI_UNIT ( .MILLI., .METRE. ) );
#330 = APPLICATION_PROTOCOL_DEFINITION ( 'draft international standard', 'automotive_design', 1998, #79 ) ;
#331 = ORIENTED_EDGE ( 'NONE', *, *, #59, .T. ) ;
#332 = CIRCLE ( 'NONE', #13, 2.249999999999996003 ) ;
#333 = CIRCLE ( 'NONE', #72, 2.249999999999996003 ) ;
#334 = SURFACE_SIDE_STYLE ('',( #254 ) ) ;
#335 = EDGE_LOOP ( 'NONE', ( #17, #325, #225, #147 ) ) ;
#336 = PLANE ( 'NONE',  #165 ) ;
#337 = DIRECTION ( 'NONE',  ( 1.000000000000000000, 0.0000000000000000000, 0.0000000000000000000 ) ) ;
#338 = CARTESIAN_POINT ( 'NONE',  ( 0.0000000000000000000, 2.500000000000000000, 0.0000000000000000000 ) ) ;
#339 = DIRECTION ( 'NONE',  ( 0.0000000000000000000, 0.0000000000000000000, 1.000000000000000000 ) ) ;
#340 = EDGE_CURVE ( 'NONE', #230, #30, #218, .T. ) ;
#341 = DIRECTION ( 'NONE',  ( 0.0000000000000000000, 1.000000000000000000, 0.0000000000000000000 ) ) ;
#342 = DIRECTION ( 'NONE',  ( -0.0000000000000000000, -0.0000000000000000000, 1.000000000000000000 ) ) ;
#343 = ADVANCED_FACE ( 'NONE', ( #248 ), #3, .F. ) ;
#344 = COLOUR_RGB ( '',0.7921568627450980005, 0.8196078431372548767, 0.9333333333333333481 ) ;
#345 = DIRECTION ( 'NONE',  ( 0.0000000000000000000, 0.0000000000000000000, -1.000000000000000000 ) ) ;
#346 = LINE ( 'NONE', #297, #154 ) ;
#347 = CARTESIAN_POINT ( 'NONE',  ( 11.25000000000000000, 2.500000000000000000, -30.50000000000000355 ) ) ;
#348 = PLANE ( 'NONE',  #85 ) ;
#349 = VECTOR ( 'NONE', #189, 1000.000000000000000 ) ;
#350 =( GEOMETRIC_REPRESENTATION_CONTEXT ( 3 ) GLOBAL_UNCERTAINTY_ASSIGNED_CONTEXT ( ( #35 ) ) GLOBAL_UNIT_ASSIGNED_CONTEXT ( ( #38, #231, #207 ) ) REPRESENTATION_CONTEXT ( 'NONE', 'WORKASPACE' ) );
ENDSEC;
END-ISO-10303-21;
