ISO-10303-21;
HEADER;
/* Generated by software containing ST-Developer
 * from STEP Tools, Inc. (www.steptools.com) 
 */
/* OPTION: using custom renumber hook */

FILE_DESCRIPTION(
/* description */ ('STEP AP214'),
/* implementation_level */ '2;1');

FILE_NAME(
/* name */ '052193',
/* time_stamp */ '2023-03-24T12:26:15+01:00',
/* author */ ('License CC BY-ND 4.0'),
/* organization */ ('CADENAS'),
/* preprocessor_version */ 'ST-DEVELOPER v19.3',
/* originating_system */ 'PARTsolutions',
/* authorisation */ '  ');

FILE_SCHEMA (('AUTOMOTIVE_DESIGN {1 0 10303 214 3 1 1}'));
ENDSEC;

DATA;
#10=PROPERTY_DEFINITION_REPRESENTATION(#14,#12);
#11=PROPERTY_DEFINITION_REPRESENTATION(#15,#13);
#12=REPRESENTATION('',(#16),#773);
#13=REPRESENTATION('',(#17),#773);
#14=PROPERTY_DEFINITION('pmi validation property','',#778);
#15=PROPERTY_DEFINITION('pmi validation property','',#778);
#16=VALUE_REPRESENTATION_ITEM('number of annotations',COUNT_MEASURE(0.));
#17=VALUE_REPRESENTATION_ITEM('number of views',COUNT_MEASURE(0.));
#18=SHAPE_REPRESENTATION_RELATIONSHIP('','',#469,#19);
#19=ADVANCED_BREP_SHAPE_REPRESENTATION('',(#467),#773);
#20=CIRCLE('',#473,20.);
#21=CIRCLE('',#474,20.);
#22=CIRCLE('',#476,15.25);
#23=CIRCLE('',#477,15.25);
#24=CIRCLE('',#482,6.00000000000001);
#25=CIRCLE('',#483,6.00000000000001);
#26=CIRCLE('',#485,2.99999999999999);
#27=CIRCLE('',#486,2.99999999999999);
#28=CIRCLE('',#490,3.99999999999999);
#29=CIRCLE('',#491,3.99999999999999);
#30=CIRCLE('',#493,4.);
#31=CIRCLE('',#494,4.);
#32=CIRCLE('',#497,2.7);
#33=CIRCLE('',#498,2.7);
#34=CIRCLE('',#502,2.7);
#35=CIRCLE('',#503,2.7);
#36=CIRCLE('',#506,2.7);
#37=CIRCLE('',#507,2.7);
#38=CIRCLE('',#509,2.7);
#39=CIRCLE('',#510,2.7);
#40=CYLINDRICAL_SURFACE('',#472,20.);
#41=CYLINDRICAL_SURFACE('',#475,15.25);
#42=CYLINDRICAL_SURFACE('',#481,6.00000000000001);
#43=CYLINDRICAL_SURFACE('',#484,2.99999999999999);
#44=CYLINDRICAL_SURFACE('',#489,3.99999999999999);
#45=CYLINDRICAL_SURFACE('',#492,4.);
#46=CYLINDRICAL_SURFACE('',#496,2.7);
#47=CYLINDRICAL_SURFACE('',#501,2.7);
#48=CYLINDRICAL_SURFACE('',#505,2.7);
#49=CYLINDRICAL_SURFACE('',#508,2.7);
#50=ORIENTED_EDGE('',*,*,#174,.T.);
#51=ORIENTED_EDGE('',*,*,#175,.F.);
#52=ORIENTED_EDGE('',*,*,#176,.F.);
#53=ORIENTED_EDGE('',*,*,#177,.T.);
#54=ORIENTED_EDGE('',*,*,#178,.T.);
#55=ORIENTED_EDGE('',*,*,#179,.F.);
#56=ORIENTED_EDGE('',*,*,#180,.F.);
#57=ORIENTED_EDGE('',*,*,#175,.T.);
#58=ORIENTED_EDGE('',*,*,#181,.T.);
#59=ORIENTED_EDGE('',*,*,#182,.F.);
#60=ORIENTED_EDGE('',*,*,#183,.T.);
#61=ORIENTED_EDGE('',*,*,#184,.F.);
#62=ORIENTED_EDGE('',*,*,#185,.F.);
#63=ORIENTED_EDGE('',*,*,#179,.T.);
#64=ORIENTED_EDGE('',*,*,#181,.F.);
#65=ORIENTED_EDGE('',*,*,#185,.T.);
#66=ORIENTED_EDGE('',*,*,#186,.F.);
#67=ORIENTED_EDGE('',*,*,#187,.T.);
#68=ORIENTED_EDGE('',*,*,#188,.T.);
#69=ORIENTED_EDGE('',*,*,#176,.T.);
#70=ORIENTED_EDGE('',*,*,#180,.T.);
#71=ORIENTED_EDGE('',*,*,#182,.T.);
#72=ORIENTED_EDGE('',*,*,#174,.F.);
#73=ORIENTED_EDGE('',*,*,#189,.T.);
#74=ORIENTED_EDGE('',*,*,#190,.F.);
#75=ORIENTED_EDGE('',*,*,#191,.F.);
#76=ORIENTED_EDGE('',*,*,#183,.F.);
#77=ORIENTED_EDGE('',*,*,#178,.F.);
#78=ORIENTED_EDGE('',*,*,#192,.T.);
#79=ORIENTED_EDGE('',*,*,#193,.F.);
#80=ORIENTED_EDGE('',*,*,#194,.F.);
#81=ORIENTED_EDGE('',*,*,#190,.T.);
#82=ORIENTED_EDGE('',*,*,#195,.F.);
#83=ORIENTED_EDGE('',*,*,#187,.F.);
#84=ORIENTED_EDGE('',*,*,#196,.T.);
#85=ORIENTED_EDGE('',*,*,#197,.T.);
#86=ORIENTED_EDGE('',*,*,#186,.T.);
#87=ORIENTED_EDGE('',*,*,#184,.T.);
#88=ORIENTED_EDGE('',*,*,#191,.T.);
#89=ORIENTED_EDGE('',*,*,#194,.T.);
#90=ORIENTED_EDGE('',*,*,#198,.T.);
#91=ORIENTED_EDGE('',*,*,#199,.F.);
#92=ORIENTED_EDGE('',*,*,#200,.F.);
#93=ORIENTED_EDGE('',*,*,#196,.F.);
#94=ORIENTED_EDGE('',*,*,#188,.F.);
#95=ORIENTED_EDGE('',*,*,#195,.T.);
#96=ORIENTED_EDGE('',*,*,#201,.F.);
#97=ORIENTED_EDGE('',*,*,#202,.T.);
#98=ORIENTED_EDGE('',*,*,#203,.T.);
#99=ORIENTED_EDGE('',*,*,#192,.F.);
#100=ORIENTED_EDGE('',*,*,#189,.F.);
#101=ORIENTED_EDGE('',*,*,#177,.F.);
#102=ORIENTED_EDGE('',*,*,#204,.T.);
#103=ORIENTED_EDGE('',*,*,#202,.F.);
#104=ORIENTED_EDGE('',*,*,#205,.F.);
#105=ORIENTED_EDGE('',*,*,#206,.T.);
#106=ORIENTED_EDGE('',*,*,#207,.T.);
#107=ORIENTED_EDGE('',*,*,#208,.F.);
#108=ORIENTED_EDGE('',*,*,#209,.F.);
#109=ORIENTED_EDGE('',*,*,#199,.T.);
#110=ORIENTED_EDGE('',*,*,#210,.F.);
#111=ORIENTED_EDGE('',*,*,#211,.F.);
#112=ORIENTED_EDGE('',*,*,#212,.T.);
#113=ORIENTED_EDGE('',*,*,#213,.T.);
#114=ORIENTED_EDGE('',*,*,#214,.F.);
#115=ORIENTED_EDGE('',*,*,#215,.F.);
#116=ORIENTED_EDGE('',*,*,#216,.T.);
#117=ORIENTED_EDGE('',*,*,#211,.T.);
#118=ORIENTED_EDGE('',*,*,#217,.F.);
#119=ORIENTED_EDGE('',*,*,#218,.F.);
#120=ORIENTED_EDGE('',*,*,#219,.T.);
#121=ORIENTED_EDGE('',*,*,#215,.T.);
#122=ORIENTED_EDGE('',*,*,#220,.F.);
#123=ORIENTED_EDGE('',*,*,#221,.F.);
#124=ORIENTED_EDGE('',*,*,#222,.T.);
#125=ORIENTED_EDGE('',*,*,#223,.T.);
#126=ORIENTED_EDGE('',*,*,#224,.F.);
#127=ORIENTED_EDGE('',*,*,#225,.F.);
#128=ORIENTED_EDGE('',*,*,#226,.T.);
#129=ORIENTED_EDGE('',*,*,#221,.T.);
#130=ORIENTED_EDGE('',*,*,#227,.F.);
#131=ORIENTED_EDGE('',*,*,#228,.F.);
#132=ORIENTED_EDGE('',*,*,#229,.T.);
#133=ORIENTED_EDGE('',*,*,#225,.T.);
#134=ORIENTED_EDGE('',*,*,#230,.F.);
#135=ORIENTED_EDGE('',*,*,#213,.F.);
#136=ORIENTED_EDGE('',*,*,#231,.T.);
#137=ORIENTED_EDGE('',*,*,#218,.T.);
#138=ORIENTED_EDGE('',*,*,#232,.F.);
#139=ORIENTED_EDGE('',*,*,#223,.F.);
#140=ORIENTED_EDGE('',*,*,#233,.T.);
#141=ORIENTED_EDGE('',*,*,#228,.T.);
#142=ORIENTED_EDGE('',*,*,#234,.T.);
#143=ORIENTED_EDGE('',*,*,#206,.F.);
#144=ORIENTED_EDGE('',*,*,#235,.F.);
#145=ORIENTED_EDGE('',*,*,#208,.T.);
#146=ORIENTED_EDGE('',*,*,#222,.F.);
#147=ORIENTED_EDGE('',*,*,#226,.F.);
#148=ORIENTED_EDGE('',*,*,#229,.F.);
#149=ORIENTED_EDGE('',*,*,#233,.F.);
#150=ORIENTED_EDGE('',*,*,#212,.F.);
#151=ORIENTED_EDGE('',*,*,#216,.F.);
#152=ORIENTED_EDGE('',*,*,#219,.F.);
#153=ORIENTED_EDGE('',*,*,#231,.F.);
#154=ORIENTED_EDGE('',*,*,#205,.T.);
#155=ORIENTED_EDGE('',*,*,#201,.T.);
#156=ORIENTED_EDGE('',*,*,#197,.F.);
#157=ORIENTED_EDGE('',*,*,#200,.T.);
#158=ORIENTED_EDGE('',*,*,#209,.T.);
#159=ORIENTED_EDGE('',*,*,#235,.T.);
#160=ORIENTED_EDGE('',*,*,#220,.T.);
#161=ORIENTED_EDGE('',*,*,#232,.T.);
#162=ORIENTED_EDGE('',*,*,#227,.T.);
#163=ORIENTED_EDGE('',*,*,#224,.T.);
#164=ORIENTED_EDGE('',*,*,#210,.T.);
#165=ORIENTED_EDGE('',*,*,#230,.T.);
#166=ORIENTED_EDGE('',*,*,#217,.T.);
#167=ORIENTED_EDGE('',*,*,#214,.T.);
#168=ORIENTED_EDGE('',*,*,#204,.F.);
#169=ORIENTED_EDGE('',*,*,#234,.F.);
#170=ORIENTED_EDGE('',*,*,#207,.F.);
#171=ORIENTED_EDGE('',*,*,#198,.F.);
#172=ORIENTED_EDGE('',*,*,#193,.T.);
#173=ORIENTED_EDGE('',*,*,#203,.F.);
#174=EDGE_CURVE('',#236,#237,#278,.T.);
#175=EDGE_CURVE('',#238,#237,#279,.T.);
#176=EDGE_CURVE('',#239,#238,#280,.T.);
#177=EDGE_CURVE('',#239,#236,#281,.T.);
#178=EDGE_CURVE('',#237,#240,#20,.T.);
#179=EDGE_CURVE('',#241,#240,#282,.T.);
#180=EDGE_CURVE('',#238,#241,#21,.T.);
#181=EDGE_CURVE('',#242,#242,#22,.T.);
#182=EDGE_CURVE('',#243,#243,#23,.T.);
#183=EDGE_CURVE('',#240,#244,#283,.T.);
#184=EDGE_CURVE('',#245,#244,#284,.T.);
#185=EDGE_CURVE('',#241,#245,#285,.T.);
#186=EDGE_CURVE('',#246,#245,#286,.T.);
#187=EDGE_CURVE('',#246,#247,#287,.T.);
#188=EDGE_CURVE('',#247,#239,#288,.T.);
#189=EDGE_CURVE('',#236,#248,#289,.T.);
#190=EDGE_CURVE('',#249,#248,#290,.T.);
#191=EDGE_CURVE('',#244,#249,#291,.T.);
#192=EDGE_CURVE('',#248,#250,#24,.T.);
#193=EDGE_CURVE('',#251,#250,#292,.T.);
#194=EDGE_CURVE('',#249,#251,#25,.T.);
#195=EDGE_CURVE('',#247,#252,#26,.T.);
#196=EDGE_CURVE('',#246,#253,#27,.T.);
#197=EDGE_CURVE('',#253,#252,#293,.T.);
#198=EDGE_CURVE('',#251,#254,#294,.T.);
#199=EDGE_CURVE('',#255,#254,#295,.T.);
#200=EDGE_CURVE('',#253,#255,#296,.T.);
#201=EDGE_CURVE('',#256,#252,#297,.T.);
#202=EDGE_CURVE('',#256,#257,#298,.T.);
#203=EDGE_CURVE('',#257,#250,#299,.T.);
#204=EDGE_CURVE('',#258,#257,#28,.T.);
#205=EDGE_CURVE('',#259,#256,#29,.T.);
#206=EDGE_CURVE('',#259,#258,#300,.T.);
#207=EDGE_CURVE('',#254,#260,#30,.T.);
#208=EDGE_CURVE('',#261,#260,#301,.T.);
#209=EDGE_CURVE('',#255,#261,#31,.T.);
#210=EDGE_CURVE('',#262,#263,#302,.T.);
#211=EDGE_CURVE('',#264,#262,#303,.T.);
#212=EDGE_CURVE('',#264,#265,#304,.T.);
#213=EDGE_CURVE('',#265,#263,#305,.T.);
#214=EDGE_CURVE('',#266,#262,#32,.T.);
#215=EDGE_CURVE('',#267,#266,#306,.T.);
#216=EDGE_CURVE('',#267,#264,#33,.T.);
#217=EDGE_CURVE('',#268,#266,#307,.T.);
#218=EDGE_CURVE('',#269,#268,#308,.T.);
#219=EDGE_CURVE('',#269,#267,#309,.T.);
#220=EDGE_CURVE('',#270,#271,#310,.T.);
#221=EDGE_CURVE('',#272,#270,#311,.T.);
#222=EDGE_CURVE('',#272,#273,#312,.T.);
#223=EDGE_CURVE('',#273,#271,#313,.T.);
#224=EDGE_CURVE('',#274,#270,#34,.T.);
#225=EDGE_CURVE('',#275,#274,#314,.T.);
#226=EDGE_CURVE('',#275,#272,#35,.T.);
#227=EDGE_CURVE('',#276,#274,#315,.T.);
#228=EDGE_CURVE('',#277,#276,#316,.T.);
#229=EDGE_CURVE('',#277,#275,#317,.T.);
#230=EDGE_CURVE('',#263,#268,#36,.T.);
#231=EDGE_CURVE('',#265,#269,#37,.T.);
#232=EDGE_CURVE('',#271,#276,#38,.T.);
#233=EDGE_CURVE('',#273,#277,#39,.T.);
#234=EDGE_CURVE('',#260,#258,#318,.T.);
#235=EDGE_CURVE('',#261,#259,#319,.T.);
#236=VERTEX_POINT('',#647);
#237=VERTEX_POINT('',#648);
#238=VERTEX_POINT('',#650);
#239=VERTEX_POINT('',#652);
#240=VERTEX_POINT('',#656);
#241=VERTEX_POINT('',#658);
#242=VERTEX_POINT('',#662);
#243=VERTEX_POINT('',#664);
#244=VERTEX_POINT('',#667);
#245=VERTEX_POINT('',#669);
#246=VERTEX_POINT('',#673);
#247=VERTEX_POINT('',#675);
#248=VERTEX_POINT('',#679);
#249=VERTEX_POINT('',#681);
#250=VERTEX_POINT('',#685);
#251=VERTEX_POINT('',#687);
#252=VERTEX_POINT('',#691);
#253=VERTEX_POINT('',#693);
#254=VERTEX_POINT('',#697);
#255=VERTEX_POINT('',#699);
#256=VERTEX_POINT('',#703);
#257=VERTEX_POINT('',#705);
#258=VERTEX_POINT('',#709);
#259=VERTEX_POINT('',#711);
#260=VERTEX_POINT('',#715);
#261=VERTEX_POINT('',#717);
#262=VERTEX_POINT('',#721);
#263=VERTEX_POINT('',#722);
#264=VERTEX_POINT('',#724);
#265=VERTEX_POINT('',#726);
#266=VERTEX_POINT('',#730);
#267=VERTEX_POINT('',#732);
#268=VERTEX_POINT('',#736);
#269=VERTEX_POINT('',#738);
#270=VERTEX_POINT('',#742);
#271=VERTEX_POINT('',#743);
#272=VERTEX_POINT('',#745);
#273=VERTEX_POINT('',#747);
#274=VERTEX_POINT('',#751);
#275=VERTEX_POINT('',#753);
#276=VERTEX_POINT('',#757);
#277=VERTEX_POINT('',#759);
#278=LINE('',#646,#320);
#279=LINE('',#649,#321);
#280=LINE('',#651,#322);
#281=LINE('',#653,#323);
#282=LINE('',#657,#324);
#283=LINE('',#666,#325);
#284=LINE('',#668,#326);
#285=LINE('',#670,#327);
#286=LINE('',#672,#328);
#287=LINE('',#674,#329);
#288=LINE('',#676,#330);
#289=LINE('',#678,#331);
#290=LINE('',#680,#332);
#291=LINE('',#682,#333);
#292=LINE('',#686,#334);
#293=LINE('',#694,#335);
#294=LINE('',#696,#336);
#295=LINE('',#698,#337);
#296=LINE('',#700,#338);
#297=LINE('',#702,#339);
#298=LINE('',#704,#340);
#299=LINE('',#706,#341);
#300=LINE('',#712,#342);
#301=LINE('',#716,#343);
#302=LINE('',#720,#344);
#303=LINE('',#723,#345);
#304=LINE('',#725,#346);
#305=LINE('',#727,#347);
#306=LINE('',#731,#348);
#307=LINE('',#735,#349);
#308=LINE('',#737,#350);
#309=LINE('',#739,#351);
#310=LINE('',#741,#352);
#311=LINE('',#744,#353);
#312=LINE('',#746,#354);
#313=LINE('',#748,#355);
#314=LINE('',#752,#356);
#315=LINE('',#756,#357);
#316=LINE('',#758,#358);
#317=LINE('',#760,#359);
#318=LINE('',#768,#360);
#319=LINE('',#769,#361);
#320=VECTOR('',#518,1000.);
#321=VECTOR('',#519,1000.);
#322=VECTOR('',#520,1000.);
#323=VECTOR('',#521,1000.);
#324=VECTOR('',#526,1000.);
#325=VECTOR('',#537,1000.);
#326=VECTOR('',#538,1000.);
#327=VECTOR('',#539,1000.);
#328=VECTOR('',#542,1000.);
#329=VECTOR('',#543,1000.);
#330=VECTOR('',#544,1000.);
#331=VECTOR('',#547,1000.);
#332=VECTOR('',#548,1000.);
#333=VECTOR('',#549,1000.);
#334=VECTOR('',#554,1000.);
#335=VECTOR('',#563,1000.);
#336=VECTOR('',#566,1000.);
#337=VECTOR('',#567,1000.);
#338=VECTOR('',#568,1000.);
#339=VECTOR('',#571,1000.);
#340=VECTOR('',#572,1000.);
#341=VECTOR('',#573,1000.);
#342=VECTOR('',#580,1000.);
#343=VECTOR('',#585,1000.);
#344=VECTOR('',#590,1000.);
#345=VECTOR('',#591,1000.);
#346=VECTOR('',#592,1000.);
#347=VECTOR('',#593,1000.);
#348=VECTOR('',#598,1000.);
#349=VECTOR('',#603,1000.);
#350=VECTOR('',#604,1000.);
#351=VECTOR('',#605,1000.);
#352=VECTOR('',#608,1000.);
#353=VECTOR('',#609,1000.);
#354=VECTOR('',#610,1000.);
#355=VECTOR('',#611,1000.);
#356=VECTOR('',#616,1000.);
#357=VECTOR('',#621,1000.);
#358=VECTOR('',#622,1000.);
#359=VECTOR('',#623,1000.);
#360=VECTOR('',#638,1000.);
#361=VECTOR('',#639,1000.);
#362=EDGE_LOOP('',(#50,#51,#52,#53));
#363=EDGE_LOOP('',(#54,#55,#56,#57));
#364=EDGE_LOOP('',(#58));
#365=EDGE_LOOP('',(#59));
#366=EDGE_LOOP('',(#60,#61,#62,#63));
#367=EDGE_LOOP('',(#64));
#368=EDGE_LOOP('',(#65,#66,#67,#68,#69,#70));
#369=EDGE_LOOP('',(#71));
#370=EDGE_LOOP('',(#72,#73,#74,#75,#76,#77));
#371=EDGE_LOOP('',(#78,#79,#80,#81));
#372=EDGE_LOOP('',(#82,#83,#84,#85));
#373=EDGE_LOOP('',(#86,#87,#88,#89,#90,#91,#92,#93));
#374=EDGE_LOOP('',(#94,#95,#96,#97,#98,#99,#100,#101));
#375=EDGE_LOOP('',(#102,#103,#104,#105));
#376=EDGE_LOOP('',(#106,#107,#108,#109));
#377=EDGE_LOOP('',(#110,#111,#112,#113));
#378=EDGE_LOOP('',(#114,#115,#116,#117));
#379=EDGE_LOOP('',(#118,#119,#120,#121));
#380=EDGE_LOOP('',(#122,#123,#124,#125));
#381=EDGE_LOOP('',(#126,#127,#128,#129));
#382=EDGE_LOOP('',(#130,#131,#132,#133));
#383=EDGE_LOOP('',(#134,#135,#136,#137));
#384=EDGE_LOOP('',(#138,#139,#140,#141));
#385=EDGE_LOOP('',(#142,#143,#144,#145));
#386=EDGE_LOOP('',(#146,#147,#148,#149));
#387=EDGE_LOOP('',(#150,#151,#152,#153));
#388=EDGE_LOOP('',(#154,#155,#156,#157,#158,#159));
#389=EDGE_LOOP('',(#160,#161,#162,#163));
#390=EDGE_LOOP('',(#164,#165,#166,#167));
#391=EDGE_LOOP('',(#168,#169,#170,#171,#172,#173));
#392=FACE_BOUND('',#362,.T.);
#393=FACE_BOUND('',#363,.T.);
#394=FACE_BOUND('',#364,.T.);
#395=FACE_BOUND('',#365,.T.);
#396=FACE_BOUND('',#366,.T.);
#397=FACE_BOUND('',#367,.T.);
#398=FACE_BOUND('',#368,.T.);
#399=FACE_BOUND('',#369,.T.);
#400=FACE_BOUND('',#370,.T.);
#401=FACE_BOUND('',#371,.T.);
#402=FACE_BOUND('',#372,.T.);
#403=FACE_BOUND('',#373,.T.);
#404=FACE_BOUND('',#374,.T.);
#405=FACE_BOUND('',#375,.T.);
#406=FACE_BOUND('',#376,.T.);
#407=FACE_BOUND('',#377,.T.);
#408=FACE_BOUND('',#378,.T.);
#409=FACE_BOUND('',#379,.T.);
#410=FACE_BOUND('',#380,.T.);
#411=FACE_BOUND('',#381,.T.);
#412=FACE_BOUND('',#382,.T.);
#413=FACE_BOUND('',#383,.T.);
#414=FACE_BOUND('',#384,.T.);
#415=FACE_BOUND('',#385,.T.);
#416=FACE_BOUND('',#386,.T.);
#417=FACE_BOUND('',#387,.T.);
#418=FACE_BOUND('',#388,.T.);
#419=FACE_BOUND('',#389,.T.);
#420=FACE_BOUND('',#390,.T.);
#421=FACE_BOUND('',#391,.T.);
#422=PLANE('',#471);
#423=PLANE('',#478);
#424=PLANE('',#479);
#425=PLANE('',#480);
#426=PLANE('',#487);
#427=PLANE('',#488);
#428=PLANE('',#495);
#429=PLANE('',#499);
#430=PLANE('',#500);
#431=PLANE('',#504);
#432=PLANE('',#511);
#433=PLANE('',#512);
#434=PLANE('',#513);
#435=ADVANCED_FACE('',(#392),#422,.F.);
#436=ADVANCED_FACE('',(#393),#40,.T.);
#437=ADVANCED_FACE('',(#394,#395),#41,.F.);
#438=ADVANCED_FACE('',(#396),#423,.F.);
#439=ADVANCED_FACE('',(#397,#398),#424,.T.);
#440=ADVANCED_FACE('',(#399,#400),#425,.F.);
#441=ADVANCED_FACE('',(#401),#42,.T.);
#442=ADVANCED_FACE('',(#402),#43,.F.);
#443=ADVANCED_FACE('',(#403),#426,.T.);
#444=ADVANCED_FACE('',(#404),#427,.F.);
#445=ADVANCED_FACE('',(#405),#44,.T.);
#446=ADVANCED_FACE('',(#406),#45,.T.);
#447=ADVANCED_FACE('',(#407),#428,.T.);
#448=ADVANCED_FACE('',(#408),#46,.F.);
#449=ADVANCED_FACE('',(#409),#429,.T.);
#450=ADVANCED_FACE('',(#410),#430,.T.);
#451=ADVANCED_FACE('',(#411),#47,.F.);
#452=ADVANCED_FACE('',(#412),#431,.T.);
#453=ADVANCED_FACE('',(#413),#48,.F.);
#454=ADVANCED_FACE('',(#414),#49,.F.);
#455=ADVANCED_FACE('',(#415),#432,.F.);
#456=ADVANCED_FACE('',(#416,#417,#418),#433,.T.);
#457=ADVANCED_FACE('',(#419,#420,#421),#434,.F.);
#458=CLOSED_SHELL('',(#435,#436,#437,#438,#439,#440,#441,#442,#443,#444,
#445,#446,#447,#448,#449,#450,#451,#452,#453,#454,#455,#456,#457));
#459=STYLED_ITEM('',(#460),#467);
#460=PRESENTATION_STYLE_ASSIGNMENT((#461));
#461=SURFACE_STYLE_USAGE(.BOTH.,#462);
#462=SURFACE_SIDE_STYLE('',(#463));
#463=SURFACE_STYLE_FILL_AREA(#464);
#464=FILL_AREA_STYLE('',(#465));
#465=FILL_AREA_STYLE_COLOUR('',#466);
#466=COLOUR_RGB('',0.689999997615814,0.689999997615814,0.689999997615814);
#467=MANIFOLD_SOLID_BREP('052193',#458);
#468=SHAPE_DEFINITION_REPRESENTATION(#778,#469);
#469=SHAPE_REPRESENTATION('052193',(#470),#773);
#470=AXIS2_PLACEMENT_3D('',#644,#514,#515);
#471=AXIS2_PLACEMENT_3D('',#645,#516,#517);
#472=AXIS2_PLACEMENT_3D('',#654,#522,#523);
#473=AXIS2_PLACEMENT_3D('',#655,#524,#525);
#474=AXIS2_PLACEMENT_3D('',#659,#527,#528);
#475=AXIS2_PLACEMENT_3D('',#660,#529,#530);
#476=AXIS2_PLACEMENT_3D('',#661,#531,#532);
#477=AXIS2_PLACEMENT_3D('',#663,#533,#534);
#478=AXIS2_PLACEMENT_3D('',#665,#535,#536);
#479=AXIS2_PLACEMENT_3D('',#671,#540,#541);
#480=AXIS2_PLACEMENT_3D('',#677,#545,#546);
#481=AXIS2_PLACEMENT_3D('',#683,#550,#551);
#482=AXIS2_PLACEMENT_3D('',#684,#552,#553);
#483=AXIS2_PLACEMENT_3D('',#688,#555,#556);
#484=AXIS2_PLACEMENT_3D('',#689,#557,#558);
#485=AXIS2_PLACEMENT_3D('',#690,#559,#560);
#486=AXIS2_PLACEMENT_3D('',#692,#561,#562);
#487=AXIS2_PLACEMENT_3D('',#695,#564,#565);
#488=AXIS2_PLACEMENT_3D('',#701,#569,#570);
#489=AXIS2_PLACEMENT_3D('',#707,#574,#575);
#490=AXIS2_PLACEMENT_3D('',#708,#576,#577);
#491=AXIS2_PLACEMENT_3D('',#710,#578,#579);
#492=AXIS2_PLACEMENT_3D('',#713,#581,#582);
#493=AXIS2_PLACEMENT_3D('',#714,#583,#584);
#494=AXIS2_PLACEMENT_3D('',#718,#586,#587);
#495=AXIS2_PLACEMENT_3D('',#719,#588,#589);
#496=AXIS2_PLACEMENT_3D('',#728,#594,#595);
#497=AXIS2_PLACEMENT_3D('',#729,#596,#597);
#498=AXIS2_PLACEMENT_3D('',#733,#599,#600);
#499=AXIS2_PLACEMENT_3D('',#734,#601,#602);
#500=AXIS2_PLACEMENT_3D('',#740,#606,#607);
#501=AXIS2_PLACEMENT_3D('',#749,#612,#613);
#502=AXIS2_PLACEMENT_3D('',#750,#614,#615);
#503=AXIS2_PLACEMENT_3D('',#754,#617,#618);
#504=AXIS2_PLACEMENT_3D('',#755,#619,#620);
#505=AXIS2_PLACEMENT_3D('',#761,#624,#625);
#506=AXIS2_PLACEMENT_3D('',#762,#626,#627);
#507=AXIS2_PLACEMENT_3D('',#763,#628,#629);
#508=AXIS2_PLACEMENT_3D('',#764,#630,#631);
#509=AXIS2_PLACEMENT_3D('',#765,#632,#633);
#510=AXIS2_PLACEMENT_3D('',#766,#634,#635);
#511=AXIS2_PLACEMENT_3D('',#767,#636,#637);
#512=AXIS2_PLACEMENT_3D('',#770,#640,#641);
#513=AXIS2_PLACEMENT_3D('',#771,#642,#643);
#514=DIRECTION('',(0.,0.,1.));
#515=DIRECTION('',(1.,0.,0.));
#516=DIRECTION('',(0.989906592759827,0.,-0.141721337880468));
#517=DIRECTION('',(-0.141721337880468,0.,-0.989906592759827));
#518=DIRECTION('',(0.141721337880468,0.,0.989906592759827));
#519=DIRECTION('',(0.,-1.,0.));
#520=DIRECTION('',(0.141721337880468,0.,0.989906592759827));
#521=DIRECTION('',(0.,-1.,0.));
#522=DIRECTION('',(0.,-1.,0.));
#523=DIRECTION('',(0.,0.,-1.));
#524=DIRECTION('',(0.,1.,0.));
#525=DIRECTION('',(1.,0.,0.));
#526=DIRECTION('',(0.,-1.,0.));
#527=DIRECTION('',(0.,1.,0.));
#528=DIRECTION('',(1.,0.,0.));
#529=DIRECTION('',(0.,-1.,0.));
#530=DIRECTION('',(0.,0.,-1.));
#531=DIRECTION('',(0.,1.,0.));
#532=DIRECTION('',(1.,0.,0.));
#533=DIRECTION('',(0.,1.,0.));
#534=DIRECTION('',(1.,0.,0.));
#535=DIRECTION('',(-0.989906592759827,0.,-0.141721337880468));
#536=DIRECTION('',(-0.141721337880468,0.,0.989906592759827));
#537=DIRECTION('',(0.141721337880468,0.,-0.989906592759827));
#538=DIRECTION('',(0.,-1.,0.));
#539=DIRECTION('',(0.141721337880468,0.,-0.989906592759827));
#540=DIRECTION('',(0.,1.,0.));
#541=DIRECTION('',(0.,0.,1.));
#542=DIRECTION('',(0.,0.,1.));
#543=DIRECTION('',(-1.,0.,0.));
#544=DIRECTION('',(0.,0.,1.));
#545=DIRECTION('',(0.,1.,0.));
#546=DIRECTION('',(0.,0.,1.));
#547=DIRECTION('',(0.,0.,-1.));
#548=DIRECTION('',(-1.,0.,0.));
#549=DIRECTION('',(0.,0.,-1.));
#550=DIRECTION('',(-1.,0.,0.));
#551=DIRECTION('',(0.,0.,1.));
#552=DIRECTION('',(1.,0.,0.));
#553=DIRECTION('',(0.,0.,-1.));
#554=DIRECTION('',(-1.,0.,0.));
#555=DIRECTION('',(1.,0.,0.));
#556=DIRECTION('',(0.,0.,-1.));
#557=DIRECTION('',(-1.,0.,0.));
#558=DIRECTION('',(0.,0.,1.));
#559=DIRECTION('',(1.,0.,0.));
#560=DIRECTION('',(0.,0.,-1.));
#561=DIRECTION('',(1.,0.,0.));
#562=DIRECTION('',(0.,0.,-1.));
#563=DIRECTION('',(-1.,0.,0.));
#564=DIRECTION('',(1.,0.,0.));
#565=DIRECTION('',(0.,0.,-1.));
#566=DIRECTION('',(0.,1.,0.));
#567=DIRECTION('',(0.,0.,-1.));
#568=DIRECTION('',(0.,1.,0.));
#569=DIRECTION('',(1.,0.,0.));
#570=DIRECTION('',(0.,0.,-1.));
#571=DIRECTION('',(0.,-1.,0.));
#572=DIRECTION('',(0.,0.,-1.));
#573=DIRECTION('',(0.,-1.,0.));
#574=DIRECTION('',(0.,0.,-1.));
#575=DIRECTION('',(-1.,0.,0.));
#576=DIRECTION('',(0.,0.,1.));
#577=DIRECTION('',(1.,0.,0.));
#578=DIRECTION('',(0.,0.,1.));
#579=DIRECTION('',(1.,0.,0.));
#580=DIRECTION('',(0.,0.,-1.));
#581=DIRECTION('',(0.,0.,-1.));
#582=DIRECTION('',(-1.,0.,0.));
#583=DIRECTION('',(0.,0.,1.));
#584=DIRECTION('',(1.,0.,0.));
#585=DIRECTION('',(0.,0.,-1.));
#586=DIRECTION('',(0.,0.,1.));
#587=DIRECTION('',(1.,0.,0.));
#588=DIRECTION('',(1.,0.,0.));
#589=DIRECTION('',(0.,0.,-1.));
#590=DIRECTION('',(0.,-1.,0.));
#591=DIRECTION('',(0.,0.,-1.));
#592=DIRECTION('',(0.,-1.,0.));
#593=DIRECTION('',(0.,0.,-1.));
#594=DIRECTION('',(0.,0.,-1.));
#595=DIRECTION('',(-1.,0.,0.));
#596=DIRECTION('',(0.,0.,1.));
#597=DIRECTION('',(1.,0.,0.));
#598=DIRECTION('',(0.,0.,-1.));
#599=DIRECTION('',(0.,0.,1.));
#600=DIRECTION('',(1.,0.,0.));
#601=DIRECTION('',(-1.,0.,0.));
#602=DIRECTION('',(0.,0.,1.));
#603=DIRECTION('',(0.,1.,0.));
#604=DIRECTION('',(0.,0.,-1.));
#605=DIRECTION('',(0.,1.,0.));
#606=DIRECTION('',(1.,0.,0.));
#607=DIRECTION('',(0.,0.,-1.));
#608=DIRECTION('',(0.,-1.,0.));
#609=DIRECTION('',(0.,0.,-1.));
#610=DIRECTION('',(0.,-1.,0.));
#611=DIRECTION('',(0.,0.,-1.));
#612=DIRECTION('',(0.,0.,-1.));
#613=DIRECTION('',(-1.,0.,0.));
#614=DIRECTION('',(0.,0.,1.));
#615=DIRECTION('',(1.,0.,0.));
#616=DIRECTION('',(0.,0.,-1.));
#617=DIRECTION('',(0.,0.,1.));
#618=DIRECTION('',(1.,0.,0.));
#619=DIRECTION('',(-1.,0.,0.));
#620=DIRECTION('',(0.,0.,1.));
#621=DIRECTION('',(0.,1.,0.));
#622=DIRECTION('',(0.,0.,-1.));
#623=DIRECTION('',(0.,1.,0.));
#624=DIRECTION('',(0.,0.,-1.));
#625=DIRECTION('',(-1.,0.,0.));
#626=DIRECTION('',(0.,0.,1.));
#627=DIRECTION('',(1.,0.,0.));
#628=DIRECTION('',(0.,0.,1.));
#629=DIRECTION('',(1.,0.,0.));
#630=DIRECTION('',(0.,0.,-1.));
#631=DIRECTION('',(-1.,0.,0.));
#632=DIRECTION('',(0.,0.,1.));
#633=DIRECTION('',(1.,0.,0.));
#634=DIRECTION('',(0.,0.,1.));
#635=DIRECTION('',(1.,0.,0.));
#636=DIRECTION('',(0.,-1.,0.));
#637=DIRECTION('',(0.,0.,-1.));
#638=DIRECTION('',(-1.,0.,0.));
#639=DIRECTION('',(-1.,0.,0.));
#640=DIRECTION('',(0.,0.,1.));
#641=DIRECTION('',(1.,0.,0.));
#642=DIRECTION('',(0.,0.,1.));
#643=DIRECTION('',(1.,0.,0.));
#644=CARTESIAN_POINT('',(0.,0.,0.));
#645=CARTESIAN_POINT('',(-25.,3.,-33.5));
#646=CARTESIAN_POINT('',(-25.,0.,-33.5));
#647=CARTESIAN_POINT('',(-25.,0.,-33.5));
#648=CARTESIAN_POINT('',(-19.7981318551965,0.,2.83442675760937));
#649=CARTESIAN_POINT('',(-19.7981318551965,3.,2.83442675760937));
#650=CARTESIAN_POINT('',(-19.7981318551965,3.,2.83442675760937));
#651=CARTESIAN_POINT('',(-25.,3.,-33.5));
#652=CARTESIAN_POINT('',(-25.,3.,-33.5));
#653=CARTESIAN_POINT('',(-25.,3.,-33.5));
#654=CARTESIAN_POINT('',(-1.73472347597681E-15,3.,1.04083408558608E-14));
#655=CARTESIAN_POINT('',(-1.73472347597681E-15,0.,1.04083408558608E-14));
#656=CARTESIAN_POINT('',(19.7981318551965,0.,2.83442675760937));
#657=CARTESIAN_POINT('',(19.7981318551965,3.,2.83442675760937));
#658=CARTESIAN_POINT('',(19.7981318551965,3.,2.83442675760937));
#659=CARTESIAN_POINT('',(-1.73472347597681E-15,3.,1.04083408558608E-14));
#660=CARTESIAN_POINT('',(0.,3.,0.));
#661=CARTESIAN_POINT('',(0.,3.,0.));
#662=CARTESIAN_POINT('',(15.25,3.,0.));
#663=CARTESIAN_POINT('',(0.,0.,0.));
#664=CARTESIAN_POINT('',(15.25,0.,0.));
#665=CARTESIAN_POINT('',(19.7981318551965,3.,2.83442675760936));
#666=CARTESIAN_POINT('',(19.7981318551965,0.,2.83442675760936));
#667=CARTESIAN_POINT('',(25.,0.,-33.5));
#668=CARTESIAN_POINT('',(25.,3.,-33.5));
#669=CARTESIAN_POINT('',(25.,3.,-33.5));
#670=CARTESIAN_POINT('',(19.7981318551965,3.,2.83442675760936));
#671=CARTESIAN_POINT('',(-1.73472347597681E-15,3.,1.04083408558608E-14));
#672=CARTESIAN_POINT('',(25.,3.,-37.5));
#673=CARTESIAN_POINT('',(25.,3.,-37.5));
#674=CARTESIAN_POINT('',(25.,3.,-37.5));
#675=CARTESIAN_POINT('',(-25.,3.,-37.5));
#676=CARTESIAN_POINT('',(-25.,3.,-37.5));
#677=CARTESIAN_POINT('',(-1.73472347597681E-15,0.,1.04083408558608E-14));
#678=CARTESIAN_POINT('',(-25.,0.,-33.5));
#679=CARTESIAN_POINT('',(-25.,0.,-37.5));
#680=CARTESIAN_POINT('',(25.,0.,-37.5));
#681=CARTESIAN_POINT('',(25.,0.,-37.5));
#682=CARTESIAN_POINT('',(25.,0.,-33.5));
#683=CARTESIAN_POINT('',(25.,6.00000000000001,-37.5));
#684=CARTESIAN_POINT('',(-25.,6.00000000000001,-37.5));
#685=CARTESIAN_POINT('',(-25.,6.,-43.5));
#686=CARTESIAN_POINT('',(25.,6.,-43.5));
#687=CARTESIAN_POINT('',(25.,6.,-43.5));
#688=CARTESIAN_POINT('',(25.,6.00000000000001,-37.5));
#689=CARTESIAN_POINT('',(25.,5.99999999999999,-37.5));
#690=CARTESIAN_POINT('',(-25.,5.99999999999999,-37.5));
#691=CARTESIAN_POINT('',(-25.,6.,-40.5));
#692=CARTESIAN_POINT('',(25.,5.99999999999999,-37.5));
#693=CARTESIAN_POINT('',(25.,6.,-40.5));
#694=CARTESIAN_POINT('',(25.,6.,-40.5));
#695=CARTESIAN_POINT('',(25.,6.00000000000001,-37.5));
#696=CARTESIAN_POINT('',(25.,6.,-43.5));
#697=CARTESIAN_POINT('',(25.,23.,-43.5));
#698=CARTESIAN_POINT('',(25.,23.,-40.5));
#699=CARTESIAN_POINT('',(25.,23.,-40.5));
#700=CARTESIAN_POINT('',(25.,6.,-40.5));
#701=CARTESIAN_POINT('',(-25.,6.00000000000001,-37.5));
#702=CARTESIAN_POINT('',(-25.,23.,-40.5));
#703=CARTESIAN_POINT('',(-25.,23.,-40.5));
#704=CARTESIAN_POINT('',(-25.,23.,-40.5));
#705=CARTESIAN_POINT('',(-25.,23.,-43.5));
#706=CARTESIAN_POINT('',(-25.,23.,-43.5));
#707=CARTESIAN_POINT('',(-21.,23.,-40.5));
#708=CARTESIAN_POINT('',(-21.,23.,-43.5));
#709=CARTESIAN_POINT('',(-21.,27.,-43.5));
#710=CARTESIAN_POINT('',(-21.,23.,-40.5));
#711=CARTESIAN_POINT('',(-21.,27.,-40.5));
#712=CARTESIAN_POINT('',(-21.,27.,-40.5));
#713=CARTESIAN_POINT('',(21.,23.,-40.5));
#714=CARTESIAN_POINT('',(21.,23.,-43.5));
#715=CARTESIAN_POINT('',(21.,27.,-43.5));
#716=CARTESIAN_POINT('',(21.,27.,-40.5));
#717=CARTESIAN_POINT('',(21.,27.,-40.5));
#718=CARTESIAN_POINT('',(21.,23.,-40.5));
#719=CARTESIAN_POINT('',(16.3,18.5,-40.5));
#720=CARTESIAN_POINT('',(16.3,18.5,-43.5));
#721=CARTESIAN_POINT('',(16.3,18.5,-43.5));
#722=CARTESIAN_POINT('',(16.3,10.5,-43.5));
#723=CARTESIAN_POINT('',(16.3,18.5,-40.5));
#724=CARTESIAN_POINT('',(16.3,18.5,-40.5));
#725=CARTESIAN_POINT('',(16.3,18.5,-40.5));
#726=CARTESIAN_POINT('',(16.3,10.5,-40.5));
#727=CARTESIAN_POINT('',(16.3,10.5,-40.5));
#728=CARTESIAN_POINT('',(19.,18.5,-40.5));
#729=CARTESIAN_POINT('',(19.,18.5,-43.5));
#730=CARTESIAN_POINT('',(21.7,18.5,-43.5));
#731=CARTESIAN_POINT('',(21.7,18.5,-40.5));
#732=CARTESIAN_POINT('',(21.7,18.5,-40.5));
#733=CARTESIAN_POINT('',(19.,18.5,-40.5));
#734=CARTESIAN_POINT('',(21.7,10.5,-40.5));
#735=CARTESIAN_POINT('',(21.7,10.5,-43.5));
#736=CARTESIAN_POINT('',(21.7,10.5,-43.5));
#737=CARTESIAN_POINT('',(21.7,10.5,-40.5));
#738=CARTESIAN_POINT('',(21.7,10.5,-40.5));
#739=CARTESIAN_POINT('',(21.7,10.5,-40.5));
#740=CARTESIAN_POINT('',(-21.7,18.5,-40.5));
#741=CARTESIAN_POINT('',(-21.7,18.5,-43.5));
#742=CARTESIAN_POINT('',(-21.7,18.5,-43.5));
#743=CARTESIAN_POINT('',(-21.7,10.5,-43.5));
#744=CARTESIAN_POINT('',(-21.7,18.5,-40.5));
#745=CARTESIAN_POINT('',(-21.7,18.5,-40.5));
#746=CARTESIAN_POINT('',(-21.7,18.5,-40.5));
#747=CARTESIAN_POINT('',(-21.7,10.5,-40.5));
#748=CARTESIAN_POINT('',(-21.7,10.5,-40.5));
#749=CARTESIAN_POINT('',(-19.,18.5,-40.5));
#750=CARTESIAN_POINT('',(-19.,18.5,-43.5));
#751=CARTESIAN_POINT('',(-16.3,18.5,-43.5));
#752=CARTESIAN_POINT('',(-16.3,18.5,-40.5));
#753=CARTESIAN_POINT('',(-16.3,18.5,-40.5));
#754=CARTESIAN_POINT('',(-19.,18.5,-40.5));
#755=CARTESIAN_POINT('',(-16.3,10.5,-40.5));
#756=CARTESIAN_POINT('',(-16.3,10.5,-43.5));
#757=CARTESIAN_POINT('',(-16.3,10.5,-43.5));
#758=CARTESIAN_POINT('',(-16.3,10.5,-40.5));
#759=CARTESIAN_POINT('',(-16.3,10.5,-40.5));
#760=CARTESIAN_POINT('',(-16.3,10.5,-40.5));
#761=CARTESIAN_POINT('',(19.,10.5,-40.5));
#762=CARTESIAN_POINT('',(19.,10.5,-43.5));
#763=CARTESIAN_POINT('',(19.,10.5,-40.5));
#764=CARTESIAN_POINT('',(-19.,10.5,-40.5));
#765=CARTESIAN_POINT('',(-19.,10.5,-43.5));
#766=CARTESIAN_POINT('',(-19.,10.5,-40.5));
#767=CARTESIAN_POINT('',(21.,27.,-40.5));
#768=CARTESIAN_POINT('',(21.,27.,-43.5));
#769=CARTESIAN_POINT('',(21.,27.,-40.5));
#770=CARTESIAN_POINT('',(-21.,23.,-40.5));
#771=CARTESIAN_POINT('',(-21.,23.,-43.5));
#772=MECHANICAL_DESIGN_GEOMETRIC_PRESENTATION_REPRESENTATION('',(#459),
#773);
#773=(
GEOMETRIC_REPRESENTATION_CONTEXT(3)
GLOBAL_UNCERTAINTY_ASSIGNED_CONTEXT((#774))
GLOBAL_UNIT_ASSIGNED_CONTEXT((#777,#776,#775))
REPRESENTATION_CONTEXT('052193','TOP_LEVEL_ASSEMBLY_PART')
);
#774=UNCERTAINTY_MEASURE_WITH_UNIT(LENGTH_MEASURE(0.005),#777,
'DISTANCE_ACCURACY_VALUE','Maximum Tolerance applied to model');
#775=(
NAMED_UNIT(*)
SI_UNIT($,.STERADIAN.)
SOLID_ANGLE_UNIT()
);
#776=(
NAMED_UNIT(*)
PLANE_ANGLE_UNIT()
SI_UNIT($,.RADIAN.)
);
#777=(
LENGTH_UNIT()
NAMED_UNIT(*)
SI_UNIT(.MILLI.,.METRE.)
);
#778=PRODUCT_DEFINITION_SHAPE('','',#779);
#779=PRODUCT_DEFINITION('','',#781,#780);
#780=PRODUCT_DEFINITION_CONTEXT('',#787,'design');
#781=PRODUCT_DEFINITION_FORMATION_WITH_SPECIFIED_SOURCE('','',#783,
 .NOT_KNOWN.);
#782=PRODUCT_RELATED_PRODUCT_CATEGORY('','',(#783));
#783=PRODUCT('052193','052193','052193',(#785));
#784=PRODUCT_CATEGORY('','');
#785=PRODUCT_CONTEXT('',#787,'mechanical');
#786=APPLICATION_PROTOCOL_DEFINITION('international standard',
'automotive_design',2010,#787);
#787=APPLICATION_CONTEXT(
'core data for automotive mechanical design processes');
ENDSEC;
END-ISO-10303-21;
