ISO-10303-21;
HEADER;
/****************************************************************
 * Generated by software with PDElib inside                    *
 * PDElib Version v51a, created Wed 11/30/2011                  *
 * ITI Transcendata (http://www.transcendata.com/)              *
 ****************************************************************/
FILE_DESCRIPTION((''),'2;1');
FILE_NAME('T:\\Archivio Inventor\\- FISSAGGI NUOVI\\- NP\\NP6.3.stp','2016-07-11T17:33:05',('carlo.corazza'),(''),'Autodesk Inventor 2013','Autodesk Inventor 2013','');
FILE_SCHEMA(('AUTOMOTIVE_DESIGN { 1 0 10303 214 1 1 1 1 }'));
ENDSEC;
DATA;
#5=APPLICATION_CONTEXT('automotive design');
#6=APPLICATION_PROTOCOL_DEFINITION('International Standard','automotive_design',2001,#5);
#7=PRODUCT_CONTEXT('',#5,'mechanical');
#8=PRODUCT('NP6.3','NP6.3',$,(#7));
#9=PRODUCT_RELATED_PRODUCT_CATEGORY('part',$,(#8));
#10=PRODUCT_DEFINITION_FORMATION('',$,#8);
#11=PRODUCT_DEFINITION_CONTEXT('part definition',#5,'design');
#12=PRODUCT_DEFINITION('',$,#10,#11);
#18=(NAMED_UNIT(*)PLANE_ANGLE_UNIT()SI_UNIT($,.RADIAN.));
#19=DIMENSIONAL_EXPONENTS(0.0,0.0,0.0,0.0,0.0,0.0,0.0);
#20=PLANE_ANGLE_MEASURE_WITH_UNIT(PLANE_ANGLE_MEASURE(0.0174532925),#18);
#24=(CONVERSION_BASED_UNIT('DEGREE',#20)NAMED_UNIT(#19)PLANE_ANGLE_UNIT());
#28=(NAMED_UNIT(*)SI_UNIT($,.STERADIAN.)SOLID_ANGLE_UNIT());
#32=(LENGTH_UNIT()NAMED_UNIT(*)SI_UNIT(.MILLI.,.METRE.));
#34=UNCERTAINTY_MEASURE_WITH_UNIT(LENGTH_MEASURE(0.01),#32,'DISTANCE_ACCURACY_VALUE','');
#36=(GEOMETRIC_REPRESENTATION_CONTEXT(3)GLOBAL_UNCERTAINTY_ASSIGNED_CONTEXT((#34))GLOBAL_UNIT_ASSIGNED_CONTEXT((#24,#28,#32))REPRESENTATION_CONTEXT('None','None'));
#37=AXIS2_PLACEMENT_3D('',#38,#39,#40);
#38=CARTESIAN_POINT('',(0.0,0.0,0.0));
#39=DIRECTION('',(0.0,0.0,1.0));
#40=DIRECTION('',(1.0,0.0,0.0));
#41=SHAPE_REPRESENTATION('',(#37),#36);
#42=PRODUCT_DEFINITION_SHAPE('','',#12);
#43=SHAPE_DEFINITION_REPRESENTATION(#42,#41);
#49=(NAMED_UNIT(*)PLANE_ANGLE_UNIT()SI_UNIT($,.RADIAN.));
#50=DIMENSIONAL_EXPONENTS(0.0,0.0,0.0,0.0,0.0,0.0,0.0);
#51=PLANE_ANGLE_MEASURE_WITH_UNIT(PLANE_ANGLE_MEASURE(0.0174532925),#49);
#55=(CONVERSION_BASED_UNIT('DEGREE',#51)NAMED_UNIT(#50)PLANE_ANGLE_UNIT());
#59=(NAMED_UNIT(*)SI_UNIT($,.STERADIAN.)SOLID_ANGLE_UNIT());
#63=(LENGTH_UNIT()NAMED_UNIT(*)SI_UNIT(.MILLI.,.METRE.));
#65=UNCERTAINTY_MEASURE_WITH_UNIT(LENGTH_MEASURE(0.000001),#63,'DISTANCE_ACCURACY_VALUE','');
#67=(GEOMETRIC_REPRESENTATION_CONTEXT(3)GLOBAL_UNCERTAINTY_ASSIGNED_CONTEXT((#65))GLOBAL_UNIT_ASSIGNED_CONTEXT((#55,#59,#63))REPRESENTATION_CONTEXT('','3D'));
#68=CARTESIAN_POINT('',(11.100000000000001,0.0,0.0));
#69=DIRECTION('',(-1.0,0.0,0.0));
#70=DIRECTION('',(0.0,-1.0,0.0));
#71=AXIS2_PLACEMENT_3D('',#68,#69,#70);
#72=CONICAL_SURFACE('',#71,1.349999999999999,45.000000000000206);
#73=CARTESIAN_POINT('',(10.950000000000003,1.499999999999999,1.836970E-016));
#74=VERTEX_POINT('',#73);
#75=CARTESIAN_POINT('',(10.950000000000003,0.0,0.0));
#76=DIRECTION('',(1.0,0.0,0.0));
#77=DIRECTION('',(0.0,-1.0,0.0));
#78=AXIS2_PLACEMENT_3D('',#75,#76,#77);
#79=CIRCLE('',#78,1.499999999999999);
#80=EDGE_CURVE('',#74,#74,#79,.T.);
#81=ORIENTED_EDGE('',*,*,#80,.T.);
#82=EDGE_LOOP('',(#81));
#83=FACE_OUTER_BOUND('',#82,.T.);
#84=CARTESIAN_POINT('',(11.25,1.199999999999999,-1.469576E-016));
#85=VERTEX_POINT('',#84);
#86=CARTESIAN_POINT('',(11.25,0.0,0.0));
#87=DIRECTION('',(-1.0,0.0,0.0));
#88=DIRECTION('',(0.0,-1.0,0.0));
#89=AXIS2_PLACEMENT_3D('',#86,#87,#88);
#90=CIRCLE('',#89,1.199999999999999);
#91=EDGE_CURVE('',#85,#85,#90,.T.);
#92=ORIENTED_EDGE('',*,*,#91,.T.);
#93=EDGE_LOOP('',(#92));
#94=FACE_BOUND('',#93,.T.);
#95=ADVANCED_FACE('',(#83,#94),#72,.T.);
#96=CARTESIAN_POINT('',(8.0,0.0,0.0));
#97=DIRECTION('',(1.0,0.0,0.0));
#98=DIRECTION('',(0.0,1.0,0.0));
#99=AXIS2_PLACEMENT_3D('',#96,#97,#98);
#100=CYLINDRICAL_SURFACE('',#99,1.499999999999999);
#101=CARTESIAN_POINT('',(4.75,1.5,0.0));
#102=VERTEX_POINT('',#101);
#103=CARTESIAN_POINT('',(4.749999999999998,0.0,0.0));
#104=DIRECTION('',(1.0,0.0,0.0));
#105=DIRECTION('',(0.0,1.0,0.0));
#106=AXIS2_PLACEMENT_3D('',#103,#104,#105);
#107=CIRCLE('',#106,1.5);
#108=EDGE_CURVE('',#102,#102,#107,.T.);
#109=ORIENTED_EDGE('',*,*,#108,.T.);
#110=EDGE_LOOP('',(#109));
#111=FACE_OUTER_BOUND('',#110,.T.);
#112=ORIENTED_EDGE('',*,*,#80,.F.);
#113=EDGE_LOOP('',(#112));
#114=FACE_BOUND('',#113,.T.);
#115=ADVANCED_FACE('',(#111,#114),#100,.T.);
#116=CARTESIAN_POINT('',(11.25,0.75,0.0));
#117=DIRECTION('',(1.0,0.0,0.0));
#118=DIRECTION('',(0.0,0.0,-1.0));
#119=AXIS2_PLACEMENT_3D('',#116,#117,#118);
#120=PLANE('',#119);
#121=ORIENTED_EDGE('',*,*,#91,.F.);
#122=EDGE_LOOP('',(#121));
#123=FACE_OUTER_BOUND('',#122,.T.);
#124=ADVANCED_FACE('',(#123),#120,.T.);
#125=CARTESIAN_POINT('',(4.4,0.0,0.0));
#126=DIRECTION('',(-1.0,0.0,0.0));
#127=DIRECTION('',(0.0,-1.0,0.0));
#128=AXIS2_PLACEMENT_3D('',#125,#126,#127);
#129=CONICAL_SURFACE('',#128,2.649999999999999,45.000000000000071);
#130=CARTESIAN_POINT('',(4.050000000000001,2.999999999999999,3.673940E-016));
#131=VERTEX_POINT('',#130);
#132=CARTESIAN_POINT('',(4.050000000000001,0.0,0.0));
#133=DIRECTION('',(1.0,0.0,0.0));
#134=DIRECTION('',(0.0,-1.0,0.0));
#135=AXIS2_PLACEMENT_3D('',#132,#133,#134);
#136=CIRCLE('',#135,2.999999999999999);
#137=EDGE_CURVE('',#131,#131,#136,.T.);
#138=ORIENTED_EDGE('',*,*,#137,.T.);
#139=EDGE_LOOP('',(#138));
#140=FACE_OUTER_BOUND('',#139,.T.);
#141=CARTESIAN_POINT('',(4.75,2.299999999999998,-2.816688E-016));
#142=VERTEX_POINT('',#141);
#143=CARTESIAN_POINT('',(4.75,0.0,0.0));
#144=DIRECTION('',(-1.0,0.0,0.0));
#145=DIRECTION('',(0.0,-1.0,0.0));
#146=AXIS2_PLACEMENT_3D('',#143,#144,#145);
#147=CIRCLE('',#146,2.299999999999998);
#148=EDGE_CURVE('',#142,#142,#147,.T.);
#149=ORIENTED_EDGE('',*,*,#148,.T.);
#150=EDGE_LOOP('',(#149));
#151=FACE_BOUND('',#150,.T.);
#152=ADVANCED_FACE('',(#140,#151),#129,.T.);
#153=CARTESIAN_POINT('',(-3.25,0.0,0.0));
#154=DIRECTION('',(1.0,0.0,0.0));
#155=DIRECTION('',(0.0,1.0,0.0));
#156=AXIS2_PLACEMENT_3D('',#153,#154,#155);
#157=CYLINDRICAL_SURFACE('',#156,2.999999999999999);
#158=CARTESIAN_POINT('',(-10.549999999999999,2.999999999999999,-3.673940E-016));
#159=VERTEX_POINT('',#158);
#160=CARTESIAN_POINT('',(-10.549999999999999,0.0,0.0));
#161=DIRECTION('',(-1.0,0.0,0.0));
#162=DIRECTION('',(0.0,-1.0,0.0));
#163=AXIS2_PLACEMENT_3D('',#160,#161,#162);
#164=CIRCLE('',#163,2.999999999999999);
#165=EDGE_CURVE('',#159,#159,#164,.T.);
#166=ORIENTED_EDGE('',*,*,#165,.F.);
#167=EDGE_LOOP('',(#166));
#168=FACE_OUTER_BOUND('',#167,.T.);
#169=ORIENTED_EDGE('',*,*,#137,.F.);
#170=EDGE_LOOP('',(#169));
#171=FACE_BOUND('',#170,.T.);
#172=ADVANCED_FACE('',(#168,#171),#157,.T.);
#173=CARTESIAN_POINT('',(4.75,2.249999999999999,0.0));
#174=DIRECTION('',(1.0,0.0,0.0));
#175=DIRECTION('',(0.0,0.0,-1.0));
#176=AXIS2_PLACEMENT_3D('',#173,#174,#175);
#177=PLANE('',#176);
#178=ORIENTED_EDGE('',*,*,#148,.F.);
#179=EDGE_LOOP('',(#178));
#180=FACE_OUTER_BOUND('',#179,.T.);
#181=ORIENTED_EDGE('',*,*,#108,.F.);
#182=EDGE_LOOP('',(#181));
#183=FACE_BOUND('',#182,.T.);
#184=ADVANCED_FACE('',(#180,#183),#177,.T.);
#185=CARTESIAN_POINT('',(-10.899999999999999,0.0,0.0));
#186=DIRECTION('',(1.0,0.0,0.0));
#187=DIRECTION('',(0.0,-1.0,0.0));
#188=AXIS2_PLACEMENT_3D('',#185,#186,#187);
#189=CONICAL_SURFACE('',#188,2.65,44.999999999999936);
#190=CARTESIAN_POINT('',(-11.25,2.3,2.816688E-016));
#191=VERTEX_POINT('',#190);
#192=CARTESIAN_POINT('',(-11.25,0.0,0.0));
#193=DIRECTION('',(1.0,0.0,0.0));
#194=DIRECTION('',(0.0,-1.0,0.0));
#195=AXIS2_PLACEMENT_3D('',#192,#193,#194);
#196=CIRCLE('',#195,2.3);
#197=EDGE_CURVE('',#191,#191,#196,.T.);
#198=ORIENTED_EDGE('',*,*,#197,.T.);
#199=EDGE_LOOP('',(#198));
#200=FACE_OUTER_BOUND('',#199,.T.);
#201=ORIENTED_EDGE('',*,*,#165,.T.);
#202=EDGE_LOOP('',(#201));
#203=FACE_BOUND('',#202,.T.);
#204=ADVANCED_FACE('',(#200,#203),#189,.T.);
#205=CARTESIAN_POINT('',(-11.25,1.5,0.0));
#206=DIRECTION('',(-1.0,0.0,0.0));
#207=DIRECTION('',(0.0,0.0,1.0));
#208=AXIS2_PLACEMENT_3D('',#205,#206,#207);
#209=PLANE('',#208);
#210=ORIENTED_EDGE('',*,*,#197,.F.);
#211=EDGE_LOOP('',(#210));
#212=FACE_OUTER_BOUND('',#211,.T.);
#213=ADVANCED_FACE('',(#212),#209,.T.);
#214=CLOSED_SHELL('',(#95,#115,#124,#152,#172,#184,#204,#213));
#215=MANIFOLD_SOLID_BREP('Solido1',#214);
#216=DRAUGHTING_PRE_DEFINED_COLOUR('white');
#217=FILL_AREA_STYLE_COLOUR('Cromo',#216);
#218=FILL_AREA_STYLE('Cromo',(#217));
#219=SURFACE_STYLE_FILL_AREA(#218);
#220=SURFACE_SIDE_STYLE('Cromo',(#219));
#221=SURFACE_STYLE_USAGE(.BOTH.,#220);
#222=PRESENTATION_STYLE_ASSIGNMENT((#221));
#223=STYLED_ITEM('',(#222),#215);
#224=MECHANICAL_DESIGN_GEOMETRIC_PRESENTATION_REPRESENTATION('',(#223),#36);
#225=ADVANCED_BREP_SHAPE_REPRESENTATION('ABSR',(#215),#36);
#226=SHAPE_REPRESENTATION_RELATIONSHIP('SRR','None',#225,#41);
ENDSEC;
END-ISO-10303-21;
