ISO-10303-21;
HEADER;
/****************************************************************
 * Generated by software with PDElib inside                    *
 * PDElib Version v51a, created Wed 11/30/2011                  *
 * ITI Transcendata (http://www.transcendata.com/)              *
 ****************************************************************/
FILE_DESCRIPTION((''),'2;1');
FILE_NAME('T:\\Archivio Inventor\\- FISSAGGI NUOVI\\- NP\\NP12.8.stp','2016-07-11T17:33:18',('carlo.corazza'),(''),'Autodesk Inventor 2013','Autodesk Inventor 2013','');
FILE_SCHEMA(('AUTOMOTIVE_DESIGN { 1 0 10303 214 1 1 1 1 }'));
ENDSEC;
DATA;
#5=APPLICATION_CONTEXT('automotive design');
#6=APPLICATION_PROTOCOL_DEFINITION('International Standard','automotive_design',2001,#5);
#7=PRODUCT_CONTEXT('',#5,'mechanical');
#8=PRODUCT('NP12.8','NP12.8',$,(#7));
#9=PRODUCT_RELATED_PRODUCT_CATEGORY('part',$,(#8));
#10=PRODUCT_DEFINITION_FORMATION('',$,#8);
#11=PRODUCT_DEFINITION_CONTEXT('part definition',#5,'design');
#12=PRODUCT_DEFINITION('',$,#10,#11);
#18=(NAMED_UNIT(*)PLANE_ANGLE_UNIT()SI_UNIT($,.RADIAN.));
#19=DIMENSIONAL_EXPONENTS(0.0,0.0,0.0,0.0,0.0,0.0,0.0);
#20=PLANE_ANGLE_MEASURE_WITH_UNIT(PLANE_ANGLE_MEASURE(0.0174532925),#18);
#24=(CONVERSION_BASED_UNIT('DEGREE',#20)NAMED_UNIT(#19)PLANE_ANGLE_UNIT());
#28=(NAMED_UNIT(*)SI_UNIT($,.STERADIAN.)SOLID_ANGLE_UNIT());
#32=(LENGTH_UNIT()NAMED_UNIT(*)SI_UNIT(.MILLI.,.METRE.));
#34=UNCERTAINTY_MEASURE_WITH_UNIT(LENGTH_MEASURE(0.01),#32,'DISTANCE_ACCURACY_VALUE','');
#36=(GEOMETRIC_REPRESENTATION_CONTEXT(3)GLOBAL_UNCERTAINTY_ASSIGNED_CONTEXT((#34))GLOBAL_UNIT_ASSIGNED_CONTEXT((#24,#28,#32))REPRESENTATION_CONTEXT('None','None'));
#37=AXIS2_PLACEMENT_3D('',#38,#39,#40);
#38=CARTESIAN_POINT('',(0.0,0.0,0.0));
#39=DIRECTION('',(0.0,0.0,1.0));
#40=DIRECTION('',(1.0,0.0,0.0));
#41=SHAPE_REPRESENTATION('',(#37),#36);
#42=PRODUCT_DEFINITION_SHAPE('','',#12);
#43=SHAPE_DEFINITION_REPRESENTATION(#42,#41);
#49=(NAMED_UNIT(*)PLANE_ANGLE_UNIT()SI_UNIT($,.RADIAN.));
#50=DIMENSIONAL_EXPONENTS(0.0,0.0,0.0,0.0,0.0,0.0,0.0);
#51=PLANE_ANGLE_MEASURE_WITH_UNIT(PLANE_ANGLE_MEASURE(0.0174532925),#49);
#55=(CONVERSION_BASED_UNIT('DEGREE',#51)NAMED_UNIT(#50)PLANE_ANGLE_UNIT());
#59=(NAMED_UNIT(*)SI_UNIT($,.STERADIAN.)SOLID_ANGLE_UNIT());
#63=(LENGTH_UNIT()NAMED_UNIT(*)SI_UNIT(.MILLI.,.METRE.));
#65=UNCERTAINTY_MEASURE_WITH_UNIT(LENGTH_MEASURE(0.000001),#63,'DISTANCE_ACCURACY_VALUE','');
#67=(GEOMETRIC_REPRESENTATION_CONTEXT(3)GLOBAL_UNCERTAINTY_ASSIGNED_CONTEXT((#65))GLOBAL_UNIT_ASSIGNED_CONTEXT((#55,#59,#63))REPRESENTATION_CONTEXT('','3D'));
#68=CARTESIAN_POINT('',(0.0,-13.769059892324151,0.0));
#69=DIRECTION('',(0.0,-1.0,0.0));
#70=DIRECTION('',(0.0,0.0,-1.0));
#71=AXIS2_PLACEMENT_3D('',#68,#69,#70);
#72=TOROIDAL_SURFACE('',#71,3.400000000000001,0.4);
#73=CARTESIAN_POINT('',(0.0,-13.769059892324151,3.0));
#74=VERTEX_POINT('',#73);
#75=CARTESIAN_POINT('',(0.0,-13.769059892324151,0.0));
#76=DIRECTION('',(0.0,-1.0,0.0));
#77=DIRECTION('',(0.0,0.0,-1.0));
#78=AXIS2_PLACEMENT_3D('',#75,#76,#77);
#79=CIRCLE('',#78,3.0);
#80=EDGE_CURVE('',#74,#74,#79,.T.);
#81=ORIENTED_EDGE('',*,*,#80,.T.);
#82=EDGE_LOOP('',(#81));
#83=FACE_OUTER_BOUND('',#82,.T.);
#84=CARTESIAN_POINT('',(7.837740E-016,-14.115470053837926,3.2));
#85=VERTEX_POINT('',#84);
#86=CARTESIAN_POINT('',(3.918870E-016,-14.115470053837926,0.0));
#87=DIRECTION('',(0.0,1.0,0.0));
#88=DIRECTION('',(0.0,0.0,-1.0));
#89=AXIS2_PLACEMENT_3D('',#86,#87,#88);
#90=CIRCLE('',#89,3.2);
#91=EDGE_CURVE('',#85,#85,#90,.T.);
#92=ORIENTED_EDGE('',*,*,#91,.T.);
#93=EDGE_LOOP('',(#92));
#94=FACE_BOUND('',#93,.T.);
#95=ADVANCED_FACE('',(#83,#94),#72,.F.);
#96=CARTESIAN_POINT('',(0.0,-13.000000000000004,0.0));
#97=DIRECTION('',(0.0,-1.0,0.0));
#98=DIRECTION('',(0.0,0.0,1.0));
#99=AXIS2_PLACEMENT_3D('',#96,#97,#98);
#100=CYLINDRICAL_SURFACE('',#99,3.0);
#101=CARTESIAN_POINT('',(7.347881E-016,-12.400000000000002,3.0));
#102=VERTEX_POINT('',#101);
#103=CARTESIAN_POINT('',(0.0,-12.400000000000002,0.0));
#104=DIRECTION('',(0.0,1.0,0.0));
#105=DIRECTION('',(0.0,0.0,-1.0));
#106=AXIS2_PLACEMENT_3D('',#103,#104,#105);
#107=CIRCLE('',#106,3.0);
#108=EDGE_CURVE('',#102,#102,#107,.T.);
#109=ORIENTED_EDGE('',*,*,#108,.F.);
#110=EDGE_LOOP('',(#109));
#111=FACE_OUTER_BOUND('',#110,.T.);
#112=ORIENTED_EDGE('',*,*,#80,.F.);
#113=EDGE_LOOP('',(#112));
#114=FACE_BOUND('',#113,.T.);
#115=ADVANCED_FACE('',(#111,#114),#100,.T.);
#116=CARTESIAN_POINT('',(0.0,-14.577350269189628,0.0));
#117=DIRECTION('',(0.0,-1.0,0.0));
#118=DIRECTION('',(0.0,0.0,1.0));
#119=AXIS2_PLACEMENT_3D('',#116,#117,#118);
#120=CONICAL_SURFACE('',#119,4.0,59.999999999999943);
#121=CARTESIAN_POINT('',(3.999999999999999,-14.577350269189628,4.898587E-016));
#122=VERTEX_POINT('',#121);
#123=CARTESIAN_POINT('',(0.0,-14.577350269189628,0.0));
#124=DIRECTION('',(0.0,-1.0,0.0));
#125=DIRECTION('',(-1.0,0.0,0.0));
#126=AXIS2_PLACEMENT_3D('',#123,#124,#125);
#127=CIRCLE('',#126,3.999999999999999);
#128=EDGE_CURVE('',#122,#122,#127,.T.);
#129=ORIENTED_EDGE('',*,*,#128,.F.);
#130=EDGE_LOOP('',(#129));
#131=FACE_OUTER_BOUND('',#130,.T.);
#132=ORIENTED_EDGE('',*,*,#91,.F.);
#133=EDGE_LOOP('',(#132));
#134=FACE_BOUND('',#133,.T.);
#135=ADVANCED_FACE('',(#131,#134),#120,.T.);
#136=CARTESIAN_POINT('',(0.0,-12.400000000000002,0.0));
#137=DIRECTION('',(0.0,-1.0,0.0));
#138=DIRECTION('',(0.0,0.0,-1.0));
#139=AXIS2_PLACEMENT_3D('',#136,#137,#138);
#140=TOROIDAL_SURFACE('',#139,3.400000000000001,0.4);
#141=CARTESIAN_POINT('',(0.0,-12.000000000000002,3.400000000000001));
#142=VERTEX_POINT('',#141);
#143=CARTESIAN_POINT('',(0.0,-12.000000000000002,0.0));
#144=DIRECTION('',(0.0,-1.0,0.0));
#145=DIRECTION('',(0.0,0.0,-1.0));
#146=AXIS2_PLACEMENT_3D('',#143,#144,#145);
#147=CIRCLE('',#146,3.400000000000001);
#148=EDGE_CURVE('',#142,#142,#147,.T.);
#149=ORIENTED_EDGE('',*,*,#148,.T.);
#150=EDGE_LOOP('',(#149));
#151=FACE_OUTER_BOUND('',#150,.T.);
#152=ORIENTED_EDGE('',*,*,#108,.T.);
#153=EDGE_LOOP('',(#152));
#154=FACE_BOUND('',#153,.T.);
#155=ADVANCED_FACE('',(#151,#154),#140,.F.);
#156=CARTESIAN_POINT('',(-4.999999999999999,-12.000000000000002,0.0));
#157=DIRECTION('',(0.0,-1.0,0.0));
#158=DIRECTION('',(0.0,0.0,-1.0));
#159=AXIS2_PLACEMENT_3D('',#156,#157,#158);
#160=PLANE('',#159);
#161=CARTESIAN_POINT('',(-5.199999999999998,-12.000000000000002,6.368163E-016));
#162=VERTEX_POINT('',#161);
#163=CARTESIAN_POINT('',(0.0,-12.000000000000002,0.0));
#164=DIRECTION('',(0.0,1.0,0.0));
#165=DIRECTION('',(1.0,0.0,0.0));
#166=AXIS2_PLACEMENT_3D('',#163,#164,#165);
#167=CIRCLE('',#166,5.199999999999998);
#168=EDGE_CURVE('',#162,#162,#167,.T.);
#169=ORIENTED_EDGE('',*,*,#168,.F.);
#170=EDGE_LOOP('',(#169));
#171=FACE_OUTER_BOUND('',#170,.T.);
#172=ORIENTED_EDGE('',*,*,#148,.F.);
#173=EDGE_LOOP('',(#172));
#174=FACE_BOUND('',#173,.T.);
#175=ADVANCED_FACE('',(#171,#174),#160,.T.);
#176=CARTESIAN_POINT('',(0.0,-11.600000000000001,0.0));
#177=DIRECTION('',(0.0,1.0,0.0));
#178=DIRECTION('',(1.0,0.0,0.0));
#179=AXIS2_PLACEMENT_3D('',#176,#177,#178);
#180=CONICAL_SURFACE('',#179,5.599999999999998,45.000000000000007);
#181=ORIENTED_EDGE('',*,*,#168,.T.);
#182=EDGE_LOOP('',(#181));
#183=FACE_OUTER_BOUND('',#182,.T.);
#184=CARTESIAN_POINT('',(-5.999999999999998,-11.200000000000001,-7.347881E-016));
#185=VERTEX_POINT('',#184);
#186=CARTESIAN_POINT('',(0.0,-11.200000000000001,0.0));
#187=DIRECTION('',(0.0,-1.0,0.0));
#188=DIRECTION('',(1.0,0.0,0.0));
#189=AXIS2_PLACEMENT_3D('',#186,#187,#188);
#190=CIRCLE('',#189,5.999999999999998);
#191=EDGE_CURVE('',#185,#185,#190,.T.);
#192=ORIENTED_EDGE('',*,*,#191,.T.);
#193=EDGE_LOOP('',(#192));
#194=FACE_BOUND('',#193,.T.);
#195=ADVANCED_FACE('',(#183,#194),#180,.T.);
#196=CARTESIAN_POINT('',(0.0,0.0,0.0));
#197=DIRECTION('',(0.0,1.0,0.0));
#198=DIRECTION('',(-1.0,0.0,0.0));
#199=AXIS2_PLACEMENT_3D('',#196,#197,#198);
#200=CYLINDRICAL_SURFACE('',#199,5.999999999999998);
#201=CARTESIAN_POINT('',(-5.999999999999998,11.200000000000001,7.347881E-016));
#202=VERTEX_POINT('',#201);
#203=CARTESIAN_POINT('',(0.0,11.200000000000001,0.0));
#204=DIRECTION('',(0.0,1.0,0.0));
#205=DIRECTION('',(1.0,0.0,0.0));
#206=AXIS2_PLACEMENT_3D('',#203,#204,#205);
#207=CIRCLE('',#206,5.999999999999998);
#208=EDGE_CURVE('',#202,#202,#207,.T.);
#209=ORIENTED_EDGE('',*,*,#208,.F.);
#210=EDGE_LOOP('',(#209));
#211=FACE_OUTER_BOUND('',#210,.T.);
#212=ORIENTED_EDGE('',*,*,#191,.F.);
#213=EDGE_LOOP('',(#212));
#214=FACE_BOUND('',#213,.T.);
#215=ADVANCED_FACE('',(#211,#214),#200,.T.);
#216=CARTESIAN_POINT('',(0.0,-25.600000000000005,0.0));
#217=DIRECTION('',(0.0,1.0,0.0));
#218=DIRECTION('',(1.0,0.0,0.0));
#219=AXIS2_PLACEMENT_3D('',#216,#217,#218);
#220=CONICAL_SURFACE('',#219,3.599999999999999,45.000000000000021);
#221=CARTESIAN_POINT('',(-3.199999999999998,-26.000000000000007,3.918870E-016));
#222=VERTEX_POINT('',#221);
#223=CARTESIAN_POINT('',(0.0,-26.000000000000007,0.0));
#224=DIRECTION('',(0.0,1.0,0.0));
#225=DIRECTION('',(1.0,0.0,0.0));
#226=AXIS2_PLACEMENT_3D('',#223,#224,#225);
#227=CIRCLE('',#226,3.199999999999998);
#228=EDGE_CURVE('',#222,#222,#227,.T.);
#229=ORIENTED_EDGE('',*,*,#228,.T.);
#230=EDGE_LOOP('',(#229));
#231=FACE_OUTER_BOUND('',#230,.T.);
#232=CARTESIAN_POINT('',(-3.999999999999999,-25.200000000000003,-4.898587E-016));
#233=VERTEX_POINT('',#232);
#234=CARTESIAN_POINT('',(0.0,-25.200000000000003,0.0));
#235=DIRECTION('',(0.0,-1.0,0.0));
#236=DIRECTION('',(1.0,0.0,0.0));
#237=AXIS2_PLACEMENT_3D('',#234,#235,#236);
#238=CIRCLE('',#237,3.999999999999999);
#239=EDGE_CURVE('',#233,#233,#238,.T.);
#240=ORIENTED_EDGE('',*,*,#239,.T.);
#241=EDGE_LOOP('',(#240));
#242=FACE_BOUND('',#241,.T.);
#243=ADVANCED_FACE('',(#231,#242),#220,.T.);
#244=CARTESIAN_POINT('',(-1.999999999999998,-26.000000000000007,0.0));
#245=DIRECTION('',(0.0,-1.0,0.0));
#246=DIRECTION('',(0.0,0.0,-1.0));
#247=AXIS2_PLACEMENT_3D('',#244,#245,#246);
#248=PLANE('',#247);
#249=ORIENTED_EDGE('',*,*,#228,.F.);
#250=EDGE_LOOP('',(#249));
#251=FACE_OUTER_BOUND('',#250,.T.);
#252=ADVANCED_FACE('',(#251),#248,.T.);
#253=CARTESIAN_POINT('',(0.0,-19.000000000000004,0.0));
#254=DIRECTION('',(0.0,1.0,0.0));
#255=DIRECTION('',(-1.0,0.0,0.0));
#256=AXIS2_PLACEMENT_3D('',#253,#254,#255);
#257=CYLINDRICAL_SURFACE('',#256,3.999999999999999);
#258=ORIENTED_EDGE('',*,*,#128,.T.);
#259=EDGE_LOOP('',(#258));
#260=FACE_OUTER_BOUND('',#259,.T.);
#261=ORIENTED_EDGE('',*,*,#239,.F.);
#262=EDGE_LOOP('',(#261));
#263=FACE_BOUND('',#262,.T.);
#264=ADVANCED_FACE('',(#260,#263),#257,.T.);
#265=CARTESIAN_POINT('',(0.0,11.600000000000001,0.0));
#266=DIRECTION('',(0.0,-1.0,0.0));
#267=DIRECTION('',(1.0,0.0,0.0));
#268=AXIS2_PLACEMENT_3D('',#265,#266,#267);
#269=CONICAL_SURFACE('',#268,5.599999999999998,45.000000000000007);
#270=ORIENTED_EDGE('',*,*,#208,.T.);
#271=EDGE_LOOP('',(#270));
#272=FACE_OUTER_BOUND('',#271,.T.);
#273=CARTESIAN_POINT('',(-5.199999999999998,12.000000000000002,-6.368163E-016));
#274=VERTEX_POINT('',#273);
#275=CARTESIAN_POINT('',(0.0,12.000000000000002,0.0));
#276=DIRECTION('',(0.0,-1.0,0.0));
#277=DIRECTION('',(1.0,0.0,0.0));
#278=AXIS2_PLACEMENT_3D('',#275,#276,#277);
#279=CIRCLE('',#278,5.199999999999998);
#280=EDGE_CURVE('',#274,#274,#279,.T.);
#281=ORIENTED_EDGE('',*,*,#280,.T.);
#282=EDGE_LOOP('',(#281));
#283=FACE_BOUND('',#282,.T.);
#284=ADVANCED_FACE('',(#272,#283),#269,.T.);
#285=CARTESIAN_POINT('',(-3.0,12.000000000000002,0.0));
#286=DIRECTION('',(0.0,1.0,0.0));
#287=DIRECTION('',(0.0,0.0,1.0));
#288=AXIS2_PLACEMENT_3D('',#285,#286,#287);
#289=PLANE('',#288);
#290=ORIENTED_EDGE('',*,*,#280,.F.);
#291=EDGE_LOOP('',(#290));
#292=FACE_OUTER_BOUND('',#291,.T.);
#293=ADVANCED_FACE('',(#292),#289,.T.);
#294=CLOSED_SHELL('',(#95,#115,#135,#155,#175,#195,#215,#243,#252,#264,#284,#293));
#295=MANIFOLD_SOLID_BREP('Solido1',#294);
#296=DRAUGHTING_PRE_DEFINED_COLOUR('white');
#297=FILL_AREA_STYLE_COLOUR('Cromo',#296);
#298=FILL_AREA_STYLE('Cromo',(#297));
#299=SURFACE_STYLE_FILL_AREA(#298);
#300=SURFACE_SIDE_STYLE('Cromo',(#299));
#301=SURFACE_STYLE_USAGE(.BOTH.,#300);
#302=PRESENTATION_STYLE_ASSIGNMENT((#301));
#303=STYLED_ITEM('',(#302),#295);
#304=MECHANICAL_DESIGN_GEOMETRIC_PRESENTATION_REPRESENTATION('',(#303),#36);
#305=ADVANCED_BREP_SHAPE_REPRESENTATION('ABSR',(#295),#36);
#306=SHAPE_REPRESENTATION_RELATIONSHIP('SRR','None',#305,#41);
ENDSEC;
END-ISO-10303-21;
