ISO-10303-21;
HEADER;
/****************************************************************
 * Generated by software with PDElib inside                    *
 * PDElib Version v51a, created Tue 11/30/2010                  *
 * ITI Transcendata (http://www.transcendata.com/)              *
 ****************************************************************/
FILE_DESCRIPTION((''),'2;1');
FILE_NAME('T:\\Archivio Inventor\\- FISSAGGI NUOVI\\- SSFI\\SSFI08x1.25\\SSFI08x1.25.stp','2013-12-04T15:58:27',('carlo.corazza'),(''),'Autodesk Inventor 2012','Autodesk Inventor 2012','');
FILE_SCHEMA(('AUTOMOTIVE_DESIGN { 1 0 10303 214 1 1 1 1 }'));
ENDSEC;
DATA;
#5=APPLICATION_CONTEXT('automotive design');
#6=APPLICATION_PROTOCOL_DEFINITION('International Standard','automotive_design',2001,#5);
#7=PRODUCT_CONTEXT('',#5,'mechanical');
#8=PRODUCT('SSFI08x1.25','SSFI08x1.25',$,(#7));
#9=PRODUCT_RELATED_PRODUCT_CATEGORY('part',$,(#8));
#10=PRODUCT_DEFINITION_FORMATION('',$,#8);
#11=PRODUCT_DEFINITION_CONTEXT('part definition',#5,'design');
#12=PRODUCT_DEFINITION('',$,#10,#11);
#18=(NAMED_UNIT(*)PLANE_ANGLE_UNIT()SI_UNIT($,.RADIAN.));
#19=DIMENSIONAL_EXPONENTS(0.0,0.0,0.0,0.0,0.0,0.0,0.0);
#20=PLANE_ANGLE_MEASURE_WITH_UNIT(PLANE_ANGLE_MEASURE(0.0174532925),#18);
#24=(CONVERSION_BASED_UNIT('DEGREE',#20)NAMED_UNIT(#19)PLANE_ANGLE_UNIT());
#28=(NAMED_UNIT(*)SI_UNIT($,.STERADIAN.)SOLID_ANGLE_UNIT());
#32=(LENGTH_UNIT()NAMED_UNIT(*)SI_UNIT(.MILLI.,.METRE.));
#34=UNCERTAINTY_MEASURE_WITH_UNIT(LENGTH_MEASURE(0.01),#32,'DISTANCE_ACCURACY_VALUE','');
#36=(GEOMETRIC_REPRESENTATION_CONTEXT(3)GLOBAL_UNCERTAINTY_ASSIGNED_CONTEXT((#34))GLOBAL_UNIT_ASSIGNED_CONTEXT((#24,#28,#32))REPRESENTATION_CONTEXT('None','None'));
#37=AXIS2_PLACEMENT_3D('',#38,#39,#40);
#38=CARTESIAN_POINT('',(0.0,0.0,0.0));
#39=DIRECTION('',(0.0,0.0,1.0));
#40=DIRECTION('',(1.0,0.0,0.0));
#41=SHAPE_REPRESENTATION('',(#37),#36);
#42=PRODUCT_DEFINITION_SHAPE('','',#12);
#43=SHAPE_DEFINITION_REPRESENTATION(#42,#41);
#49=(NAMED_UNIT(*)PLANE_ANGLE_UNIT()SI_UNIT($,.RADIAN.));
#50=DIMENSIONAL_EXPONENTS(0.0,0.0,0.0,0.0,0.0,0.0,0.0);
#51=PLANE_ANGLE_MEASURE_WITH_UNIT(PLANE_ANGLE_MEASURE(0.0174532925),#49);
#55=(CONVERSION_BASED_UNIT('DEGREE',#51)NAMED_UNIT(#50)PLANE_ANGLE_UNIT());
#59=(NAMED_UNIT(*)SI_UNIT($,.STERADIAN.)SOLID_ANGLE_UNIT());
#63=(LENGTH_UNIT()NAMED_UNIT(*)SI_UNIT(.MILLI.,.METRE.));
#65=UNCERTAINTY_MEASURE_WITH_UNIT(LENGTH_MEASURE(0.000001),#63,'DISTANCE_ACCURACY_VALUE','');
#67=(GEOMETRIC_REPRESENTATION_CONTEXT(3)GLOBAL_UNCERTAINTY_ASSIGNED_CONTEXT((#65))GLOBAL_UNIT_ASSIGNED_CONTEXT((#55,#59,#63))REPRESENTATION_CONTEXT('','3D'));
#68=CARTESIAN_POINT('',(6.000000000000001,24.000000000000004,-49.0));
#69=DIRECTION('',(1.0,0.0,0.0));
#70=DIRECTION('',(0.0,0.0,-1.0));
#71=AXIS2_PLACEMENT_3D('',#68,#69,#70);
#72=PLANE('',#71);
#73=CARTESIAN_POINT('',(6.000000000000001,0.0,-41.192708830658603));
#74=VERTEX_POINT('',#73);
#75=CARTESIAN_POINT('',(6.000000000000001,0.0,-36.0));
#76=DIRECTION('',(1.0,0.0,0.0));
#77=DIRECTION('',(0.0,0.0,-1.0));
#78=AXIS2_PLACEMENT_3D('',#75,#76,#77);
#79=CIRCLE('',#78,5.19270883065861);
#80=EDGE_CURVE('',#74,#74,#79,.F.);
#81=ORIENTED_EDGE('',*,*,#80,.F.);
#82=EDGE_LOOP('',(#81));
#83=FACE_OUTER_BOUND('',#82,.T.);
#84=CARTESIAN_POINT('',(6.000000000000001,0.0,-40.0));
#85=VERTEX_POINT('',#84);
#86=CARTESIAN_POINT('',(6.000000000000001,0.0,-36.0));
#87=DIRECTION('',(1.0,0.0,0.0));
#88=DIRECTION('',(0.0,0.0,-1.0));
#89=AXIS2_PLACEMENT_3D('',#86,#87,#88);
#90=CIRCLE('',#89,4.0);
#91=EDGE_CURVE('',#85,#85,#90,.F.);
#92=ORIENTED_EDGE('',*,*,#91,.T.);
#93=EDGE_LOOP('',(#92));
#94=FACE_BOUND('',#93,.T.);
#95=ADVANCED_FACE('',(#83,#94),#72,.T.);
#96=CARTESIAN_POINT('',(-5.204170E-015,0.0,-36.0));
#97=DIRECTION('',(0.0,0.0,1.0));
#98=DIRECTION('',(1.0,0.0,0.0));
#99=AXIS2_PLACEMENT_3D('',#96,#97,#98);
#100=SPHERICAL_SURFACE('',#99,12.000000000000002);
#101=CARTESIAN_POINT('',(-4.5,-9.294716033775551,-29.887860125007304));
#102=VERTEX_POINT('',#101);
#103=CARTESIAN_POINT('',(4.5,-9.29471603377554,-29.887860125007304));
#104=VERTEX_POINT('',#103);
#105=CARTESIAN_POINT('',(2.681135E-015,0.0,-29.887860125007304));
#106=DIRECTION('',(0.0,0.0,1.0));
#107=DIRECTION('',(1.0,0.0,0.0));
#108=AXIS2_PLACEMENT_3D('',#105,#106,#107);
#109=CIRCLE('',#108,10.326749060015199);
#110=EDGE_CURVE('',#102,#104,#109,.T.);
#111=ORIENTED_EDGE('',*,*,#110,.F.);
#112=CARTESIAN_POINT('',(-4.5,9.29471603377554,-29.887860125007304));
#113=VERTEX_POINT('',#112);
#114=CARTESIAN_POINT('',(-4.5,0.0,-36.0));
#115=DIRECTION('',(-1.0,0.0,0.0));
#116=DIRECTION('',(0.0,0.0,1.0));
#117=AXIS2_PLACEMENT_3D('',#114,#115,#116);
#118=CIRCLE('',#117,11.1242977306435);
#119=EDGE_CURVE('',#102,#113,#118,.F.);
#120=ORIENTED_EDGE('',*,*,#119,.T.);
#121=CARTESIAN_POINT('',(4.5,9.294716033775551,-29.887860125007304));
#122=VERTEX_POINT('',#121);
#123=CARTESIAN_POINT('',(2.681135E-015,0.0,-29.887860125007304));
#124=DIRECTION('',(0.0,0.0,1.0));
#125=DIRECTION('',(1.0,0.0,0.0));
#126=AXIS2_PLACEMENT_3D('',#123,#124,#125);
#127=CIRCLE('',#126,10.326749060015199);
#128=EDGE_CURVE('',#122,#113,#127,.T.);
#129=ORIENTED_EDGE('',*,*,#128,.F.);
#130=CARTESIAN_POINT('',(4.5,0.0,-36.0));
#131=DIRECTION('',(1.0,0.0,0.0));
#132=DIRECTION('',(0.0,0.0,-1.0));
#133=AXIS2_PLACEMENT_3D('',#130,#131,#132);
#134=CIRCLE('',#133,11.1242977306435);
#135=EDGE_CURVE('',#122,#104,#134,.F.);
#136=ORIENTED_EDGE('',*,*,#135,.T.);
#137=EDGE_LOOP('',(#111,#120,#129,#136));
#138=FACE_OUTER_BOUND('',#137,.T.);
#139=ADVANCED_FACE('',(#138),#100,.T.);
#140=CARTESIAN_POINT('',(7.000000000000001,24.000000000000004,-18.669872981077798));
#141=DIRECTION('',(1.0,0.0,0.0));
#142=DIRECTION('',(0.0,0.0,-1.0));
#143=AXIS2_PLACEMENT_3D('',#140,#141,#142);
#144=PLANE('',#143);
#145=CARTESIAN_POINT('',(7.000000000000001,3.8729833462074,-5.0));
#146=VERTEX_POINT('',#145);
#147=CARTESIAN_POINT('',(7.000000000000001,3.8729833462074,0.0));
#148=VERTEX_POINT('',#147);
#149=CARTESIAN_POINT('',(7.000000000000001,3.8729833462074,-5.0));
#150=DIRECTION('',(0.0,0.0,1.0));
#151=VECTOR('',#150,5.0);
#152=LINE('',#149,#151);
#153=EDGE_CURVE('',#146,#148,#152,.T.);
#154=ORIENTED_EDGE('',*,*,#153,.T.);
#155=CARTESIAN_POINT('',(7.000000000000001,-3.8729833462074,1.480297E-016));
#156=VERTEX_POINT('',#155);
#157=CARTESIAN_POINT('',(7.000000000000001,3.8729833462074,0.0));
#158=DIRECTION('',(0.0,-1.0,0.0));
#159=VECTOR('',#158,7.745966692414799);
#160=LINE('',#157,#159);
#161=EDGE_CURVE('',#148,#156,#160,.T.);
#162=ORIENTED_EDGE('',*,*,#161,.T.);
#163=CARTESIAN_POINT('',(7.000000000000001,-3.8729833462074,-5.0));
#164=VERTEX_POINT('',#163);
#165=CARTESIAN_POINT('',(7.000000000000001,-3.8729833462074,-5.0));
#166=DIRECTION('',(0.0,0.0,1.0));
#167=VECTOR('',#166,5.0);
#168=LINE('',#165,#167);
#169=EDGE_CURVE('',#156,#164,#168,.F.);
#170=ORIENTED_EDGE('',*,*,#169,.T.);
#171=CARTESIAN_POINT('',(7.000000000000001,-3.8729833462074,-5.0));
#172=DIRECTION('',(0.0,1.0,0.0));
#173=VECTOR('',#172,7.7459666924148);
#174=LINE('',#171,#173);
#175=EDGE_CURVE('',#164,#146,#174,.T.);
#176=ORIENTED_EDGE('',*,*,#175,.T.);
#177=EDGE_LOOP('',(#154,#162,#170,#176));
#178=FACE_OUTER_BOUND('',#177,.T.);
#179=ADVANCED_FACE('',(#178),#144,.T.);
#180=CARTESIAN_POINT('',(7.99999999999999,0.0,-5.921189E-016));
#181=DIRECTION('',(0.0,0.0,-1.0));
#182=DIRECTION('',(-1.0,0.0,0.0));
#183=AXIS2_PLACEMENT_3D('',#180,#181,#182);
#184=PLANE('',#183);
#185=CARTESIAN_POINT('',(-7.000000000000001,3.872983346207381,2.220446E-015));
#186=VERTEX_POINT('',#185);
#187=CARTESIAN_POINT('',(-7.000000000000001,-3.872983346207381,0.0));
#188=VERTEX_POINT('',#187);
#189=CARTESIAN_POINT('',(-7.000000000000001,3.872983346207381,0.0));
#190=DIRECTION('',(0.0,-1.0,0.0));
#191=VECTOR('',#190,7.745966692414762);
#192=LINE('',#189,#191);
#193=EDGE_CURVE('',#186,#188,#192,.T.);
#194=ORIENTED_EDGE('',*,*,#193,.T.);
#195=CARTESIAN_POINT('',(7.105427E-015,0.0,1.184238E-015));
#196=DIRECTION('',(0.0,0.0,1.0));
#197=DIRECTION('',(1.0,0.0,0.0));
#198=AXIS2_PLACEMENT_3D('',#195,#196,#197);
#199=CIRCLE('',#198,7.99999999999999);
#200=EDGE_CURVE('',#188,#156,#199,.T.);
#201=ORIENTED_EDGE('',*,*,#200,.T.);
#202=ORIENTED_EDGE('',*,*,#161,.F.);
#203=CARTESIAN_POINT('',(7.105427E-015,0.0,1.184238E-015));
#204=DIRECTION('',(0.0,0.0,1.0));
#205=DIRECTION('',(1.0,0.0,0.0));
#206=AXIS2_PLACEMENT_3D('',#203,#204,#205);
#207=CIRCLE('',#206,7.99999999999999);
#208=EDGE_CURVE('',#148,#186,#207,.T.);
#209=ORIENTED_EDGE('',*,*,#208,.T.);
#210=EDGE_LOOP('',(#194,#201,#202,#209));
#211=FACE_OUTER_BOUND('',#210,.T.);
#212=CARTESIAN_POINT('',(-4.0,0.0,1.184238E-015));
#213=VERTEX_POINT('',#212);
#214=CARTESIAN_POINT('',(-5.921189E-016,0.0,5.921189E-016));
#215=DIRECTION('',(0.0,0.0,-1.0));
#216=DIRECTION('',(-1.0,0.0,0.0));
#217=AXIS2_PLACEMENT_3D('',#214,#215,#216);
#218=CIRCLE('',#217,4.0);
#219=EDGE_CURVE('',#213,#213,#218,.F.);
#220=ORIENTED_EDGE('',*,*,#219,.F.);
#221=EDGE_LOOP('',(#220));
#222=FACE_BOUND('',#221,.T.);
#223=ADVANCED_FACE('',(#211,#222),#184,.F.);
#224=CARTESIAN_POINT('',(7.105427E-015,0.0,0.0));
#225=DIRECTION('',(0.0,0.0,-1.0));
#226=DIRECTION('',(1.0,0.0,0.0));
#227=AXIS2_PLACEMENT_3D('',#224,#225,#226);
#228=CYLINDRICAL_SURFACE('',#227,7.99999999999999);
#229=CARTESIAN_POINT('',(-7.000000000000001,3.872983346207381,-5.0));
#230=VERTEX_POINT('',#229);
#231=CARTESIAN_POINT('',(-7.000000000000001,3.872983346207381,-5.0));
#232=DIRECTION('',(0.0,0.0,1.0));
#233=VECTOR('',#232,5.000000000000002);
#234=LINE('',#231,#233);
#235=EDGE_CURVE('',#186,#230,#234,.F.);
#236=ORIENTED_EDGE('',*,*,#235,.F.);
#237=ORIENTED_EDGE('',*,*,#208,.F.);
#238=ORIENTED_EDGE('',*,*,#153,.F.);
#239=CARTESIAN_POINT('',(6.365279E-015,0.0,-5.0));
#240=DIRECTION('',(0.0,0.0,1.0));
#241=DIRECTION('',(1.0,0.0,0.0));
#242=AXIS2_PLACEMENT_3D('',#239,#240,#241);
#243=CIRCLE('',#242,7.99999999999999);
#244=EDGE_CURVE('',#146,#230,#243,.T.);
#245=ORIENTED_EDGE('',*,*,#244,.T.);
#246=EDGE_LOOP('',(#236,#237,#238,#245));
#247=FACE_OUTER_BOUND('',#246,.T.);
#248=ADVANCED_FACE('',(#247),#228,.T.);
#249=CARTESIAN_POINT('',(2.681135E-015,0.0,-29.887860125007304));
#250=DIRECTION('',(0.0,0.0,-1.0));
#251=DIRECTION('',(-1.0,0.0,0.0));
#252=AXIS2_PLACEMENT_3D('',#249,#250,#251);
#253=CONICAL_SURFACE('',#252,10.326749060015199,30.620209672028192);
#254=CARTESIAN_POINT('',(-4.50000000000001,-4.337337893224349,-23.000000000000004));
#255=VERTEX_POINT('',#254);
#256=CARTESIAN_POINT('',(-4.500000000000001,-20.635470853031265,-48.124297730643505));
#257=CARTESIAN_POINT('',(-4.500000000000001,-7.065338549148764,-25.723370125416441));
#258=CARTESIAN_POINT('',(-4.5,-3.429924735801917,-22.0));
#266=(BOUNDED_CURVE()B_SPLINE_CURVE(2,(#256,#257,#258),.UNSPECIFIED.,.F.,.U.)B_SPLINE_CURVE_WITH_KNOTS((3,3),(0.0,3.130453919336731),.UNSPECIFIED.)CURVE()GEOMETRIC_REPRESENTATION_ITEM()RATIONAL_B_SPLINE_CURVE((1.0,1.305013535967163,1.0))REPRESENTATION_ITEM(''));
#267=EDGE_CURVE('',#102,#255,#266,.T.);
#268=ORIENTED_EDGE('',*,*,#267,.F.);
#269=ORIENTED_EDGE('',*,*,#110,.T.);
#270=CARTESIAN_POINT('',(4.5,-4.337337893224371,-23.000000000000004));
#271=VERTEX_POINT('',#270);
#272=CARTESIAN_POINT('',(4.500000000000001,-3.429924735801894,-21.999999999999972));
#273=CARTESIAN_POINT('',(4.5,-7.065338549148693,-25.723370125416341));
#274=CARTESIAN_POINT('',(4.5,-20.635470853031261,-48.124297730643505));
#282=(BOUNDED_CURVE()B_SPLINE_CURVE(2,(#272,#273,#274),.UNSPECIFIED.,.F.,.U.)B_SPLINE_CURVE_WITH_KNOTS((3,3),(0.0,3.130453919336735),.UNSPECIFIED.)CURVE()GEOMETRIC_REPRESENTATION_ITEM()RATIONAL_B_SPLINE_CURVE((1.0,1.305013535967208,1.0))REPRESENTATION_ITEM(''));
#283=EDGE_CURVE('',#271,#104,#282,.T.);
#284=ORIENTED_EDGE('',*,*,#283,.F.);
#285=CARTESIAN_POINT('',(3.700743E-015,0.0,-23.000000000000004));
#286=DIRECTION('',(0.0,0.0,1.0));
#287=DIRECTION('',(1.0,0.0,0.0));
#288=AXIS2_PLACEMENT_3D('',#285,#286,#287);
#289=CIRCLE('',#288,6.25);
#290=EDGE_CURVE('',#255,#271,#289,.T.);
#291=ORIENTED_EDGE('',*,*,#290,.F.);
#292=EDGE_LOOP('',(#268,#269,#284,#291));
#293=FACE_OUTER_BOUND('',#292,.T.);
#294=ADVANCED_FACE('',(#293),#253,.T.);
#295=CARTESIAN_POINT('',(4.5,24.000000000000004,-49.0));
#296=DIRECTION('',(1.0,0.0,0.0));
#297=DIRECTION('',(0.0,0.0,-1.0));
#298=AXIS2_PLACEMENT_3D('',#295,#296,#297);
#299=PLANE('',#298);
#300=CARTESIAN_POINT('',(4.5,4.337337893224371,-23.000000000000004));
#301=VERTEX_POINT('',#300);
#302=CARTESIAN_POINT('',(4.5,20.635470853031261,-48.124297730643505));
#303=CARTESIAN_POINT('',(4.5,7.065338549035857,-25.72337012523009));
#304=CARTESIAN_POINT('',(4.500000000000001,3.429924735698952,-21.999999999894541));
#312=(BOUNDED_CURVE()B_SPLINE_CURVE(2,(#302,#303,#304),.UNSPECIFIED.,.F.,.U.)B_SPLINE_CURVE_WITH_KNOTS((3,3),(0.0,3.130453919351362),.UNSPECIFIED.)CURVE()GEOMETRIC_REPRESENTATION_ITEM()RATIONAL_B_SPLINE_CURVE((1.0,1.305013535974837,1.0))REPRESENTATION_ITEM(''));
#313=EDGE_CURVE('',#122,#301,#312,.T.);
#314=ORIENTED_EDGE('',*,*,#313,.T.);
#315=CARTESIAN_POINT('',(4.5,4.337337893224371,-23.000000000000004));
#316=DIRECTION('',(0.0,-1.0,0.0));
#317=VECTOR('',#316,8.674675786448743);
#318=LINE('',#315,#317);
#319=EDGE_CURVE('',#301,#271,#318,.T.);
#320=ORIENTED_EDGE('',*,*,#319,.T.);
#321=ORIENTED_EDGE('',*,*,#283,.T.);
#322=ORIENTED_EDGE('',*,*,#135,.F.);
#323=EDGE_LOOP('',(#314,#320,#321,#322));
#324=FACE_OUTER_BOUND('',#323,.T.);
#325=CARTESIAN_POINT('',(4.5,0.0,-42.5356120600905));
#326=VERTEX_POINT('',#325);
#327=CARTESIAN_POINT('',(4.5,0.0,-36.0));
#328=DIRECTION('',(1.0,0.0,0.0));
#329=DIRECTION('',(0.0,0.0,-1.0));
#330=AXIS2_PLACEMENT_3D('',#327,#328,#329);
#331=CIRCLE('',#330,6.53561206009047);
#332=EDGE_CURVE('',#326,#326,#331,.T.);
#333=ORIENTED_EDGE('',*,*,#332,.F.);
#334=EDGE_LOOP('',(#333));
#335=FACE_BOUND('',#334,.T.);
#336=ADVANCED_FACE('',(#324,#335),#299,.T.);
#337=CARTESIAN_POINT('',(-4.5,24.000000000000004,-23.000000000000004));
#338=DIRECTION('',(-1.0,0.0,0.0));
#339=DIRECTION('',(0.0,0.0,1.0));
#340=AXIS2_PLACEMENT_3D('',#337,#338,#339);
#341=PLANE('',#340);
#342=ORIENTED_EDGE('',*,*,#267,.T.);
#343=CARTESIAN_POINT('',(-4.5,4.33733789322436,-23.000000000000004));
#344=VERTEX_POINT('',#343);
#345=CARTESIAN_POINT('',(-4.5,4.33733789322436,-23.000000000000004));
#346=DIRECTION('',(0.0,-1.0,0.0));
#347=VECTOR('',#346,8.674675786448709);
#348=LINE('',#345,#347);
#349=EDGE_CURVE('',#344,#255,#348,.T.);
#350=ORIENTED_EDGE('',*,*,#349,.F.);
#351=CARTESIAN_POINT('',(-4.500000000000001,3.429924735698946,-21.999999999894541));
#352=CARTESIAN_POINT('',(-4.500000000000001,7.065338549035908,-25.723370125230151));
#353=CARTESIAN_POINT('',(-4.500000000000001,20.635470853031265,-48.124297730643505));
#361=(BOUNDED_CURVE()B_SPLINE_CURVE(2,(#351,#352,#353),.UNSPECIFIED.,.F.,.U.)B_SPLINE_CURVE_WITH_KNOTS((3,3),(0.0,3.130453919351362),.UNSPECIFIED.)CURVE()GEOMETRIC_REPRESENTATION_ITEM()RATIONAL_B_SPLINE_CURVE((1.0,1.305013535974797,1.0))REPRESENTATION_ITEM(''));
#362=EDGE_CURVE('',#344,#113,#361,.T.);
#363=ORIENTED_EDGE('',*,*,#362,.T.);
#364=ORIENTED_EDGE('',*,*,#119,.F.);
#365=EDGE_LOOP('',(#342,#350,#363,#364));
#366=FACE_OUTER_BOUND('',#365,.T.);
#367=CARTESIAN_POINT('',(-4.5,0.0,-29.4643879399095));
#368=VERTEX_POINT('',#367);
#369=CARTESIAN_POINT('',(-4.5,0.0,-36.0));
#370=DIRECTION('',(-1.0,0.0,0.0));
#371=DIRECTION('',(0.0,0.0,1.0));
#372=AXIS2_PLACEMENT_3D('',#369,#370,#371);
#373=CIRCLE('',#372,6.53561206009047);
#374=EDGE_CURVE('',#368,#368,#373,.T.);
#375=ORIENTED_EDGE('',*,*,#374,.F.);
#376=EDGE_LOOP('',(#375));
#377=FACE_BOUND('',#376,.T.);
#378=ADVANCED_FACE('',(#366,#377),#341,.T.);
#379=CARTESIAN_POINT('',(0.0,0.0,-36.0));
#380=DIRECTION('',(0.0,0.0,1.0));
#381=DIRECTION('',(1.0,0.0,0.0));
#382=AXIS2_PLACEMENT_3D('',#379,#380,#381);
#383=SPHERICAL_SURFACE('',#382,7.935);
#384=ORIENTED_EDGE('',*,*,#332,.T.);
#385=EDGE_LOOP('',(#384));
#386=FACE_OUTER_BOUND('',#385,.T.);
#387=ORIENTED_EDGE('',*,*,#80,.T.);
#388=EDGE_LOOP('',(#387));
#389=FACE_BOUND('',#388,.T.);
#390=ADVANCED_FACE('',(#386,#389),#383,.T.);
#391=CARTESIAN_POINT('',(4.5,24.000000000000004,-23.000000000000004));
#392=DIRECTION('',(0.866025403784439,0.0,-0.5));
#393=DIRECTION('',(-0.5,0.0,-0.866025403784439));
#394=AXIS2_PLACEMENT_3D('',#391,#392,#393);
#395=PLANE('',#394);
#396=CARTESIAN_POINT('',(2.546966E-015,0.0,-30.794228634059905));
#397=DIRECTION('',(0.866025403784439,0.0,-0.5));
#398=DIRECTION('',(0.5,0.0,0.866025403784439));
#399=AXIS2_PLACEMENT_3D('',#396,#397,#398);
#400=ELLIPSE('',#399,12.5,6.250000000000002);
#401=EDGE_CURVE('',#301,#271,#400,.T.);
#402=ORIENTED_EDGE('',*,*,#401,.T.);
#403=ORIENTED_EDGE('',*,*,#319,.F.);
#404=EDGE_LOOP('',(#402,#403));
#405=FACE_OUTER_BOUND('',#404,.T.);
#406=ADVANCED_FACE('',(#405),#395,.T.);
#407=CARTESIAN_POINT('',(-7.000000000000001,24.000000000000004,-18.669872981077798));
#408=DIRECTION('',(-0.866025403784439,0.0,-0.499999999999999));
#409=DIRECTION('',(-0.499999999999999,0.0,0.866025403784439));
#410=AXIS2_PLACEMENT_3D('',#407,#408,#409);
#411=PLANE('',#410);
#412=CARTESIAN_POINT('',(2.546966E-015,0.0,-30.794228634060001));
#413=DIRECTION('',(-0.866025403784439,0.0,-0.499999999999999));
#414=DIRECTION('',(-0.499999999999999,0.0,0.866025403784439));
#415=AXIS2_PLACEMENT_3D('',#412,#413,#414);
#416=ELLIPSE('',#415,12.500000000000004,6.250000000000003);
#417=EDGE_CURVE('',#255,#344,#416,.T.);
#418=ORIENTED_EDGE('',*,*,#417,.T.);
#419=ORIENTED_EDGE('',*,*,#349,.T.);
#420=EDGE_LOOP('',(#418,#419));
#421=FACE_OUTER_BOUND('',#420,.T.);
#422=ADVANCED_FACE('',(#421),#411,.T.);
#423=CARTESIAN_POINT('',(24.000000000000004,0.0,-36.0));
#424=DIRECTION('',(1.0,0.0,0.0));
#425=DIRECTION('',(0.0,0.0,1.0));
#426=AXIS2_PLACEMENT_3D('',#423,#424,#425);
#427=CYLINDRICAL_SURFACE('',#426,4.0);
#428=ORIENTED_EDGE('',*,*,#91,.F.);
#429=EDGE_LOOP('',(#428));
#430=FACE_OUTER_BOUND('',#429,.T.);
#431=CARTESIAN_POINT('',(-6.000000000000001,0.0,-32.0));
#432=VERTEX_POINT('',#431);
#433=CARTESIAN_POINT('',(-6.000000000000001,0.0,-36.0));
#434=DIRECTION('',(-1.0,0.0,0.0));
#435=DIRECTION('',(0.0,0.0,1.0));
#436=AXIS2_PLACEMENT_3D('',#433,#434,#435);
#437=CIRCLE('',#436,4.0);
#438=EDGE_CURVE('',#432,#432,#437,.F.);
#439=ORIENTED_EDGE('',*,*,#438,.F.);
#440=EDGE_LOOP('',(#439));
#441=FACE_BOUND('',#440,.T.);
#442=ADVANCED_FACE('',(#430,#441),#427,.F.);
#443=CARTESIAN_POINT('',(-7.000000000000001,24.000000000000004,0.0));
#444=DIRECTION('',(-1.0,0.0,0.0));
#445=DIRECTION('',(0.0,0.0,1.0));
#446=AXIS2_PLACEMENT_3D('',#443,#444,#445);
#447=PLANE('',#446);
#448=CARTESIAN_POINT('',(-7.000000000000001,-3.872983346207381,-5.0));
#449=VERTEX_POINT('',#448);
#450=CARTESIAN_POINT('',(-7.000000000000001,-3.872983346207381,-5.0));
#451=DIRECTION('',(0.0,0.0,1.0));
#452=VECTOR('',#451,5.0);
#453=LINE('',#450,#452);
#454=EDGE_CURVE('',#449,#188,#453,.T.);
#455=ORIENTED_EDGE('',*,*,#454,.T.);
#456=ORIENTED_EDGE('',*,*,#193,.F.);
#457=ORIENTED_EDGE('',*,*,#235,.T.);
#458=CARTESIAN_POINT('',(-7.000000000000001,3.872983346207381,-5.0));
#459=DIRECTION('',(0.0,-1.0,0.0));
#460=VECTOR('',#459,7.745966692414763);
#461=LINE('',#458,#460);
#462=EDGE_CURVE('',#230,#449,#461,.T.);
#463=ORIENTED_EDGE('',*,*,#462,.T.);
#464=EDGE_LOOP('',(#455,#456,#457,#463));
#465=FACE_OUTER_BOUND('',#464,.T.);
#466=ADVANCED_FACE('',(#465),#447,.T.);
#467=CARTESIAN_POINT('',(0.0,0.0,-17.281176380348306));
#468=DIRECTION('',(0.0,0.0,1.0));
#469=DIRECTION('',(1.0,0.0,0.0));
#470=AXIS2_PLACEMENT_3D('',#467,#468,#469);
#471=CONICAL_SURFACE('',#470,3.3235,60.000000000000121);
#472=CARTESIAN_POINT('',(-3.3235,0.0,-17.281176380348306));
#473=VERTEX_POINT('',#472);
#474=CARTESIAN_POINT('',(0.0,0.0,-17.281176380348306));
#475=DIRECTION('',(0.0,0.0,-1.0));
#476=DIRECTION('',(-1.0,0.0,0.0));
#477=AXIS2_PLACEMENT_3D('',#474,#475,#476);
#478=CIRCLE('',#477,3.3235);
#479=EDGE_CURVE('',#473,#473,#478,.T.);
#480=ORIENTED_EDGE('',*,*,#479,.F.);
#481=EDGE_LOOP('',(#480));
#482=FACE_OUTER_BOUND('',#481,.T.);
#483=ADVANCED_FACE('',(#482),#471,.F.);
#484=CARTESIAN_POINT('',(0.0,0.0,-19.199999999999999));
#485=DIRECTION('',(0.0,0.0,1.0));
#486=DIRECTION('',(-1.0,0.0,0.0));
#487=AXIS2_PLACEMENT_3D('',#484,#485,#486);
#488=CYLINDRICAL_SURFACE('',#487,3.3235);
#489=ORIENTED_EDGE('',*,*,#479,.T.);
#490=EDGE_LOOP('',(#489));
#491=FACE_OUTER_BOUND('',#490,.T.);
#492=CARTESIAN_POINT('',(-3.3235,0.0,-0.6765));
#493=VERTEX_POINT('',#492);
#494=CARTESIAN_POINT('',(0.0,0.0,-0.6765));
#495=DIRECTION('',(0.0,0.0,-1.0));
#496=DIRECTION('',(-1.0,0.0,0.0));
#497=AXIS2_PLACEMENT_3D('',#494,#495,#496);
#498=CIRCLE('',#497,3.3235);
#499=EDGE_CURVE('',#493,#493,#498,.T.);
#500=ORIENTED_EDGE('',*,*,#499,.F.);
#501=EDGE_LOOP('',(#500));
#502=FACE_BOUND('',#501,.T.);
#503=ADVANCED_FACE('',(#491,#502),#488,.F.);
#504=CARTESIAN_POINT('',(0.0,0.0,0.0));
#505=DIRECTION('',(0.0,0.0,1.0));
#506=DIRECTION('',(1.0,0.0,0.0));
#507=AXIS2_PLACEMENT_3D('',#504,#505,#506);
#508=CONICAL_SURFACE('',#507,4.0,44.999999999999979);
#509=ORIENTED_EDGE('',*,*,#219,.T.);
#510=EDGE_LOOP('',(#509));
#511=FACE_OUTER_BOUND('',#510,.T.);
#512=ORIENTED_EDGE('',*,*,#499,.T.);
#513=EDGE_LOOP('',(#512));
#514=FACE_BOUND('',#513,.T.);
#515=ADVANCED_FACE('',(#511,#514),#508,.F.);
#516=CARTESIAN_POINT('',(7.105427E-015,0.0,0.0));
#517=DIRECTION('',(0.0,0.0,-1.0));
#518=DIRECTION('',(1.0,0.0,0.0));
#519=AXIS2_PLACEMENT_3D('',#516,#517,#518);
#520=CYLINDRICAL_SURFACE('',#519,7.99999999999999);
#521=ORIENTED_EDGE('',*,*,#454,.F.);
#522=CARTESIAN_POINT('',(6.365279E-015,0.0,-5.0));
#523=DIRECTION('',(0.0,0.0,1.0));
#524=DIRECTION('',(1.0,0.0,0.0));
#525=AXIS2_PLACEMENT_3D('',#522,#523,#524);
#526=CIRCLE('',#525,7.99999999999999);
#527=EDGE_CURVE('',#449,#164,#526,.T.);
#528=ORIENTED_EDGE('',*,*,#527,.T.);
#529=ORIENTED_EDGE('',*,*,#169,.F.);
#530=ORIENTED_EDGE('',*,*,#200,.F.);
#531=EDGE_LOOP('',(#521,#528,#529,#530));
#532=FACE_OUTER_BOUND('',#531,.T.);
#533=ADVANCED_FACE('',(#532),#520,.T.);
#534=CARTESIAN_POINT('',(6.25,0.0,-5.0));
#535=DIRECTION('',(0.0,0.0,1.0));
#536=DIRECTION('',(1.0,0.0,0.0));
#537=AXIS2_PLACEMENT_3D('',#534,#535,#536);
#538=PLANE('',#537);
#539=ORIENTED_EDGE('',*,*,#175,.F.);
#540=ORIENTED_EDGE('',*,*,#527,.F.);
#541=ORIENTED_EDGE('',*,*,#462,.F.);
#542=ORIENTED_EDGE('',*,*,#244,.F.);
#543=EDGE_LOOP('',(#539,#540,#541,#542));
#544=FACE_OUTER_BOUND('',#543,.T.);
#545=CARTESIAN_POINT('',(6.25,0.0,-5.0));
#546=VERTEX_POINT('',#545);
#547=CARTESIAN_POINT('',(6.365279E-015,0.0,-5.0));
#548=DIRECTION('',(0.0,0.0,1.0));
#549=DIRECTION('',(1.0,0.0,0.0));
#550=AXIS2_PLACEMENT_3D('',#547,#548,#549);
#551=CIRCLE('',#550,6.249999999999991);
#552=EDGE_CURVE('',#546,#546,#551,.T.);
#553=ORIENTED_EDGE('',*,*,#552,.T.);
#554=EDGE_LOOP('',(#553));
#555=FACE_BOUND('',#554,.T.);
#556=ADVANCED_FACE('',(#544,#555),#538,.F.);
#557=CARTESIAN_POINT('',(7.105427E-015,0.0,0.0));
#558=DIRECTION('',(0.0,0.0,-1.0));
#559=DIRECTION('',(1.0,0.0,0.0));
#560=AXIS2_PLACEMENT_3D('',#557,#558,#559);
#561=CYLINDRICAL_SURFACE('',#560,6.25);
#562=ORIENTED_EDGE('',*,*,#552,.F.);
#563=EDGE_LOOP('',(#562));
#564=FACE_OUTER_BOUND('',#563,.T.);
#565=ORIENTED_EDGE('',*,*,#417,.F.);
#566=ORIENTED_EDGE('',*,*,#290,.T.);
#567=ORIENTED_EDGE('',*,*,#401,.F.);
#568=CARTESIAN_POINT('',(3.700743E-015,0.0,-23.000000000000004));
#569=DIRECTION('',(0.0,0.0,1.0));
#570=DIRECTION('',(1.0,0.0,0.0));
#571=AXIS2_PLACEMENT_3D('',#568,#569,#570);
#572=CIRCLE('',#571,6.25);
#573=EDGE_CURVE('',#301,#344,#572,.T.);
#574=ORIENTED_EDGE('',*,*,#573,.T.);
#575=EDGE_LOOP('',(#565,#566,#567,#574));
#576=FACE_BOUND('',#575,.T.);
#577=ADVANCED_FACE('',(#564,#576),#561,.T.);
#578=CARTESIAN_POINT('',(2.681135E-015,0.0,-29.887860125007304));
#579=DIRECTION('',(0.0,0.0,-1.0));
#580=DIRECTION('',(-1.0,0.0,0.0));
#581=AXIS2_PLACEMENT_3D('',#578,#579,#580);
#582=CONICAL_SURFACE('',#581,10.326749060015199,30.620209672028192);
#583=ORIENTED_EDGE('',*,*,#362,.F.);
#584=ORIENTED_EDGE('',*,*,#573,.F.);
#585=ORIENTED_EDGE('',*,*,#313,.F.);
#586=ORIENTED_EDGE('',*,*,#128,.T.);
#587=EDGE_LOOP('',(#583,#584,#585,#586));
#588=FACE_OUTER_BOUND('',#587,.T.);
#589=ADVANCED_FACE('',(#588),#582,.T.);
#590=CARTESIAN_POINT('',(-6.000000000000001,24.000000000000004,-23.000000000000004));
#591=DIRECTION('',(-1.0,0.0,0.0));
#592=DIRECTION('',(0.0,0.0,1.0));
#593=AXIS2_PLACEMENT_3D('',#590,#591,#592);
#594=PLANE('',#593);
#595=CARTESIAN_POINT('',(-6.000000000000001,0.0,-30.807291169341401));
#596=VERTEX_POINT('',#595);
#597=CARTESIAN_POINT('',(-6.000000000000001,0.0,-36.0));
#598=DIRECTION('',(-1.0,0.0,0.0));
#599=DIRECTION('',(0.0,0.0,1.0));
#600=AXIS2_PLACEMENT_3D('',#597,#598,#599);
#601=CIRCLE('',#600,5.19270883065861);
#602=EDGE_CURVE('',#596,#596,#601,.F.);
#603=ORIENTED_EDGE('',*,*,#602,.F.);
#604=EDGE_LOOP('',(#603));
#605=FACE_OUTER_BOUND('',#604,.T.);
#606=ORIENTED_EDGE('',*,*,#438,.T.);
#607=EDGE_LOOP('',(#606));
#608=FACE_BOUND('',#607,.T.);
#609=ADVANCED_FACE('',(#605,#608),#594,.T.);
#610=CARTESIAN_POINT('',(0.0,0.0,-36.0));
#611=DIRECTION('',(0.0,0.0,1.0));
#612=DIRECTION('',(1.0,0.0,0.0));
#613=AXIS2_PLACEMENT_3D('',#610,#611,#612);
#614=SPHERICAL_SURFACE('',#613,7.935);
#615=ORIENTED_EDGE('',*,*,#374,.T.);
#616=EDGE_LOOP('',(#615));
#617=FACE_OUTER_BOUND('',#616,.T.);
#618=ORIENTED_EDGE('',*,*,#602,.T.);
#619=EDGE_LOOP('',(#618));
#620=FACE_BOUND('',#619,.T.);
#621=ADVANCED_FACE('',(#617,#620),#614,.T.);
#622=CLOSED_SHELL('',(#95,#139,#179,#223,#248,#294,#336,#378,#390,#406,#422,#442,#466,#483,#503,#515,#533,#556,#577,#589,#609,#621));
#623=MANIFOLD_SOLID_BREP('SSFI08',#622);
#624=COLOUR_RGB('Zinco',0.67843097448349,0.768626987934113,0.811765015125275);
#625=FILL_AREA_STYLE_COLOUR('Zinco',#624);
#626=FILL_AREA_STYLE('Zinco',(#625));
#627=SURFACE_STYLE_FILL_AREA(#626);
#628=SURFACE_SIDE_STYLE('Zinco',(#627));
#629=SURFACE_STYLE_USAGE(.BOTH.,#628);
#630=PRESENTATION_STYLE_ASSIGNMENT((#629));
#631=STYLED_ITEM('',(#630),#623);
#632=MECHANICAL_DESIGN_GEOMETRIC_PRESENTATION_REPRESENTATION('',(#631),#36);
#633=ADVANCED_BREP_SHAPE_REPRESENTATION('ABSR',(#623),#36);
#634=SHAPE_REPRESENTATION_RELATIONSHIP('SRR','None',#633,#41);
ENDSEC;
END-ISO-10303-21;
