ISO-10303-21;
HEADER;
/****************************************************************
 * Generated by software with PDElib inside                    *
 * PDElib Version v51a, created Tue 11/30/2010                  *
 * ITI Transcendata (http://www.transcendata.com/)              *
 ****************************************************************/
FILE_DESCRIPTION((''),'2;1');
FILE_NAME('T:\\Archivio Inventor\\- FISSAGGI NUOVI\\- SSFI---X\\SSFI16x1.5X.stp','2014-12-22T12:07:26',('carlo.corazza'),(''),'Autodesk Inventor 2012','Autodesk Inventor 2012','');
FILE_SCHEMA(('AUTOMOTIVE_DESIGN { 1 0 10303 214 1 1 1 1 }'));
ENDSEC;
DATA;
#5=APPLICATION_CONTEXT('automotive design');
#6=APPLICATION_PROTOCOL_DEFINITION('International Standard','automotive_design',2001,#5);
#7=PRODUCT_CONTEXT('',#5,'mechanical');
#8=PRODUCT('SSFI16x1.5X','SSFI16x1.5X',$,(#7));
#9=PRODUCT_RELATED_PRODUCT_CATEGORY('part',$,(#8));
#10=PRODUCT_DEFINITION_FORMATION('',$,#8);
#11=PRODUCT_DEFINITION_CONTEXT('part definition',#5,'design');
#12=PRODUCT_DEFINITION('',$,#10,#11);
#18=(NAMED_UNIT(*)PLANE_ANGLE_UNIT()SI_UNIT($,.RADIAN.));
#19=DIMENSIONAL_EXPONENTS(0.0,0.0,0.0,0.0,0.0,0.0,0.0);
#20=PLANE_ANGLE_MEASURE_WITH_UNIT(PLANE_ANGLE_MEASURE(0.0174532925),#18);
#24=(CONVERSION_BASED_UNIT('DEGREE',#20)NAMED_UNIT(#19)PLANE_ANGLE_UNIT());
#28=(NAMED_UNIT(*)SI_UNIT($,.STERADIAN.)SOLID_ANGLE_UNIT());
#32=(LENGTH_UNIT()NAMED_UNIT(*)SI_UNIT(.MILLI.,.METRE.));
#34=UNCERTAINTY_MEASURE_WITH_UNIT(LENGTH_MEASURE(0.01),#32,'DISTANCE_ACCURACY_VALUE','');
#36=(GEOMETRIC_REPRESENTATION_CONTEXT(3)GLOBAL_UNCERTAINTY_ASSIGNED_CONTEXT((#34))GLOBAL_UNIT_ASSIGNED_CONTEXT((#24,#28,#32))REPRESENTATION_CONTEXT('None','None'));
#37=AXIS2_PLACEMENT_3D('',#38,#39,#40);
#38=CARTESIAN_POINT('',(0.0,0.0,0.0));
#39=DIRECTION('',(0.0,0.0,1.0));
#40=DIRECTION('',(1.0,0.0,0.0));
#41=SHAPE_REPRESENTATION('',(#37),#36);
#42=PRODUCT_DEFINITION_SHAPE('','',#12);
#43=SHAPE_DEFINITION_REPRESENTATION(#42,#41);
#49=(NAMED_UNIT(*)PLANE_ANGLE_UNIT()SI_UNIT($,.RADIAN.));
#50=DIMENSIONAL_EXPONENTS(0.0,0.0,0.0,0.0,0.0,0.0,0.0);
#51=PLANE_ANGLE_MEASURE_WITH_UNIT(PLANE_ANGLE_MEASURE(0.0174532925),#49);
#55=(CONVERSION_BASED_UNIT('DEGREE',#51)NAMED_UNIT(#50)PLANE_ANGLE_UNIT());
#59=(NAMED_UNIT(*)SI_UNIT($,.STERADIAN.)SOLID_ANGLE_UNIT());
#63=(LENGTH_UNIT()NAMED_UNIT(*)SI_UNIT(.MILLI.,.METRE.));
#65=UNCERTAINTY_MEASURE_WITH_UNIT(LENGTH_MEASURE(0.000001),#63,'DISTANCE_ACCURACY_VALUE','');
#67=(GEOMETRIC_REPRESENTATION_CONTEXT(3)GLOBAL_UNCERTAINTY_ASSIGNED_CONTEXT((#65))GLOBAL_UNIT_ASSIGNED_CONTEXT((#55,#59,#63))REPRESENTATION_CONTEXT('','3D'));
#68=CARTESIAN_POINT('',(10.5,42.0,-86.0));
#69=DIRECTION('',(1.0,0.0,0.0));
#70=DIRECTION('',(0.0,0.0,-1.0));
#71=AXIS2_PLACEMENT_3D('',#68,#69,#70);
#72=PLANE('',#71);
#73=CARTESIAN_POINT('',(10.5,-9.540979E-015,-73.685619494900692));
#74=VERTEX_POINT('',#73);
#75=CARTESIAN_POINT('',(10.5,-9.540979E-015,-64.0));
#76=DIRECTION('',(1.0,0.0,0.0));
#77=DIRECTION('',(0.0,0.0,-1.0));
#78=AXIS2_PLACEMENT_3D('',#75,#76,#77);
#79=CIRCLE('',#78,9.68561949490066);
#80=EDGE_CURVE('',#74,#74,#79,.F.);
#81=ORIENTED_EDGE('',*,*,#80,.F.);
#82=EDGE_LOOP('',(#81));
#83=FACE_OUTER_BOUND('',#82,.T.);
#84=CARTESIAN_POINT('',(10.5,0.0,-72.0));
#85=VERTEX_POINT('',#84);
#86=CARTESIAN_POINT('',(10.5,0.0,-64.0));
#87=DIRECTION('',(1.0,0.0,0.0));
#88=DIRECTION('',(0.0,0.0,-1.0));
#89=AXIS2_PLACEMENT_3D('',#86,#87,#88);
#90=CIRCLE('',#89,8.0);
#91=EDGE_CURVE('',#85,#85,#90,.F.);
#92=ORIENTED_EDGE('',*,*,#91,.T.);
#93=EDGE_LOOP('',(#92));
#94=FACE_BOUND('',#93,.T.);
#95=ADVANCED_FACE('',(#83,#94),#72,.T.);
#96=CARTESIAN_POINT('',(-6.938894E-015,0.0,-64.0));
#97=DIRECTION('',(0.0,0.0,1.0));
#98=DIRECTION('',(1.0,0.0,0.0));
#99=AXIS2_PLACEMENT_3D('',#96,#97,#98);
#100=SPHERICAL_SURFACE('',#99,21.0);
#101=CARTESIAN_POINT('',(-7.5,-16.5889852445016,-53.533120400152299));
#102=VERTEX_POINT('',#101);
#103=CARTESIAN_POINT('',(7.5,-16.5889852445016,-53.533120400152299));
#104=VERTEX_POINT('',#103);
#105=CARTESIAN_POINT('',(0.0,0.0,-53.533120400152299));
#106=DIRECTION('',(0.0,0.0,1.0));
#107=DIRECTION('',(1.0,0.0,0.0));
#108=AXIS2_PLACEMENT_3D('',#105,#106,#107);
#109=CIRCLE('',#108,18.205615382136699);
#110=EDGE_CURVE('',#102,#104,#109,.T.);
#111=ORIENTED_EDGE('',*,*,#110,.F.);
#112=CARTESIAN_POINT('',(-7.5,16.5889852445016,-53.533120400152299));
#113=VERTEX_POINT('',#112);
#114=CARTESIAN_POINT('',(-7.5,0.0,-64.0));
#115=DIRECTION('',(-1.0,0.0,0.0));
#116=DIRECTION('',(0.0,0.0,1.0));
#117=AXIS2_PLACEMENT_3D('',#114,#115,#116);
#118=CIRCLE('',#117,19.615045245933);
#119=EDGE_CURVE('',#102,#113,#118,.F.);
#120=ORIENTED_EDGE('',*,*,#119,.T.);
#121=CARTESIAN_POINT('',(7.5,16.5889852445016,-53.533120400152299));
#122=VERTEX_POINT('',#121);
#123=CARTESIAN_POINT('',(0.0,0.0,-53.533120400152299));
#124=DIRECTION('',(0.0,0.0,1.0));
#125=DIRECTION('',(1.0,0.0,0.0));
#126=AXIS2_PLACEMENT_3D('',#123,#124,#125);
#127=CIRCLE('',#126,18.205615382136699);
#128=EDGE_CURVE('',#122,#113,#127,.T.);
#129=ORIENTED_EDGE('',*,*,#128,.F.);
#130=CARTESIAN_POINT('',(7.5,0.0,-64.0));
#131=DIRECTION('',(1.0,0.0,0.0));
#132=DIRECTION('',(0.0,0.0,-1.0));
#133=AXIS2_PLACEMENT_3D('',#130,#131,#132);
#134=CIRCLE('',#133,19.615045245933);
#135=EDGE_CURVE('',#122,#104,#134,.F.);
#136=ORIENTED_EDGE('',*,*,#135,.T.);
#137=EDGE_LOOP('',(#111,#120,#129,#136));
#138=FACE_OUTER_BOUND('',#137,.T.);
#139=ADVANCED_FACE('',(#138),#100,.T.);
#140=CARTESIAN_POINT('',(11.0,42.0,-34.937822173508906));
#141=DIRECTION('',(1.0,0.0,0.0));
#142=DIRECTION('',(0.0,0.0,-1.0));
#143=AXIS2_PLACEMENT_3D('',#140,#141,#142);
#144=PLANE('',#143);
#145=CARTESIAN_POINT('',(11.0,0.0,-8.0));
#146=VERTEX_POINT('',#145);
#147=CARTESIAN_POINT('',(11.0,7.82623792124927,-8.0));
#148=VERTEX_POINT('',#147);
#149=CARTESIAN_POINT('',(11.0,0.0,-8.0));
#150=DIRECTION('',(0.0,1.0,0.0));
#151=VECTOR('',#150,7.82623792124927);
#152=LINE('',#149,#151);
#153=EDGE_CURVE('',#146,#148,#152,.T.);
#154=ORIENTED_EDGE('',*,*,#153,.T.);
#155=CARTESIAN_POINT('',(11.0,7.826237921249262,0.0));
#156=VERTEX_POINT('',#155);
#157=CARTESIAN_POINT('',(11.0,7.82623792124927,-8.0));
#158=DIRECTION('',(0.0,0.0,1.0));
#159=VECTOR('',#158,8.0);
#160=LINE('',#157,#159);
#161=EDGE_CURVE('',#148,#156,#160,.T.);
#162=ORIENTED_EDGE('',*,*,#161,.T.);
#163=CARTESIAN_POINT('',(11.0,-7.82623792124927,0.0));
#164=VERTEX_POINT('',#163);
#165=CARTESIAN_POINT('',(11.0,7.826237921249261,0.0));
#166=DIRECTION('',(0.0,-1.0,0.0));
#167=VECTOR('',#166,15.65247584249853);
#168=LINE('',#165,#167);
#169=EDGE_CURVE('',#156,#164,#168,.T.);
#170=ORIENTED_EDGE('',*,*,#169,.T.);
#171=CARTESIAN_POINT('',(11.0,-7.82623792124927,-8.0));
#172=VERTEX_POINT('',#171);
#173=CARTESIAN_POINT('',(11.0,-7.82623792124927,-8.0));
#174=DIRECTION('',(0.0,0.0,1.0));
#175=VECTOR('',#174,8.0);
#176=LINE('',#173,#175);
#177=EDGE_CURVE('',#164,#172,#176,.F.);
#178=ORIENTED_EDGE('',*,*,#177,.T.);
#179=CARTESIAN_POINT('',(11.0,-7.82623792124927,-8.0));
#180=DIRECTION('',(0.0,1.0,0.0));
#181=VECTOR('',#180,7.82623792124927);
#182=LINE('',#179,#181);
#183=EDGE_CURVE('',#172,#146,#182,.T.);
#184=ORIENTED_EDGE('',*,*,#183,.T.);
#185=EDGE_LOOP('',(#154,#162,#170,#178,#184));
#186=FACE_OUTER_BOUND('',#185,.T.);
#187=ADVANCED_FACE('',(#186),#144,.T.);
#188=CARTESIAN_POINT('',(13.5,0.0,0.0));
#189=DIRECTION('',(0.0,0.0,-1.0));
#190=DIRECTION('',(-1.0,0.0,0.0));
#191=AXIS2_PLACEMENT_3D('',#188,#189,#190);
#192=PLANE('',#191);
#193=CARTESIAN_POINT('',(-11.0,7.82623792124927,0.0));
#194=VERTEX_POINT('',#193);
#195=CARTESIAN_POINT('',(-11.0,-7.82623792124925,0.0));
#196=VERTEX_POINT('',#195);
#197=CARTESIAN_POINT('',(-11.0,7.82623792124927,0.0));
#198=DIRECTION('',(0.0,-1.0,0.0));
#199=VECTOR('',#198,15.652475842498522);
#200=LINE('',#197,#199);
#201=EDGE_CURVE('',#194,#196,#200,.T.);
#202=ORIENTED_EDGE('',*,*,#201,.T.);
#203=CARTESIAN_POINT('',(0.0,0.0,0.0));
#204=DIRECTION('',(0.0,0.0,1.0));
#205=DIRECTION('',(1.0,0.0,0.0));
#206=AXIS2_PLACEMENT_3D('',#203,#204,#205);
#207=CIRCLE('',#206,13.5);
#208=EDGE_CURVE('',#196,#164,#207,.T.);
#209=ORIENTED_EDGE('',*,*,#208,.T.);
#210=ORIENTED_EDGE('',*,*,#169,.F.);
#211=CARTESIAN_POINT('',(0.0,0.0,0.0));
#212=DIRECTION('',(0.0,0.0,1.0));
#213=DIRECTION('',(1.0,0.0,0.0));
#214=AXIS2_PLACEMENT_3D('',#211,#212,#213);
#215=CIRCLE('',#214,13.5);
#216=EDGE_CURVE('',#156,#194,#215,.T.);
#217=ORIENTED_EDGE('',*,*,#216,.T.);
#218=EDGE_LOOP('',(#202,#209,#210,#217));
#219=FACE_OUTER_BOUND('',#218,.T.);
#220=CARTESIAN_POINT('',(-8.0,0.0,0.0));
#221=VERTEX_POINT('',#220);
#222=CARTESIAN_POINT('',(0.0,0.0,0.0));
#223=DIRECTION('',(0.0,0.0,-1.0));
#224=DIRECTION('',(-1.0,0.0,0.0));
#225=AXIS2_PLACEMENT_3D('',#222,#223,#224);
#226=CIRCLE('',#225,8.0);
#227=EDGE_CURVE('',#221,#221,#226,.F.);
#228=ORIENTED_EDGE('',*,*,#227,.F.);
#229=EDGE_LOOP('',(#228));
#230=FACE_BOUND('',#229,.T.);
#231=ADVANCED_FACE('',(#219,#230),#192,.F.);
#232=CARTESIAN_POINT('',(0.0,0.0,0.0));
#233=DIRECTION('',(0.0,0.0,-1.0));
#234=DIRECTION('',(1.0,0.0,0.0));
#235=AXIS2_PLACEMENT_3D('',#232,#233,#234);
#236=CYLINDRICAL_SURFACE('',#235,13.5);
#237=CARTESIAN_POINT('',(-11.0,7.82623792124927,-8.0));
#238=VERTEX_POINT('',#237);
#239=CARTESIAN_POINT('',(-11.0,7.82623792124927,-8.0));
#240=DIRECTION('',(0.0,0.0,1.0));
#241=VECTOR('',#240,8.0);
#242=LINE('',#239,#241);
#243=EDGE_CURVE('',#194,#238,#242,.F.);
#244=ORIENTED_EDGE('',*,*,#243,.F.);
#245=ORIENTED_EDGE('',*,*,#216,.F.);
#246=ORIENTED_EDGE('',*,*,#161,.F.);
#247=CARTESIAN_POINT('',(0.0,0.0,-8.0));
#248=DIRECTION('',(0.0,0.0,1.0));
#249=DIRECTION('',(1.0,0.0,0.0));
#250=AXIS2_PLACEMENT_3D('',#247,#248,#249);
#251=CIRCLE('',#250,13.5);
#252=EDGE_CURVE('',#148,#238,#251,.T.);
#253=ORIENTED_EDGE('',*,*,#252,.T.);
#254=EDGE_LOOP('',(#244,#245,#246,#253));
#255=FACE_OUTER_BOUND('',#254,.T.);
#256=ADVANCED_FACE('',(#255),#236,.T.);
#257=CARTESIAN_POINT('',(0.0,0.0,-53.533120400152299));
#258=DIRECTION('',(0.0,0.0,-1.0));
#259=DIRECTION('',(-1.0,0.0,0.0));
#260=AXIS2_PLACEMENT_3D('',#257,#258,#259);
#261=CONICAL_SURFACE('',#260,18.205615382136699,29.895710548569102);
#262=CARTESIAN_POINT('',(-7.5,-8.046738469715539,-41.000000000000007));
#263=VERTEX_POINT('',#262);
#264=CARTESIAN_POINT('',(-7.5,-35.287190737590301,-84.615045245933004));
#265=CARTESIAN_POINT('',(-7.5,-13.528757869862941,-47.596320584309538));
#266=CARTESIAN_POINT('',(-7.5,-7.241006161411518,-40.000000000000007));
#274=(BOUNDED_CURVE()B_SPLINE_CURVE(2,(#264,#265,#266),.UNSPECIFIED.,.F.,.U.)B_SPLINE_CURVE_WITH_KNOTS((3,3),(0.0,5.272004557451267),.UNSPECIFIED.)CURVE()GEOMETRIC_REPRESENTATION_ITEM()RATIONAL_B_SPLINE_CURVE((1.0,1.253702595918262,1.0))REPRESENTATION_ITEM(''));
#275=EDGE_CURVE('',#102,#263,#274,.T.);
#276=ORIENTED_EDGE('',*,*,#275,.F.);
#277=ORIENTED_EDGE('',*,*,#110,.T.);
#278=CARTESIAN_POINT('',(7.5,-8.04673846971551,-41.000000000000007));
#279=VERTEX_POINT('',#278);
#280=CARTESIAN_POINT('',(7.5,-7.241006161411518,-40.000000000000007));
#281=CARTESIAN_POINT('',(7.5,-13.528757869862941,-47.596320584309538));
#282=CARTESIAN_POINT('',(7.5,-35.287190737590301,-84.615045245933004));
#290=(BOUNDED_CURVE()B_SPLINE_CURVE(2,(#280,#281,#282),.UNSPECIFIED.,.F.,.U.)B_SPLINE_CURVE_WITH_KNOTS((3,3),(0.0,5.272004557451267),.UNSPECIFIED.)CURVE()GEOMETRIC_REPRESENTATION_ITEM()RATIONAL_B_SPLINE_CURVE((1.0,1.253702595918262,1.0))REPRESENTATION_ITEM(''));
#291=EDGE_CURVE('',#279,#104,#290,.T.);
#292=ORIENTED_EDGE('',*,*,#291,.F.);
#293=CARTESIAN_POINT('',(0.0,0.0,-41.000000000000007));
#294=DIRECTION('',(0.0,0.0,1.0));
#295=DIRECTION('',(1.0,0.0,0.0));
#296=AXIS2_PLACEMENT_3D('',#293,#294,#295);
#297=CIRCLE('',#296,11.0);
#298=EDGE_CURVE('',#263,#279,#297,.T.);
#299=ORIENTED_EDGE('',*,*,#298,.F.);
#300=EDGE_LOOP('',(#276,#277,#292,#299));
#301=FACE_OUTER_BOUND('',#300,.T.);
#302=ADVANCED_FACE('',(#301),#261,.T.);
#303=CARTESIAN_POINT('',(7.5,42.0,-86.0));
#304=DIRECTION('',(1.0,0.0,0.0));
#305=DIRECTION('',(0.0,0.0,-1.0));
#306=AXIS2_PLACEMENT_3D('',#303,#304,#305);
#307=PLANE('',#306);
#308=CARTESIAN_POINT('',(7.5,8.046738469715539,-41.000000000000007));
#309=VERTEX_POINT('',#308);
#310=CARTESIAN_POINT('',(7.5,35.287190737590301,-84.615045245933004));
#311=CARTESIAN_POINT('',(7.5,13.528757869849271,-47.596320584286282));
#312=CARTESIAN_POINT('',(7.500000000000001,7.241006161399083,-39.999999999984986));
#320=(BOUNDED_CURVE()B_SPLINE_CURVE(2,(#310,#311,#312),.UNSPECIFIED.,.F.,.U.)B_SPLINE_CURVE_WITH_KNOTS((3,3),(0.0,5.272004557453212),.UNSPECIFIED.)CURVE()GEOMETRIC_REPRESENTATION_ITEM()RATIONAL_B_SPLINE_CURVE((1.0,1.253702595918673,1.0))REPRESENTATION_ITEM(''));
#321=EDGE_CURVE('',#122,#309,#320,.T.);
#322=ORIENTED_EDGE('',*,*,#321,.T.);
#323=CARTESIAN_POINT('',(7.5,8.046738469715539,-41.000000000000007));
#324=DIRECTION('',(0.0,-1.0,0.0));
#325=VECTOR('',#324,16.093476939431049);
#326=LINE('',#323,#325);
#327=EDGE_CURVE('',#309,#279,#326,.T.);
#328=ORIENTED_EDGE('',*,*,#327,.T.);
#329=ORIENTED_EDGE('',*,*,#291,.T.);
#330=ORIENTED_EDGE('',*,*,#135,.F.);
#331=EDGE_LOOP('',(#322,#328,#329,#330));
#332=FACE_OUTER_BOUND('',#331,.T.);
#333=CARTESIAN_POINT('',(7.5,-9.540979E-015,-76.157763980271994));
#334=VERTEX_POINT('',#333);
#335=CARTESIAN_POINT('',(7.5,-9.540979E-015,-64.0));
#336=DIRECTION('',(1.0,0.0,0.0));
#337=DIRECTION('',(0.0,0.0,-1.0));
#338=AXIS2_PLACEMENT_3D('',#335,#336,#337);
#339=CIRCLE('',#338,12.157763980272001);
#340=EDGE_CURVE('',#334,#334,#339,.T.);
#341=ORIENTED_EDGE('',*,*,#340,.F.);
#342=EDGE_LOOP('',(#341));
#343=FACE_BOUND('',#342,.T.);
#344=ADVANCED_FACE('',(#332,#343),#307,.T.);
#345=CARTESIAN_POINT('',(-7.5,42.0,-41.000000000000007));
#346=DIRECTION('',(-1.0,0.0,0.0));
#347=DIRECTION('',(0.0,0.0,1.0));
#348=AXIS2_PLACEMENT_3D('',#345,#346,#347);
#349=PLANE('',#348);
#350=ORIENTED_EDGE('',*,*,#275,.T.);
#351=CARTESIAN_POINT('',(-7.5,8.046738469715571,-41.000000000000007));
#352=VERTEX_POINT('',#351);
#353=CARTESIAN_POINT('',(-7.5,8.046738469715571,-41.000000000000007));
#354=DIRECTION('',(0.0,-1.0,0.0));
#355=VECTOR('',#354,16.09347693943111);
#356=LINE('',#353,#355);
#357=EDGE_CURVE('',#352,#263,#356,.T.);
#358=ORIENTED_EDGE('',*,*,#357,.F.);
#359=CARTESIAN_POINT('',(-7.5,7.241006161399229,-39.999999999985157));
#360=CARTESIAN_POINT('',(-7.499999999999999,13.528757869849416,-47.596320584286531));
#361=CARTESIAN_POINT('',(-7.5,35.287190737590301,-84.615045245933004));
#369=(BOUNDED_CURVE()B_SPLINE_CURVE(2,(#359,#360,#361),.UNSPECIFIED.,.F.,.U.)B_SPLINE_CURVE_WITH_KNOTS((3,3),(0.0,5.272004557453188),.UNSPECIFIED.)CURVE()GEOMETRIC_REPRESENTATION_ITEM()RATIONAL_B_SPLINE_CURVE((1.0,1.253702595918713,1.0))REPRESENTATION_ITEM(''));
#370=EDGE_CURVE('',#352,#113,#369,.T.);
#371=ORIENTED_EDGE('',*,*,#370,.T.);
#372=ORIENTED_EDGE('',*,*,#119,.F.);
#373=EDGE_LOOP('',(#350,#358,#371,#372));
#374=FACE_OUTER_BOUND('',#373,.T.);
#375=CARTESIAN_POINT('',(-7.5,-9.540979E-015,-51.842236019727999));
#376=VERTEX_POINT('',#375);
#377=CARTESIAN_POINT('',(-7.5,-9.540979E-015,-64.0));
#378=DIRECTION('',(-1.0,0.0,0.0));
#379=DIRECTION('',(0.0,0.0,1.0));
#380=AXIS2_PLACEMENT_3D('',#377,#378,#379);
#381=CIRCLE('',#380,12.157763980272001);
#382=EDGE_CURVE('',#376,#376,#381,.T.);
#383=ORIENTED_EDGE('',*,*,#382,.F.);
#384=EDGE_LOOP('',(#383));
#385=FACE_BOUND('',#384,.T.);
#386=ADVANCED_FACE('',(#374,#385),#349,.T.);
#387=CARTESIAN_POINT('',(0.0,-9.540979E-015,-64.0));
#388=DIRECTION('',(0.0,0.0,1.0));
#389=DIRECTION('',(1.0,0.0,0.0));
#390=AXIS2_PLACEMENT_3D('',#387,#388,#389);
#391=SPHERICAL_SURFACE('',#390,14.285);
#392=ORIENTED_EDGE('',*,*,#340,.T.);
#393=EDGE_LOOP('',(#392));
#394=FACE_OUTER_BOUND('',#393,.T.);
#395=ORIENTED_EDGE('',*,*,#80,.T.);
#396=EDGE_LOOP('',(#395));
#397=FACE_BOUND('',#396,.T.);
#398=ADVANCED_FACE('',(#394,#397),#391,.T.);
#399=CARTESIAN_POINT('',(7.5,42.0,-41.000000000000007));
#400=DIRECTION('',(0.866025403784439,0.0,-0.499999999999999));
#401=DIRECTION('',(-0.499999999999999,0.0,-0.866025403784439));
#402=AXIS2_PLACEMENT_3D('',#399,#400,#401);
#403=PLANE('',#402);
#404=CARTESIAN_POINT('',(0.0,0.0,-53.990381056766601));
#405=DIRECTION('',(0.866025403784439,0.0,-0.5));
#406=DIRECTION('',(0.5,0.0,0.866025403784439));
#407=AXIS2_PLACEMENT_3D('',#404,#405,#406);
#408=ELLIPSE('',#407,22.0,11.000000000000002);
#409=EDGE_CURVE('',#309,#279,#408,.T.);
#410=ORIENTED_EDGE('',*,*,#409,.T.);
#411=ORIENTED_EDGE('',*,*,#327,.F.);
#412=EDGE_LOOP('',(#410,#411));
#413=FACE_OUTER_BOUND('',#412,.T.);
#414=ADVANCED_FACE('',(#413),#403,.T.);
#415=CARTESIAN_POINT('',(-11.0,42.0,-34.937822173508906));
#416=DIRECTION('',(-0.866025403784439,0.0,-0.499999999999999));
#417=DIRECTION('',(-0.499999999999999,0.0,0.866025403784439));
#418=AXIS2_PLACEMENT_3D('',#415,#416,#417);
#419=PLANE('',#418);
#420=CARTESIAN_POINT('',(0.0,0.0,-53.990381056766601));
#421=DIRECTION('',(-0.866025403784439,0.0,-0.5));
#422=DIRECTION('',(-0.5,0.0,0.866025403784439));
#423=AXIS2_PLACEMENT_3D('',#420,#421,#422);
#424=ELLIPSE('',#423,22.0,11.000000000000002);
#425=EDGE_CURVE('',#263,#352,#424,.T.);
#426=ORIENTED_EDGE('',*,*,#425,.T.);
#427=ORIENTED_EDGE('',*,*,#357,.T.);
#428=EDGE_LOOP('',(#426,#427));
#429=FACE_OUTER_BOUND('',#428,.T.);
#430=ADVANCED_FACE('',(#429),#419,.T.);
#431=CARTESIAN_POINT('',(42.0,0.0,-64.0));
#432=DIRECTION('',(1.0,0.0,0.0));
#433=DIRECTION('',(0.0,0.0,1.0));
#434=AXIS2_PLACEMENT_3D('',#431,#432,#433);
#435=CYLINDRICAL_SURFACE('',#434,8.0);
#436=ORIENTED_EDGE('',*,*,#91,.F.);
#437=EDGE_LOOP('',(#436));
#438=FACE_OUTER_BOUND('',#437,.T.);
#439=CARTESIAN_POINT('',(-10.5,0.0,-56.000000000000007));
#440=VERTEX_POINT('',#439);
#441=CARTESIAN_POINT('',(-10.5,0.0,-64.0));
#442=DIRECTION('',(-1.0,0.0,0.0));
#443=DIRECTION('',(0.0,0.0,1.0));
#444=AXIS2_PLACEMENT_3D('',#441,#442,#443);
#445=CIRCLE('',#444,8.0);
#446=EDGE_CURVE('',#440,#440,#445,.F.);
#447=ORIENTED_EDGE('',*,*,#446,.F.);
#448=EDGE_LOOP('',(#447));
#449=FACE_BOUND('',#448,.T.);
#450=ADVANCED_FACE('',(#438,#449),#435,.F.);
#451=CARTESIAN_POINT('',(-11.0,42.0,0.0));
#452=DIRECTION('',(-1.0,0.0,0.0));
#453=DIRECTION('',(0.0,0.0,1.0));
#454=AXIS2_PLACEMENT_3D('',#451,#452,#453);
#455=PLANE('',#454);
#456=CARTESIAN_POINT('',(-11.0,0.0,-8.0));
#457=VERTEX_POINT('',#456);
#458=CARTESIAN_POINT('',(-11.0,-7.82623792124927,-8.0));
#459=VERTEX_POINT('',#458);
#460=CARTESIAN_POINT('',(-11.0,0.0,-8.0));
#461=DIRECTION('',(0.0,-1.0,0.0));
#462=VECTOR('',#461,7.82623792124927);
#463=LINE('',#460,#462);
#464=EDGE_CURVE('',#457,#459,#463,.T.);
#465=ORIENTED_EDGE('',*,*,#464,.T.);
#466=CARTESIAN_POINT('',(-11.0,-7.82623792124927,-8.0));
#467=DIRECTION('',(0.0,0.0,1.0));
#468=VECTOR('',#467,8.0);
#469=LINE('',#466,#468);
#470=EDGE_CURVE('',#459,#196,#469,.T.);
#471=ORIENTED_EDGE('',*,*,#470,.T.);
#472=ORIENTED_EDGE('',*,*,#201,.F.);
#473=ORIENTED_EDGE('',*,*,#243,.T.);
#474=CARTESIAN_POINT('',(-11.0,7.82623792124927,-8.0));
#475=DIRECTION('',(0.0,-1.0,0.0));
#476=VECTOR('',#475,7.82623792124927);
#477=LINE('',#474,#476);
#478=EDGE_CURVE('',#238,#457,#477,.T.);
#479=ORIENTED_EDGE('',*,*,#478,.T.);
#480=EDGE_LOOP('',(#465,#471,#472,#473,#479));
#481=FACE_OUTER_BOUND('',#480,.T.);
#482=ADVANCED_FACE('',(#481),#455,.T.);
#483=CARTESIAN_POINT('',(0.0,0.0,-29.450006265064999));
#484=DIRECTION('',(0.0,0.0,1.0));
#485=DIRECTION('',(1.0,0.0,0.0));
#486=AXIS2_PLACEMENT_3D('',#483,#484,#485);
#487=CONICAL_SURFACE('',#486,7.188,60.000000000000121);
#488=CARTESIAN_POINT('',(-7.188,0.0,-29.450006265064999));
#489=VERTEX_POINT('',#488);
#490=CARTESIAN_POINT('',(0.0,0.0,-29.450006265064999));
#491=DIRECTION('',(0.0,0.0,-1.0));
#492=DIRECTION('',(-1.0,0.0,0.0));
#493=AXIS2_PLACEMENT_3D('',#490,#491,#492);
#494=CIRCLE('',#493,7.188);
#495=EDGE_CURVE('',#489,#489,#494,.T.);
#496=ORIENTED_EDGE('',*,*,#495,.F.);
#497=EDGE_LOOP('',(#496));
#498=FACE_OUTER_BOUND('',#497,.T.);
#499=ADVANCED_FACE('',(#498),#487,.F.);
#500=CARTESIAN_POINT('',(0.0,0.0,-33.600000000000001));
#501=DIRECTION('',(0.0,0.0,1.0));
#502=DIRECTION('',(-1.0,0.0,0.0));
#503=AXIS2_PLACEMENT_3D('',#500,#501,#502);
#504=CYLINDRICAL_SURFACE('',#503,7.188);
#505=ORIENTED_EDGE('',*,*,#495,.T.);
#506=EDGE_LOOP('',(#505));
#507=FACE_OUTER_BOUND('',#506,.T.);
#508=CARTESIAN_POINT('',(-7.188,0.0,-0.812));
#509=VERTEX_POINT('',#508);
#510=CARTESIAN_POINT('',(0.0,0.0,-0.812));
#511=DIRECTION('',(0.0,0.0,-1.0));
#512=DIRECTION('',(-1.0,0.0,0.0));
#513=AXIS2_PLACEMENT_3D('',#510,#511,#512);
#514=CIRCLE('',#513,7.188);
#515=EDGE_CURVE('',#509,#509,#514,.T.);
#516=ORIENTED_EDGE('',*,*,#515,.F.);
#517=EDGE_LOOP('',(#516));
#518=FACE_BOUND('',#517,.T.);
#519=ADVANCED_FACE('',(#507,#518),#504,.F.);
#520=CARTESIAN_POINT('',(0.0,0.0,0.0));
#521=DIRECTION('',(0.0,0.0,1.0));
#522=DIRECTION('',(1.0,0.0,0.0));
#523=AXIS2_PLACEMENT_3D('',#520,#521,#522);
#524=CONICAL_SURFACE('',#523,8.0,44.999999999999979);
#525=ORIENTED_EDGE('',*,*,#227,.T.);
#526=EDGE_LOOP('',(#525));
#527=FACE_OUTER_BOUND('',#526,.T.);
#528=ORIENTED_EDGE('',*,*,#515,.T.);
#529=EDGE_LOOP('',(#528));
#530=FACE_BOUND('',#529,.T.);
#531=ADVANCED_FACE('',(#527,#530),#524,.F.);
#532=CARTESIAN_POINT('',(0.0,0.0,0.0));
#533=DIRECTION('',(0.0,0.0,-1.0));
#534=DIRECTION('',(1.0,0.0,0.0));
#535=AXIS2_PLACEMENT_3D('',#532,#533,#534);
#536=CYLINDRICAL_SURFACE('',#535,13.5);
#537=ORIENTED_EDGE('',*,*,#470,.F.);
#538=CARTESIAN_POINT('',(0.0,0.0,-8.0));
#539=DIRECTION('',(0.0,0.0,1.0));
#540=DIRECTION('',(1.0,0.0,0.0));
#541=AXIS2_PLACEMENT_3D('',#538,#539,#540);
#542=CIRCLE('',#541,13.5);
#543=EDGE_CURVE('',#459,#172,#542,.T.);
#544=ORIENTED_EDGE('',*,*,#543,.T.);
#545=ORIENTED_EDGE('',*,*,#177,.F.);
#546=ORIENTED_EDGE('',*,*,#208,.F.);
#547=EDGE_LOOP('',(#537,#544,#545,#546));
#548=FACE_OUTER_BOUND('',#547,.T.);
#549=ADVANCED_FACE('',(#548),#536,.T.);
#550=CARTESIAN_POINT('',(11.0,0.0,-8.0));
#551=DIRECTION('',(0.0,0.0,1.0));
#552=DIRECTION('',(1.0,0.0,0.0));
#553=AXIS2_PLACEMENT_3D('',#550,#551,#552);
#554=PLANE('',#553);
#555=ORIENTED_EDGE('',*,*,#464,.F.);
#556=CARTESIAN_POINT('',(0.0,0.0,-8.0));
#557=DIRECTION('',(0.0,0.0,1.0));
#558=DIRECTION('',(1.0,0.0,0.0));
#559=AXIS2_PLACEMENT_3D('',#556,#557,#558);
#560=CIRCLE('',#559,11.0);
#561=EDGE_CURVE('',#457,#146,#560,.T.);
#562=ORIENTED_EDGE('',*,*,#561,.T.);
#563=ORIENTED_EDGE('',*,*,#183,.F.);
#564=ORIENTED_EDGE('',*,*,#543,.F.);
#565=EDGE_LOOP('',(#555,#562,#563,#564));
#566=FACE_OUTER_BOUND('',#565,.T.);
#567=ADVANCED_FACE('',(#566),#554,.F.);
#568=CARTESIAN_POINT('',(11.0,0.0,-8.0));
#569=DIRECTION('',(0.0,0.0,1.0));
#570=DIRECTION('',(1.0,0.0,0.0));
#571=AXIS2_PLACEMENT_3D('',#568,#569,#570);
#572=PLANE('',#571);
#573=ORIENTED_EDGE('',*,*,#478,.F.);
#574=ORIENTED_EDGE('',*,*,#252,.F.);
#575=ORIENTED_EDGE('',*,*,#153,.F.);
#576=CARTESIAN_POINT('',(0.0,0.0,-8.0));
#577=DIRECTION('',(0.0,0.0,1.0));
#578=DIRECTION('',(1.0,0.0,0.0));
#579=AXIS2_PLACEMENT_3D('',#576,#577,#578);
#580=CIRCLE('',#579,11.0);
#581=EDGE_CURVE('',#146,#457,#580,.T.);
#582=ORIENTED_EDGE('',*,*,#581,.T.);
#583=EDGE_LOOP('',(#573,#574,#575,#582));
#584=FACE_OUTER_BOUND('',#583,.T.);
#585=ADVANCED_FACE('',(#584),#572,.F.);
#586=CARTESIAN_POINT('',(0.0,0.0,0.0));
#587=DIRECTION('',(0.0,0.0,-1.0));
#588=DIRECTION('',(1.0,0.0,0.0));
#589=AXIS2_PLACEMENT_3D('',#586,#587,#588);
#590=CYLINDRICAL_SURFACE('',#589,11.0);
#591=ORIENTED_EDGE('',*,*,#561,.F.);
#592=ORIENTED_EDGE('',*,*,#581,.F.);
#593=EDGE_LOOP('',(#591,#592));
#594=FACE_OUTER_BOUND('',#593,.T.);
#595=CARTESIAN_POINT('',(0.0,0.0,-41.000000000000007));
#596=DIRECTION('',(0.0,0.0,1.0));
#597=DIRECTION('',(1.0,0.0,0.0));
#598=AXIS2_PLACEMENT_3D('',#595,#596,#597);
#599=CIRCLE('',#598,11.0);
#600=EDGE_CURVE('',#309,#352,#599,.T.);
#601=ORIENTED_EDGE('',*,*,#600,.T.);
#602=ORIENTED_EDGE('',*,*,#425,.F.);
#603=ORIENTED_EDGE('',*,*,#298,.T.);
#604=ORIENTED_EDGE('',*,*,#409,.F.);
#605=EDGE_LOOP('',(#601,#602,#603,#604));
#606=FACE_BOUND('',#605,.T.);
#607=ADVANCED_FACE('',(#594,#606),#590,.T.);
#608=CARTESIAN_POINT('',(0.0,0.0,-53.533120400152299));
#609=DIRECTION('',(0.0,0.0,-1.0));
#610=DIRECTION('',(-1.0,0.0,0.0));
#611=AXIS2_PLACEMENT_3D('',#608,#609,#610);
#612=CONICAL_SURFACE('',#611,18.205615382136699,29.895710548569102);
#613=ORIENTED_EDGE('',*,*,#370,.F.);
#614=ORIENTED_EDGE('',*,*,#600,.F.);
#615=ORIENTED_EDGE('',*,*,#321,.F.);
#616=ORIENTED_EDGE('',*,*,#128,.T.);
#617=EDGE_LOOP('',(#613,#614,#615,#616));
#618=FACE_OUTER_BOUND('',#617,.T.);
#619=ADVANCED_FACE('',(#618),#612,.T.);
#620=CARTESIAN_POINT('',(-10.5,42.0,-41.000000000000007));
#621=DIRECTION('',(-1.0,0.0,0.0));
#622=DIRECTION('',(0.0,0.0,1.0));
#623=AXIS2_PLACEMENT_3D('',#620,#621,#622);
#624=PLANE('',#623);
#625=CARTESIAN_POINT('',(-10.5,-9.540979E-015,-54.314380505099308));
#626=VERTEX_POINT('',#625);
#627=CARTESIAN_POINT('',(-10.5,-9.540979E-015,-64.0));
#628=DIRECTION('',(-1.0,0.0,0.0));
#629=DIRECTION('',(0.0,0.0,1.0));
#630=AXIS2_PLACEMENT_3D('',#627,#628,#629);
#631=CIRCLE('',#630,9.68561949490066);
#632=EDGE_CURVE('',#626,#626,#631,.F.);
#633=ORIENTED_EDGE('',*,*,#632,.F.);
#634=EDGE_LOOP('',(#633));
#635=FACE_OUTER_BOUND('',#634,.T.);
#636=ORIENTED_EDGE('',*,*,#446,.T.);
#637=EDGE_LOOP('',(#636));
#638=FACE_BOUND('',#637,.T.);
#639=ADVANCED_FACE('',(#635,#638),#624,.T.);
#640=CARTESIAN_POINT('',(0.0,-9.540979E-015,-64.0));
#641=DIRECTION('',(0.0,0.0,1.0));
#642=DIRECTION('',(1.0,0.0,0.0));
#643=AXIS2_PLACEMENT_3D('',#640,#641,#642);
#644=SPHERICAL_SURFACE('',#643,14.285);
#645=ORIENTED_EDGE('',*,*,#382,.T.);
#646=EDGE_LOOP('',(#645));
#647=FACE_OUTER_BOUND('',#646,.T.);
#648=ORIENTED_EDGE('',*,*,#632,.T.);
#649=EDGE_LOOP('',(#648));
#650=FACE_BOUND('',#649,.T.);
#651=ADVANCED_FACE('',(#647,#650),#644,.T.);
#652=CLOSED_SHELL('',(#95,#139,#187,#231,#256,#302,#344,#386,#398,#414,#430,#450,#482,#499,#519,#531,#549,#567,#585,#607,#619,#639,#651));
#653=MANIFOLD_SOLID_BREP('SSFI16',#652);
#654=DRAUGHTING_PRE_DEFINED_COLOUR('white');
#655=FILL_AREA_STYLE_COLOUR('Cromo',#654);
#656=FILL_AREA_STYLE('Cromo',(#655));
#657=SURFACE_STYLE_FILL_AREA(#656);
#658=SURFACE_SIDE_STYLE('Cromo',(#657));
#659=SURFACE_STYLE_USAGE(.BOTH.,#658);
#660=PRESENTATION_STYLE_ASSIGNMENT((#659));
#661=STYLED_ITEM('',(#660),#653);
#662=MECHANICAL_DESIGN_GEOMETRIC_PRESENTATION_REPRESENTATION('',(#661),#36);
#663=ADVANCED_BREP_SHAPE_REPRESENTATION('ABSR',(#653),#36);
#664=SHAPE_REPRESENTATION_RELATIONSHIP('SRR','None',#663,#41);
ENDSEC;
END-ISO-10303-21;
