ISO-10303-21;
HEADER;
/****************************************************************
 * Generated by software with PDElib inside                    *
 * PDElib Version v51a, created Tue 11/30/2010                  *
 * ITI Transcendata (http://www.transcendata.com/)              *
 ****************************************************************/
FILE_DESCRIPTION((''),'2;1');
FILE_NAME('T:\\Archivio Inventor\\- FISSAGGI NUOVI\\- SSFE\\SSFE10x1.5\\SSFE10x1.5.stp','2013-12-04T16:39:35',('carlo.corazza'),(''),'Autodesk Inventor 2012','Autodesk Inventor 2012','');
FILE_SCHEMA(('AUTOMOTIVE_DESIGN { 1 0 10303 214 1 1 1 1 }'));
ENDSEC;
DATA;
#5=APPLICATION_CONTEXT('automotive design');
#6=APPLICATION_PROTOCOL_DEFINITION('International Standard','automotive_design',2001,#5);
#7=PRODUCT_CONTEXT('',#5,'mechanical');
#8=PRODUCT('SSFE10x1.5','SSFE10x1.5',$,(#7));
#9=PRODUCT_RELATED_PRODUCT_CATEGORY('part',$,(#8));
#10=PRODUCT_DEFINITION_FORMATION('',$,#8);
#11=PRODUCT_DEFINITION_CONTEXT('part definition',#5,'design');
#12=PRODUCT_DEFINITION('',$,#10,#11);
#18=(NAMED_UNIT(*)PLANE_ANGLE_UNIT()SI_UNIT($,.RADIAN.));
#19=DIMENSIONAL_EXPONENTS(0.0,0.0,0.0,0.0,0.0,0.0,0.0);
#20=PLANE_ANGLE_MEASURE_WITH_UNIT(PLANE_ANGLE_MEASURE(0.0174532925),#18);
#24=(CONVERSION_BASED_UNIT('DEGREE',#20)NAMED_UNIT(#19)PLANE_ANGLE_UNIT());
#28=(NAMED_UNIT(*)SI_UNIT($,.STERADIAN.)SOLID_ANGLE_UNIT());
#32=(LENGTH_UNIT()NAMED_UNIT(*)SI_UNIT(.MILLI.,.METRE.));
#34=UNCERTAINTY_MEASURE_WITH_UNIT(LENGTH_MEASURE(0.01),#32,'DISTANCE_ACCURACY_VALUE','');
#36=(GEOMETRIC_REPRESENTATION_CONTEXT(3)GLOBAL_UNCERTAINTY_ASSIGNED_CONTEXT((#34))GLOBAL_UNIT_ASSIGNED_CONTEXT((#24,#28,#32))REPRESENTATION_CONTEXT('None','None'));
#37=AXIS2_PLACEMENT_3D('',#38,#39,#40);
#38=CARTESIAN_POINT('',(0.0,0.0,0.0));
#39=DIRECTION('',(0.0,0.0,1.0));
#40=DIRECTION('',(1.0,0.0,0.0));
#41=SHAPE_REPRESENTATION('',(#37),#36);
#42=PRODUCT_DEFINITION_SHAPE('','',#12);
#43=SHAPE_DEFINITION_REPRESENTATION(#42,#41);
#49=(NAMED_UNIT(*)PLANE_ANGLE_UNIT()SI_UNIT($,.RADIAN.));
#50=DIMENSIONAL_EXPONENTS(0.0,0.0,0.0,0.0,0.0,0.0,0.0);
#51=PLANE_ANGLE_MEASURE_WITH_UNIT(PLANE_ANGLE_MEASURE(0.0174532925),#49);
#55=(CONVERSION_BASED_UNIT('DEGREE',#51)NAMED_UNIT(#50)PLANE_ANGLE_UNIT());
#59=(NAMED_UNIT(*)SI_UNIT($,.STERADIAN.)SOLID_ANGLE_UNIT());
#63=(LENGTH_UNIT()NAMED_UNIT(*)SI_UNIT(.MILLI.,.METRE.));
#65=UNCERTAINTY_MEASURE_WITH_UNIT(LENGTH_MEASURE(0.000001),#63,'DISTANCE_ACCURACY_VALUE','');
#67=(GEOMETRIC_REPRESENTATION_CONTEXT(3)GLOBAL_UNCERTAINTY_ASSIGNED_CONTEXT((#65))GLOBAL_UNIT_ASSIGNED_CONTEXT((#55,#59,#63))REPRESENTATION_CONTEXT('','3D'));
#68=CARTESIAN_POINT('',(7.000000000000001,28.000000000000004,-63.000000000000007));
#69=DIRECTION('',(1.0,0.0,0.0));
#70=DIRECTION('',(0.0,0.0,-1.0));
#71=AXIS2_PLACEMENT_3D('',#68,#69,#70);
#72=PLANE('',#71);
#73=CARTESIAN_POINT('',(7.000000000000001,2.602085E-015,-54.459537522145105));
#74=VERTEX_POINT('',#73);
#75=CARTESIAN_POINT('',(7.000000000000001,2.602085E-015,-48.000000000000007));
#76=DIRECTION('',(1.0,0.0,0.0));
#77=DIRECTION('',(0.0,0.0,-1.0));
#78=AXIS2_PLACEMENT_3D('',#75,#76,#77);
#79=CIRCLE('',#78,6.459537522145062);
#80=EDGE_CURVE('',#74,#74,#79,.F.);
#81=ORIENTED_EDGE('',*,*,#80,.F.);
#82=EDGE_LOOP('',(#81));
#83=FACE_OUTER_BOUND('',#82,.T.);
#84=CARTESIAN_POINT('',(7.000000000000001,0.0,-53.000000000000007));
#85=VERTEX_POINT('',#84);
#86=CARTESIAN_POINT('',(7.000000000000001,0.0,-48.000000000000007));
#87=DIRECTION('',(1.0,0.0,0.0));
#88=DIRECTION('',(0.0,0.0,-1.0));
#89=AXIS2_PLACEMENT_3D('',#86,#87,#88);
#90=CIRCLE('',#89,5.0);
#91=EDGE_CURVE('',#85,#85,#90,.F.);
#92=ORIENTED_EDGE('',*,*,#91,.T.);
#93=EDGE_LOOP('',(#92));
#94=FACE_BOUND('',#93,.T.);
#95=ADVANCED_FACE('',(#83,#94),#72,.T.);
#96=CARTESIAN_POINT('',(6.938894E-015,0.0,-48.000000000000007));
#97=DIRECTION('',(0.0,0.0,1.0));
#98=DIRECTION('',(1.0,0.0,0.0));
#99=AXIS2_PLACEMENT_3D('',#96,#97,#98);
#100=SPHERICAL_SURFACE('',#99,14.000000000000002);
#101=CARTESIAN_POINT('',(-5.25,-10.537186698360902,-40.423378293468403));
#102=VERTEX_POINT('',#101);
#103=CARTESIAN_POINT('',(5.25,-10.537186698360902,-40.423378293468403));
#104=VERTEX_POINT('',#103);
#105=CARTESIAN_POINT('',(0.0,0.0,-40.423378293468403));
#106=DIRECTION('',(0.0,0.0,1.0));
#107=DIRECTION('',(1.0,0.0,0.0));
#108=AXIS2_PLACEMENT_3D('',#105,#106,#107);
#109=CIRCLE('',#108,11.772629422355701);
#110=EDGE_CURVE('',#102,#104,#109,.T.);
#111=ORIENTED_EDGE('',*,*,#110,.F.);
#112=CARTESIAN_POINT('',(-5.25,10.537186698360902,-40.423378293468403));
#113=VERTEX_POINT('',#112);
#114=CARTESIAN_POINT('',(-5.25,0.0,-48.000000000000007));
#115=DIRECTION('',(-1.0,0.0,0.0));
#116=DIRECTION('',(0.0,0.0,1.0));
#117=AXIS2_PLACEMENT_3D('',#114,#115,#116);
#118=CIRCLE('',#117,12.978347352417398);
#119=EDGE_CURVE('',#102,#113,#118,.F.);
#120=ORIENTED_EDGE('',*,*,#119,.T.);
#121=CARTESIAN_POINT('',(5.25,10.537186698360902,-40.423378293468403));
#122=VERTEX_POINT('',#121);
#123=CARTESIAN_POINT('',(0.0,0.0,-40.423378293468403));
#124=DIRECTION('',(0.0,0.0,1.0));
#125=DIRECTION('',(1.0,0.0,0.0));
#126=AXIS2_PLACEMENT_3D('',#123,#124,#125);
#127=CIRCLE('',#126,11.772629422355701);
#128=EDGE_CURVE('',#122,#113,#127,.T.);
#129=ORIENTED_EDGE('',*,*,#128,.F.);
#130=CARTESIAN_POINT('',(5.25,0.0,-48.000000000000007));
#131=DIRECTION('',(1.0,0.0,0.0));
#132=DIRECTION('',(0.0,0.0,-1.0));
#133=AXIS2_PLACEMENT_3D('',#130,#131,#132);
#134=CIRCLE('',#133,12.978347352417398);
#135=EDGE_CURVE('',#122,#104,#134,.F.);
#136=ORIENTED_EDGE('',*,*,#135,.T.);
#137=EDGE_LOOP('',(#111,#120,#129,#136));
#138=FACE_OUTER_BOUND('',#137,.T.);
#139=ADVANCED_FACE('',(#138),#100,.T.);
#140=CARTESIAN_POINT('',(5.25,28.000000000000004,-63.000000000000007));
#141=DIRECTION('',(1.0,0.0,0.0));
#142=DIRECTION('',(0.0,0.0,-1.0));
#143=AXIS2_PLACEMENT_3D('',#140,#141,#142);
#144=PLANE('',#143);
#145=ORIENTED_EDGE('',*,*,#135,.F.);
#146=CARTESIAN_POINT('',(5.249999999999999,-25.10182552718598,-61.978347352417401));
#147=CARTESIAN_POINT('',(5.249999999999999,0.0,-23.800942772174643));
#148=CARTESIAN_POINT('',(5.249999999999999,25.10182552718598,-61.978347352417401));
#156=(BOUNDED_CURVE()B_SPLINE_CURVE(2,(#146,#147,#148),.UNSPECIFIED.,.F.,.U.)B_SPLINE_CURVE_WITH_KNOTS((3,3),(0.0,8.085421653723754),.UNSPECIFIED.)CURVE()GEOMETRIC_REPRESENTATION_ITEM()RATIONAL_B_SPLINE_CURVE((1.0,4.88475492222913,1.0))REPRESENTATION_ITEM(''));
#157=EDGE_CURVE('',#122,#104,#156,.F.);
#158=ORIENTED_EDGE('',*,*,#157,.T.);
#159=EDGE_LOOP('',(#145,#158));
#160=FACE_OUTER_BOUND('',#159,.T.);
#161=CARTESIAN_POINT('',(5.25,2.602085E-015,-55.947523199085403));
#162=VERTEX_POINT('',#161);
#163=CARTESIAN_POINT('',(5.25,2.602085E-015,-48.000000000000007));
#164=DIRECTION('',(1.0,0.0,0.0));
#165=DIRECTION('',(0.0,0.0,-1.0));
#166=AXIS2_PLACEMENT_3D('',#163,#164,#165);
#167=CIRCLE('',#166,7.94752319908536);
#168=EDGE_CURVE('',#162,#162,#167,.T.);
#169=ORIENTED_EDGE('',*,*,#168,.F.);
#170=EDGE_LOOP('',(#169));
#171=FACE_BOUND('',#170,.T.);
#172=ADVANCED_FACE('',(#160,#171),#144,.T.);
#173=CARTESIAN_POINT('',(0.0,0.0,-40.423378293468403));
#174=DIRECTION('',(0.0,0.0,-1.0));
#175=DIRECTION('',(-1.0,0.0,0.0));
#176=AXIS2_PLACEMENT_3D('',#173,#174,#175);
#177=CONICAL_SURFACE('',#176,11.772629422355701,32.764497728435195);
#178=CARTESIAN_POINT('',(-5.249999999999999,-25.10182552718598,-61.978347352417401));
#179=CARTESIAN_POINT('',(-5.249999999999999,0.0,-23.800942772174643));
#180=CARTESIAN_POINT('',(-5.249999999999999,25.10182552718598,-61.978347352417401));
#188=(BOUNDED_CURVE()B_SPLINE_CURVE(2,(#178,#179,#180),.UNSPECIFIED.,.F.,.U.)B_SPLINE_CURVE_WITH_KNOTS((3,3),(0.0,8.085421653723754),.UNSPECIFIED.)CURVE()GEOMETRIC_REPRESENTATION_ITEM()RATIONAL_B_SPLINE_CURVE((1.0,4.88475492222913,1.0))REPRESENTATION_ITEM(''));
#189=EDGE_CURVE('',#102,#113,#188,.T.);
#190=ORIENTED_EDGE('',*,*,#189,.F.);
#191=ORIENTED_EDGE('',*,*,#110,.T.);
#192=ORIENTED_EDGE('',*,*,#157,.F.);
#193=ORIENTED_EDGE('',*,*,#128,.T.);
#194=EDGE_LOOP('',(#190,#191,#192,#193));
#195=FACE_OUTER_BOUND('',#194,.T.);
#196=CARTESIAN_POINT('',(5.00000000000001,0.0,-29.900000000000002));
#197=VERTEX_POINT('',#196);
#198=CARTESIAN_POINT('',(0.0,0.0,-29.900000000000002));
#199=DIRECTION('',(0.0,0.0,1.0));
#200=DIRECTION('',(1.0,0.0,0.0));
#201=AXIS2_PLACEMENT_3D('',#198,#199,#200);
#202=CIRCLE('',#201,5.00000000000001);
#203=EDGE_CURVE('',#197,#197,#202,.T.);
#204=ORIENTED_EDGE('',*,*,#203,.F.);
#205=EDGE_LOOP('',(#204));
#206=FACE_BOUND('',#205,.T.);
#207=ADVANCED_FACE('',(#195,#206),#177,.T.);
#208=CARTESIAN_POINT('',(0.0,0.0,0.0));
#209=DIRECTION('',(0.0,0.0,-1.0));
#210=DIRECTION('',(1.0,0.0,0.0));
#211=AXIS2_PLACEMENT_3D('',#208,#209,#210);
#212=CYLINDRICAL_SURFACE('',#211,5.00000000000001);
#213=CARTESIAN_POINT('',(5.00000000000001,0.0,-0.920000000000015));
#214=VERTEX_POINT('',#213);
#215=CARTESIAN_POINT('',(0.0,0.0,-0.920000000000015));
#216=DIRECTION('',(0.0,0.0,1.0));
#217=DIRECTION('',(1.0,0.0,0.0));
#218=AXIS2_PLACEMENT_3D('',#215,#216,#217);
#219=CIRCLE('',#218,5.00000000000001);
#220=EDGE_CURVE('',#214,#214,#219,.T.);
#221=ORIENTED_EDGE('',*,*,#220,.F.);
#222=EDGE_LOOP('',(#221));
#223=FACE_OUTER_BOUND('',#222,.T.);
#224=ORIENTED_EDGE('',*,*,#203,.T.);
#225=EDGE_LOOP('',(#224));
#226=FACE_BOUND('',#225,.T.);
#227=ADVANCED_FACE('',(#223,#226),#212,.T.);
#228=CARTESIAN_POINT('',(0.0,0.0,-0.920000000000015));
#229=DIRECTION('',(0.0,0.0,-1.0));
#230=DIRECTION('',(-1.0,0.0,0.0));
#231=AXIS2_PLACEMENT_3D('',#228,#229,#230);
#232=CONICAL_SURFACE('',#231,5.00000000000001,44.999999999999936);
#233=ORIENTED_EDGE('',*,*,#220,.T.);
#234=EDGE_LOOP('',(#233));
#235=FACE_OUTER_BOUND('',#234,.T.);
#236=CARTESIAN_POINT('',(4.079999999999989,0.0,0.0));
#237=VERTEX_POINT('',#236);
#238=CARTESIAN_POINT('',(0.0,0.0,0.0));
#239=DIRECTION('',(0.0,0.0,1.0));
#240=DIRECTION('',(1.0,0.0,0.0));
#241=AXIS2_PLACEMENT_3D('',#238,#239,#240);
#242=CIRCLE('',#241,4.079999999999989);
#243=EDGE_CURVE('',#237,#237,#242,.T.);
#244=ORIENTED_EDGE('',*,*,#243,.F.);
#245=EDGE_LOOP('',(#244));
#246=FACE_BOUND('',#245,.T.);
#247=ADVANCED_FACE('',(#235,#246),#232,.T.);
#248=CARTESIAN_POINT('',(4.079999999999989,0.0,0.0));
#249=DIRECTION('',(0.0,0.0,-1.0));
#250=DIRECTION('',(-1.0,0.0,0.0));
#251=AXIS2_PLACEMENT_3D('',#248,#249,#250);
#252=PLANE('',#251);
#253=ORIENTED_EDGE('',*,*,#243,.T.);
#254=EDGE_LOOP('',(#253));
#255=FACE_OUTER_BOUND('',#254,.T.);
#256=ADVANCED_FACE('',(#255),#252,.F.);
#257=CARTESIAN_POINT('',(28.000000000000004,0.0,-48.000000000000007));
#258=DIRECTION('',(1.0,0.0,0.0));
#259=DIRECTION('',(0.0,0.0,1.0));
#260=AXIS2_PLACEMENT_3D('',#257,#258,#259);
#261=CYLINDRICAL_SURFACE('',#260,5.0);
#262=ORIENTED_EDGE('',*,*,#91,.F.);
#263=EDGE_LOOP('',(#262));
#264=FACE_OUTER_BOUND('',#263,.T.);
#265=CARTESIAN_POINT('',(-7.000000000000001,0.0,-43.0));
#266=VERTEX_POINT('',#265);
#267=CARTESIAN_POINT('',(-7.000000000000001,0.0,-48.000000000000007));
#268=DIRECTION('',(-1.0,0.0,0.0));
#269=DIRECTION('',(0.0,0.0,1.0));
#270=AXIS2_PLACEMENT_3D('',#267,#268,#269);
#271=CIRCLE('',#270,5.0);
#272=EDGE_CURVE('',#266,#266,#271,.F.);
#273=ORIENTED_EDGE('',*,*,#272,.F.);
#274=EDGE_LOOP('',(#273));
#275=FACE_BOUND('',#274,.T.);
#276=ADVANCED_FACE('',(#264,#275),#261,.F.);
#277=CARTESIAN_POINT('',(-5.25,28.000000000000004,-28.000000000000004));
#278=DIRECTION('',(-1.0,0.0,0.0));
#279=DIRECTION('',(0.0,0.0,1.0));
#280=AXIS2_PLACEMENT_3D('',#277,#278,#279);
#281=PLANE('',#280);
#282=ORIENTED_EDGE('',*,*,#189,.T.);
#283=ORIENTED_EDGE('',*,*,#119,.F.);
#284=EDGE_LOOP('',(#282,#283));
#285=FACE_OUTER_BOUND('',#284,.T.);
#286=CARTESIAN_POINT('',(-5.25,2.602085E-015,-40.052476800914604));
#287=VERTEX_POINT('',#286);
#288=CARTESIAN_POINT('',(-5.25,2.602085E-015,-48.000000000000007));
#289=DIRECTION('',(-1.0,0.0,0.0));
#290=DIRECTION('',(0.0,0.0,1.0));
#291=AXIS2_PLACEMENT_3D('',#288,#289,#290);
#292=CIRCLE('',#291,7.94752319908536);
#293=EDGE_CURVE('',#287,#287,#292,.T.);
#294=ORIENTED_EDGE('',*,*,#293,.F.);
#295=EDGE_LOOP('',(#294));
#296=FACE_BOUND('',#295,.T.);
#297=ADVANCED_FACE('',(#285,#296),#281,.T.);
#298=CARTESIAN_POINT('',(0.0,2.602085E-015,-48.000000000000007));
#299=DIRECTION('',(0.0,0.0,1.0));
#300=DIRECTION('',(1.0,0.0,0.0));
#301=AXIS2_PLACEMENT_3D('',#298,#299,#300);
#302=SPHERICAL_SURFACE('',#301,9.525000000000002);
#303=ORIENTED_EDGE('',*,*,#168,.T.);
#304=EDGE_LOOP('',(#303));
#305=FACE_OUTER_BOUND('',#304,.T.);
#306=ORIENTED_EDGE('',*,*,#80,.T.);
#307=EDGE_LOOP('',(#306));
#308=FACE_BOUND('',#307,.T.);
#309=ADVANCED_FACE('',(#305,#308),#302,.T.);
#310=CARTESIAN_POINT('',(-7.000000000000001,28.000000000000004,0.0));
#311=DIRECTION('',(-1.0,0.0,0.0));
#312=DIRECTION('',(0.0,0.0,1.0));
#313=AXIS2_PLACEMENT_3D('',#310,#311,#312);
#314=PLANE('',#313);
#315=CARTESIAN_POINT('',(-7.000000000000001,2.602085E-015,-41.540462477854902));
#316=VERTEX_POINT('',#315);
#317=CARTESIAN_POINT('',(-7.000000000000001,2.602085E-015,-48.000000000000007));
#318=DIRECTION('',(-1.0,0.0,0.0));
#319=DIRECTION('',(0.0,0.0,1.0));
#320=AXIS2_PLACEMENT_3D('',#317,#318,#319);
#321=CIRCLE('',#320,6.459537522145062);
#322=EDGE_CURVE('',#316,#316,#321,.F.);
#323=ORIENTED_EDGE('',*,*,#322,.F.);
#324=EDGE_LOOP('',(#323));
#325=FACE_OUTER_BOUND('',#324,.T.);
#326=ORIENTED_EDGE('',*,*,#272,.T.);
#327=EDGE_LOOP('',(#326));
#328=FACE_BOUND('',#327,.T.);
#329=ADVANCED_FACE('',(#325,#328),#314,.T.);
#330=CARTESIAN_POINT('',(0.0,2.602085E-015,-48.000000000000007));
#331=DIRECTION('',(0.0,0.0,1.0));
#332=DIRECTION('',(1.0,0.0,0.0));
#333=AXIS2_PLACEMENT_3D('',#330,#331,#332);
#334=SPHERICAL_SURFACE('',#333,9.525000000000002);
#335=ORIENTED_EDGE('',*,*,#293,.T.);
#336=EDGE_LOOP('',(#335));
#337=FACE_OUTER_BOUND('',#336,.T.);
#338=ORIENTED_EDGE('',*,*,#322,.T.);
#339=EDGE_LOOP('',(#338));
#340=FACE_BOUND('',#339,.T.);
#341=ADVANCED_FACE('',(#337,#340),#334,.T.);
#342=CLOSED_SHELL('',(#95,#139,#172,#207,#227,#247,#256,#276,#297,#309,#329,#341));
#343=MANIFOLD_SOLID_BREP('SSFE10',#342);
#344=COLOUR_RGB('Zinco',0.67843097448349,0.768626987934113,0.811765015125275);
#345=FILL_AREA_STYLE_COLOUR('Zinco',#344);
#346=FILL_AREA_STYLE('Zinco',(#345));
#347=SURFACE_STYLE_FILL_AREA(#346);
#348=SURFACE_SIDE_STYLE('Zinco',(#347));
#349=SURFACE_STYLE_USAGE(.BOTH.,#348);
#350=PRESENTATION_STYLE_ASSIGNMENT((#349));
#351=STYLED_ITEM('',(#350),#343);
#352=MECHANICAL_DESIGN_GEOMETRIC_PRESENTATION_REPRESENTATION('',(#351),#36);
#353=ADVANCED_BREP_SHAPE_REPRESENTATION('ABSR',(#343),#36);
#354=SHAPE_REPRESENTATION_RELATIONSHIP('SRR','None',#353,#41);
ENDSEC;
END-ISO-10303-21;
