ISO-10303-21;
HEADER;
/****************************************************************
 * Generated by software with PDElib inside                    *
 * PDElib Version v51a, created Tue 11/30/2010                  *
 * ITI Transcendata (http://www.transcendata.com/)              *
 ****************************************************************/
FILE_DESCRIPTION((''),'2;1');
FILE_NAME('T:\\Archivio Inventor\\- FISSAGGI NUOVI\\- SSFE\\SSFE16x2\\SSFE16x2.stp','2013-12-04T16:43:33',('carlo.corazza'),(''),'Autodesk Inventor 2012','Autodesk Inventor 2012','');
FILE_SCHEMA(('AUTOMOTIVE_DESIGN { 1 0 10303 214 1 1 1 1 }'));
ENDSEC;
DATA;
#5=APPLICATION_CONTEXT('automotive design');
#6=APPLICATION_PROTOCOL_DEFINITION('International Standard','automotive_design',2001,#5);
#7=PRODUCT_CONTEXT('',#5,'mechanical');
#8=PRODUCT('SSFE16x2','SSFE16x2',$,(#7));
#9=PRODUCT_RELATED_PRODUCT_CATEGORY('part',$,(#8));
#10=PRODUCT_DEFINITION_FORMATION('',$,#8);
#11=PRODUCT_DEFINITION_CONTEXT('part definition',#5,'design');
#12=PRODUCT_DEFINITION('',$,#10,#11);
#18=(NAMED_UNIT(*)PLANE_ANGLE_UNIT()SI_UNIT($,.RADIAN.));
#19=DIMENSIONAL_EXPONENTS(0.0,0.0,0.0,0.0,0.0,0.0,0.0);
#20=PLANE_ANGLE_MEASURE_WITH_UNIT(PLANE_ANGLE_MEASURE(0.0174532925),#18);
#24=(CONVERSION_BASED_UNIT('DEGREE',#20)NAMED_UNIT(#19)PLANE_ANGLE_UNIT());
#28=(NAMED_UNIT(*)SI_UNIT($,.STERADIAN.)SOLID_ANGLE_UNIT());
#32=(LENGTH_UNIT()NAMED_UNIT(*)SI_UNIT(.MILLI.,.METRE.));
#34=UNCERTAINTY_MEASURE_WITH_UNIT(LENGTH_MEASURE(0.01),#32,'DISTANCE_ACCURACY_VALUE','');
#36=(GEOMETRIC_REPRESENTATION_CONTEXT(3)GLOBAL_UNCERTAINTY_ASSIGNED_CONTEXT((#34))GLOBAL_UNIT_ASSIGNED_CONTEXT((#24,#28,#32))REPRESENTATION_CONTEXT('None','None'));
#37=AXIS2_PLACEMENT_3D('',#38,#39,#40);
#38=CARTESIAN_POINT('',(0.0,0.0,0.0));
#39=DIRECTION('',(0.0,0.0,1.0));
#40=DIRECTION('',(1.0,0.0,0.0));
#41=SHAPE_REPRESENTATION('',(#37),#36);
#42=PRODUCT_DEFINITION_SHAPE('','',#12);
#43=SHAPE_DEFINITION_REPRESENTATION(#42,#41);
#49=(NAMED_UNIT(*)PLANE_ANGLE_UNIT()SI_UNIT($,.RADIAN.));
#50=DIMENSIONAL_EXPONENTS(0.0,0.0,0.0,0.0,0.0,0.0,0.0);
#51=PLANE_ANGLE_MEASURE_WITH_UNIT(PLANE_ANGLE_MEASURE(0.0174532925),#49);
#55=(CONVERSION_BASED_UNIT('DEGREE',#51)NAMED_UNIT(#50)PLANE_ANGLE_UNIT());
#59=(NAMED_UNIT(*)SI_UNIT($,.STERADIAN.)SOLID_ANGLE_UNIT());
#63=(LENGTH_UNIT()NAMED_UNIT(*)SI_UNIT(.MILLI.,.METRE.));
#65=UNCERTAINTY_MEASURE_WITH_UNIT(LENGTH_MEASURE(0.000001),#63,'DISTANCE_ACCURACY_VALUE','');
#67=(GEOMETRIC_REPRESENTATION_CONTEXT(3)GLOBAL_UNCERTAINTY_ASSIGNED_CONTEXT((#65))GLOBAL_UNIT_ASSIGNED_CONTEXT((#55,#59,#63))REPRESENTATION_CONTEXT('','3D'));
#68=CARTESIAN_POINT('',(10.5,42.0,-88.0));
#69=DIRECTION('',(1.0,0.0,0.0));
#70=DIRECTION('',(0.0,0.0,-1.0));
#71=AXIS2_PLACEMENT_3D('',#68,#69,#70);
#72=PLANE('',#71);
#73=CARTESIAN_POINT('',(10.5,-9.540979E-015,-75.685619494900692));
#74=VERTEX_POINT('',#73);
#75=CARTESIAN_POINT('',(10.5,-9.540979E-015,-66.0));
#76=DIRECTION('',(1.0,0.0,0.0));
#77=DIRECTION('',(0.0,0.0,-1.0));
#78=AXIS2_PLACEMENT_3D('',#75,#76,#77);
#79=CIRCLE('',#78,9.685619494900672);
#80=EDGE_CURVE('',#74,#74,#79,.F.);
#81=ORIENTED_EDGE('',*,*,#80,.F.);
#82=EDGE_LOOP('',(#81));
#83=FACE_OUTER_BOUND('',#82,.T.);
#84=CARTESIAN_POINT('',(10.5,0.0,-74.0));
#85=VERTEX_POINT('',#84);
#86=CARTESIAN_POINT('',(10.5,0.0,-66.0));
#87=DIRECTION('',(1.0,0.0,0.0));
#88=DIRECTION('',(0.0,0.0,-1.0));
#89=AXIS2_PLACEMENT_3D('',#86,#87,#88);
#90=CIRCLE('',#89,8.0);
#91=EDGE_CURVE('',#85,#85,#90,.F.);
#92=ORIENTED_EDGE('',*,*,#91,.T.);
#93=EDGE_LOOP('',(#92));
#94=FACE_BOUND('',#93,.T.);
#95=ADVANCED_FACE('',(#83,#94),#72,.T.);
#96=CARTESIAN_POINT('',(-1.561251E-014,0.0,-66.0));
#97=DIRECTION('',(0.0,0.0,1.0));
#98=DIRECTION('',(1.0,0.0,0.0));
#99=AXIS2_PLACEMENT_3D('',#96,#97,#98);
#100=SPHERICAL_SURFACE('',#99,21.0);
#101=CARTESIAN_POINT('',(-7.5,-16.034886576886798,-54.702548408319004));
#102=VERTEX_POINT('',#101);
#103=CARTESIAN_POINT('',(7.5,-16.034886576886798,-54.702548408319004));
#104=VERTEX_POINT('',#103);
#105=CARTESIAN_POINT('',(-2.637784E-015,0.0,-54.702548408319004));
#106=DIRECTION('',(0.0,0.0,1.0));
#107=DIRECTION('',(1.0,0.0,0.0));
#108=AXIS2_PLACEMENT_3D('',#105,#106,#107);
#109=CIRCLE('',#108,17.7021916025565);
#110=EDGE_CURVE('',#102,#104,#109,.T.);
#111=ORIENTED_EDGE('',*,*,#110,.F.);
#112=CARTESIAN_POINT('',(-7.5,16.034886576886798,-54.702548408319004));
#113=VERTEX_POINT('',#112);
#114=CARTESIAN_POINT('',(-7.5,0.0,-66.0));
#115=DIRECTION('',(-1.0,0.0,0.0));
#116=DIRECTION('',(0.0,0.0,1.0));
#117=AXIS2_PLACEMENT_3D('',#114,#115,#116);
#118=CIRCLE('',#117,19.615045245933);
#119=EDGE_CURVE('',#102,#113,#118,.F.);
#120=ORIENTED_EDGE('',*,*,#119,.T.);
#121=CARTESIAN_POINT('',(7.5,16.034886576886798,-54.702548408319004));
#122=VERTEX_POINT('',#121);
#123=CARTESIAN_POINT('',(-2.637784E-015,0.0,-54.702548408319004));
#124=DIRECTION('',(0.0,0.0,1.0));
#125=DIRECTION('',(1.0,0.0,0.0));
#126=AXIS2_PLACEMENT_3D('',#123,#124,#125);
#127=CIRCLE('',#126,17.7021916025565);
#128=EDGE_CURVE('',#122,#113,#127,.T.);
#129=ORIENTED_EDGE('',*,*,#128,.F.);
#130=CARTESIAN_POINT('',(7.5,0.0,-66.0));
#131=DIRECTION('',(1.0,0.0,0.0));
#132=DIRECTION('',(0.0,0.0,-1.0));
#133=AXIS2_PLACEMENT_3D('',#130,#131,#132);
#134=CIRCLE('',#133,19.615045245933);
#135=EDGE_CURVE('',#122,#104,#134,.F.);
#136=ORIENTED_EDGE('',*,*,#135,.T.);
#137=EDGE_LOOP('',(#111,#120,#129,#136));
#138=FACE_OUTER_BOUND('',#137,.T.);
#139=ADVANCED_FACE('',(#138),#100,.T.);
#140=CARTESIAN_POINT('',(-7.105427E-015,0.0,0.0));
#141=DIRECTION('',(0.0,0.0,-1.0));
#142=DIRECTION('',(1.0,0.0,0.0));
#143=AXIS2_PLACEMENT_3D('',#140,#141,#142);
#144=CYLINDRICAL_SURFACE('',#143,8.0);
#145=CARTESIAN_POINT('',(7.99999999999999,0.0,-1.22699999999999));
#146=VERTEX_POINT('',#145);
#147=CARTESIAN_POINT('',(-7.005216E-015,0.0,-1.22699999999999));
#148=DIRECTION('',(0.0,0.0,1.0));
#149=DIRECTION('',(1.0,0.0,0.0));
#150=AXIS2_PLACEMENT_3D('',#147,#148,#149);
#151=CIRCLE('',#150,8.0);
#152=EDGE_CURVE('',#146,#146,#151,.T.);
#153=ORIENTED_EDGE('',*,*,#152,.F.);
#154=EDGE_LOOP('',(#153));
#155=FACE_OUTER_BOUND('',#154,.T.);
#156=CARTESIAN_POINT('',(-7.5,-2.78388218141502,-39.5));
#157=VERTEX_POINT('',#156);
#158=CARTESIAN_POINT('',(-7.5,-2.78388218141502,-37.0));
#159=VERTEX_POINT('',#158);
#160=CARTESIAN_POINT('',(-7.5,-2.78388218141503,-39.5));
#161=DIRECTION('',(0.0,0.0,1.0));
#162=VECTOR('',#161,2.5);
#163=LINE('',#160,#162);
#164=EDGE_CURVE('',#157,#159,#163,.T.);
#165=ORIENTED_EDGE('',*,*,#164,.F.);
#166=CARTESIAN_POINT('',(7.5,-2.783882181415,-39.5));
#167=VERTEX_POINT('',#166);
#168=CARTESIAN_POINT('',(-3.879400E-015,0.0,-39.5));
#169=DIRECTION('',(0.0,0.0,1.0));
#170=DIRECTION('',(1.0,0.0,0.0));
#171=AXIS2_PLACEMENT_3D('',#168,#169,#170);
#172=CIRCLE('',#171,8.0);
#173=EDGE_CURVE('',#157,#167,#172,.T.);
#174=ORIENTED_EDGE('',*,*,#173,.T.);
#175=CARTESIAN_POINT('',(7.5,-2.783882181415,-37.0));
#176=VERTEX_POINT('',#175);
#177=CARTESIAN_POINT('',(7.5,-2.783882181415,-39.5));
#178=DIRECTION('',(0.0,0.0,1.0));
#179=VECTOR('',#178,2.5);
#180=LINE('',#177,#179);
#181=EDGE_CURVE('',#176,#167,#180,.F.);
#182=ORIENTED_EDGE('',*,*,#181,.F.);
#183=CARTESIAN_POINT('',(7.5,2.783882181415,-37.0));
#184=VERTEX_POINT('',#183);
#185=CARTESIAN_POINT('',(-4.083579E-015,0.0,-37.0));
#186=DIRECTION('',(0.0,0.0,-1.0));
#187=DIRECTION('',(-1.0,0.0,0.0));
#188=AXIS2_PLACEMENT_3D('',#185,#186,#187);
#189=CIRCLE('',#188,8.0);
#190=EDGE_CURVE('',#184,#176,#189,.T.);
#191=ORIENTED_EDGE('',*,*,#190,.F.);
#192=CARTESIAN_POINT('',(7.5,2.783882181415,-39.5));
#193=VERTEX_POINT('',#192);
#194=CARTESIAN_POINT('',(7.5,2.783882181415,-39.5));
#195=DIRECTION('',(0.0,0.0,1.0));
#196=VECTOR('',#195,2.5);
#197=LINE('',#194,#196);
#198=EDGE_CURVE('',#193,#184,#197,.T.);
#199=ORIENTED_EDGE('',*,*,#198,.F.);
#200=CARTESIAN_POINT('',(-7.499999999999991,2.78388218141503,-39.5));
#201=VERTEX_POINT('',#200);
#202=CARTESIAN_POINT('',(-3.879400E-015,0.0,-39.5));
#203=DIRECTION('',(0.0,0.0,1.0));
#204=DIRECTION('',(1.0,0.0,0.0));
#205=AXIS2_PLACEMENT_3D('',#202,#203,#204);
#206=CIRCLE('',#205,8.0);
#207=EDGE_CURVE('',#193,#201,#206,.T.);
#208=ORIENTED_EDGE('',*,*,#207,.T.);
#209=CARTESIAN_POINT('',(-7.5,2.78388218141503,-37.0));
#210=VERTEX_POINT('',#209);
#211=CARTESIAN_POINT('',(-7.5,2.78388218141503,-39.5));
#212=DIRECTION('',(0.0,0.0,1.0));
#213=VECTOR('',#212,2.5);
#214=LINE('',#211,#213);
#215=EDGE_CURVE('',#210,#201,#214,.F.);
#216=ORIENTED_EDGE('',*,*,#215,.F.);
#217=CARTESIAN_POINT('',(-4.083579E-015,0.0,-37.0));
#218=DIRECTION('',(0.0,0.0,-1.0));
#219=DIRECTION('',(-1.0,0.0,0.0));
#220=AXIS2_PLACEMENT_3D('',#217,#218,#219);
#221=CIRCLE('',#220,8.0);
#222=EDGE_CURVE('',#159,#210,#221,.T.);
#223=ORIENTED_EDGE('',*,*,#222,.F.);
#224=EDGE_LOOP('',(#165,#174,#182,#191,#199,#208,#216,#223));
#225=FACE_BOUND('',#224,.T.);
#226=ADVANCED_FACE('',(#155,#225),#144,.T.);
#227=CARTESIAN_POINT('',(7.5,42.0,-88.0));
#228=DIRECTION('',(1.0,0.0,0.0));
#229=DIRECTION('',(0.0,0.0,-1.0));
#230=AXIS2_PLACEMENT_3D('',#227,#228,#229);
#231=PLANE('',#230);
#232=ORIENTED_EDGE('',*,*,#198,.T.);
#233=CARTESIAN_POINT('',(7.5,2.783882181415,-37.0));
#234=DIRECTION('',(0.0,-1.0,0.0));
#235=VECTOR('',#234,5.567764362829999);
#236=LINE('',#233,#235);
#237=EDGE_CURVE('',#184,#176,#236,.T.);
#238=ORIENTED_EDGE('',*,*,#237,.T.);
#239=ORIENTED_EDGE('',*,*,#181,.T.);
#240=CARTESIAN_POINT('',(7.5,37.322480505320392,-86.61504524593299));
#241=CARTESIAN_POINT('',(7.5,0.0,-29.279921363438248));
#242=CARTESIAN_POINT('',(7.5,-37.322480505320392,-86.61504524593299));
#250=(BOUNDED_CURVE()B_SPLINE_CURVE(2,(#240,#241,#242),.UNSPECIFIED.,.F.,.U.)B_SPLINE_CURVE_WITH_KNOTS((3,3),(0.0,12.144520259255241),.UNSPECIFIED.)CURVE()GEOMETRIC_REPRESENTATION_ITEM()RATIONAL_B_SPLINE_CURVE((1.0,5.075812011351302,1.0))REPRESENTATION_ITEM(''));
#251=EDGE_CURVE('',#167,#104,#250,.T.);
#252=ORIENTED_EDGE('',*,*,#251,.T.);
#253=ORIENTED_EDGE('',*,*,#135,.F.);
#254=CARTESIAN_POINT('',(7.5,37.322480505320392,-86.61504524593299));
#255=CARTESIAN_POINT('',(7.5,0.0,-29.279921363438248));
#256=CARTESIAN_POINT('',(7.5,-37.322480505320392,-86.61504524593299));
#264=(BOUNDED_CURVE()B_SPLINE_CURVE(2,(#254,#255,#256),.UNSPECIFIED.,.F.,.U.)B_SPLINE_CURVE_WITH_KNOTS((3,3),(0.0,12.144520259255241),.UNSPECIFIED.)CURVE()GEOMETRIC_REPRESENTATION_ITEM()RATIONAL_B_SPLINE_CURVE((1.0,5.075812011351302,1.0))REPRESENTATION_ITEM(''));
#265=EDGE_CURVE('',#122,#193,#264,.T.);
#266=ORIENTED_EDGE('',*,*,#265,.T.);
#267=EDGE_LOOP('',(#232,#238,#239,#252,#253,#266));
#268=FACE_OUTER_BOUND('',#267,.T.);
#269=CARTESIAN_POINT('',(7.5,-9.540979E-015,-78.157763980271994));
#270=VERTEX_POINT('',#269);
#271=CARTESIAN_POINT('',(7.5,-9.540979E-015,-66.0));
#272=DIRECTION('',(1.0,0.0,0.0));
#273=DIRECTION('',(0.0,0.0,-1.0));
#274=AXIS2_PLACEMENT_3D('',#271,#272,#273);
#275=CIRCLE('',#274,12.157763980272001);
#276=EDGE_CURVE('',#270,#270,#275,.T.);
#277=ORIENTED_EDGE('',*,*,#276,.F.);
#278=EDGE_LOOP('',(#277));
#279=FACE_BOUND('',#278,.T.);
#280=ADVANCED_FACE('',(#268,#279),#231,.T.);
#281=CARTESIAN_POINT('',(7.5,42.0,-37.0));
#282=DIRECTION('',(0.0,0.0,-1.0));
#283=DIRECTION('',(-1.0,0.0,0.0));
#284=AXIS2_PLACEMENT_3D('',#281,#282,#283);
#285=PLANE('',#284);
#286=ORIENTED_EDGE('',*,*,#237,.F.);
#287=ORIENTED_EDGE('',*,*,#190,.T.);
#288=EDGE_LOOP('',(#286,#287));
#289=FACE_OUTER_BOUND('',#288,.T.);
#290=ADVANCED_FACE('',(#289),#285,.T.);
#291=CARTESIAN_POINT('',(-2.637784E-015,0.0,-54.702548408319004));
#292=DIRECTION('',(0.0,0.0,-1.0));
#293=DIRECTION('',(-1.0,0.0,0.0));
#294=AXIS2_PLACEMENT_3D('',#291,#292,#293);
#295=CONICAL_SURFACE('',#294,17.7021916025565,32.545818667562706);
#296=CARTESIAN_POINT('',(-7.5,-37.322480505320399,-86.61504524593299));
#297=CARTESIAN_POINT('',(-7.5,0.0,-29.27992136343823));
#298=CARTESIAN_POINT('',(-7.5,37.322480505320399,-86.61504524593299));
#306=(BOUNDED_CURVE()B_SPLINE_CURVE(2,(#296,#297,#298),.UNSPECIFIED.,.F.,.U.)B_SPLINE_CURVE_WITH_KNOTS((3,3),(0.0,12.144520259255243),.UNSPECIFIED.)CURVE()GEOMETRIC_REPRESENTATION_ITEM()RATIONAL_B_SPLINE_CURVE((1.0,5.075812011351299,1.0))REPRESENTATION_ITEM(''));
#307=EDGE_CURVE('',#102,#157,#306,.T.);
#308=ORIENTED_EDGE('',*,*,#307,.F.);
#309=ORIENTED_EDGE('',*,*,#110,.T.);
#310=ORIENTED_EDGE('',*,*,#251,.F.);
#311=ORIENTED_EDGE('',*,*,#173,.F.);
#312=EDGE_LOOP('',(#308,#309,#310,#311));
#313=FACE_OUTER_BOUND('',#312,.T.);
#314=ADVANCED_FACE('',(#313),#295,.T.);
#315=CARTESIAN_POINT('',(-7.5,42.0,-37.0));
#316=DIRECTION('',(-1.0,0.0,0.0));
#317=DIRECTION('',(0.0,0.0,1.0));
#318=AXIS2_PLACEMENT_3D('',#315,#316,#317);
#319=PLANE('',#318);
#320=ORIENTED_EDGE('',*,*,#164,.T.);
#321=CARTESIAN_POINT('',(-7.5,2.78388218141503,-37.0));
#322=DIRECTION('',(0.0,-1.0,0.0));
#323=VECTOR('',#322,5.567764362830049);
#324=LINE('',#321,#323);
#325=EDGE_CURVE('',#210,#159,#324,.T.);
#326=ORIENTED_EDGE('',*,*,#325,.F.);
#327=ORIENTED_EDGE('',*,*,#215,.T.);
#328=CARTESIAN_POINT('',(-7.5,-37.322480505320399,-86.61504524593299));
#329=CARTESIAN_POINT('',(-7.5,0.0,-29.27992136343823));
#330=CARTESIAN_POINT('',(-7.5,37.322480505320399,-86.61504524593299));
#338=(BOUNDED_CURVE()B_SPLINE_CURVE(2,(#328,#329,#330),.UNSPECIFIED.,.F.,.U.)B_SPLINE_CURVE_WITH_KNOTS((3,3),(0.0,12.144520259255243),.UNSPECIFIED.)CURVE()GEOMETRIC_REPRESENTATION_ITEM()RATIONAL_B_SPLINE_CURVE((1.0,5.075812011351299,1.0))REPRESENTATION_ITEM(''));
#339=EDGE_CURVE('',#201,#113,#338,.T.);
#340=ORIENTED_EDGE('',*,*,#339,.T.);
#341=ORIENTED_EDGE('',*,*,#119,.F.);
#342=ORIENTED_EDGE('',*,*,#307,.T.);
#343=EDGE_LOOP('',(#320,#326,#327,#340,#341,#342));
#344=FACE_OUTER_BOUND('',#343,.T.);
#345=CARTESIAN_POINT('',(-7.5,-9.540979E-015,-53.842236019727999));
#346=VERTEX_POINT('',#345);
#347=CARTESIAN_POINT('',(-7.5,-9.540979E-015,-66.0));
#348=DIRECTION('',(-1.0,0.0,0.0));
#349=DIRECTION('',(0.0,0.0,1.0));
#350=AXIS2_PLACEMENT_3D('',#347,#348,#349);
#351=CIRCLE('',#350,12.157763980272001);
#352=EDGE_CURVE('',#346,#346,#351,.T.);
#353=ORIENTED_EDGE('',*,*,#352,.F.);
#354=EDGE_LOOP('',(#353));
#355=FACE_BOUND('',#354,.T.);
#356=ADVANCED_FACE('',(#344,#355),#319,.T.);
#357=CARTESIAN_POINT('',(0.0,-9.540979E-015,-66.0));
#358=DIRECTION('',(0.0,0.0,1.0));
#359=DIRECTION('',(1.0,0.0,0.0));
#360=AXIS2_PLACEMENT_3D('',#357,#358,#359);
#361=SPHERICAL_SURFACE('',#360,14.285);
#362=ORIENTED_EDGE('',*,*,#276,.T.);
#363=EDGE_LOOP('',(#362));
#364=FACE_OUTER_BOUND('',#363,.T.);
#365=ORIENTED_EDGE('',*,*,#80,.T.);
#366=EDGE_LOOP('',(#365));
#367=FACE_BOUND('',#366,.T.);
#368=ADVANCED_FACE('',(#364,#367),#361,.T.);
#369=CARTESIAN_POINT('',(-22.5,42.0,-37.0));
#370=DIRECTION('',(0.0,0.0,-1.0));
#371=DIRECTION('',(-1.0,0.0,0.0));
#372=AXIS2_PLACEMENT_3D('',#369,#370,#371);
#373=PLANE('',#372);
#374=ORIENTED_EDGE('',*,*,#222,.T.);
#375=ORIENTED_EDGE('',*,*,#325,.T.);
#376=EDGE_LOOP('',(#374,#375));
#377=FACE_OUTER_BOUND('',#376,.T.);
#378=ADVANCED_FACE('',(#377),#373,.T.);
#379=CARTESIAN_POINT('',(-10.5,42.0,0.0));
#380=DIRECTION('',(-1.0,0.0,0.0));
#381=DIRECTION('',(0.0,0.0,1.0));
#382=AXIS2_PLACEMENT_3D('',#379,#380,#381);
#383=PLANE('',#382);
#384=CARTESIAN_POINT('',(-10.5,-9.540979E-015,-56.314380505099308));
#385=VERTEX_POINT('',#384);
#386=CARTESIAN_POINT('',(-10.5,-9.540979E-015,-66.0));
#387=DIRECTION('',(-1.0,0.0,0.0));
#388=DIRECTION('',(0.0,0.0,1.0));
#389=AXIS2_PLACEMENT_3D('',#386,#387,#388);
#390=CIRCLE('',#389,9.685619494900672);
#391=EDGE_CURVE('',#385,#385,#390,.F.);
#392=ORIENTED_EDGE('',*,*,#391,.F.);
#393=EDGE_LOOP('',(#392));
#394=FACE_OUTER_BOUND('',#393,.T.);
#395=CARTESIAN_POINT('',(-10.5,0.0,-58.000000000000007));
#396=VERTEX_POINT('',#395);
#397=CARTESIAN_POINT('',(-10.5,0.0,-66.0));
#398=DIRECTION('',(-1.0,0.0,0.0));
#399=DIRECTION('',(0.0,0.0,1.0));
#400=AXIS2_PLACEMENT_3D('',#397,#398,#399);
#401=CIRCLE('',#400,8.0);
#402=EDGE_CURVE('',#396,#396,#401,.F.);
#403=ORIENTED_EDGE('',*,*,#402,.T.);
#404=EDGE_LOOP('',(#403));
#405=FACE_BOUND('',#404,.T.);
#406=ADVANCED_FACE('',(#394,#405),#383,.T.);
#407=CARTESIAN_POINT('',(42.0,0.0,-66.0));
#408=DIRECTION('',(1.0,0.0,0.0));
#409=DIRECTION('',(0.0,0.0,1.0));
#410=AXIS2_PLACEMENT_3D('',#407,#408,#409);
#411=CYLINDRICAL_SURFACE('',#410,8.0);
#412=ORIENTED_EDGE('',*,*,#91,.F.);
#413=EDGE_LOOP('',(#412));
#414=FACE_OUTER_BOUND('',#413,.T.);
#415=ORIENTED_EDGE('',*,*,#402,.F.);
#416=EDGE_LOOP('',(#415));
#417=FACE_BOUND('',#416,.T.);
#418=ADVANCED_FACE('',(#414,#417),#411,.F.);
#419=CARTESIAN_POINT('',(0.0,-9.540979E-015,-66.0));
#420=DIRECTION('',(0.0,0.0,1.0));
#421=DIRECTION('',(1.0,0.0,0.0));
#422=AXIS2_PLACEMENT_3D('',#419,#420,#421);
#423=SPHERICAL_SURFACE('',#422,14.285);
#424=ORIENTED_EDGE('',*,*,#352,.T.);
#425=EDGE_LOOP('',(#424));
#426=FACE_OUTER_BOUND('',#425,.T.);
#427=ORIENTED_EDGE('',*,*,#391,.T.);
#428=EDGE_LOOP('',(#427));
#429=FACE_BOUND('',#428,.T.);
#430=ADVANCED_FACE('',(#426,#429),#423,.T.);
#431=CARTESIAN_POINT('',(-2.637784E-015,0.0,-54.702548408319004));
#432=DIRECTION('',(0.0,0.0,-1.0));
#433=DIRECTION('',(-1.0,0.0,0.0));
#434=AXIS2_PLACEMENT_3D('',#431,#432,#433);
#435=CONICAL_SURFACE('',#434,17.7021916025565,32.545818667562706);
#436=ORIENTED_EDGE('',*,*,#339,.F.);
#437=ORIENTED_EDGE('',*,*,#207,.F.);
#438=ORIENTED_EDGE('',*,*,#265,.F.);
#439=ORIENTED_EDGE('',*,*,#128,.T.);
#440=EDGE_LOOP('',(#436,#437,#438,#439));
#441=FACE_OUTER_BOUND('',#440,.T.);
#442=ADVANCED_FACE('',(#441),#435,.T.);
#443=CARTESIAN_POINT('',(-7.005216E-015,0.0,-1.22699999999999));
#444=DIRECTION('',(0.0,0.0,-1.0));
#445=DIRECTION('',(-1.0,0.0,0.0));
#446=AXIS2_PLACEMENT_3D('',#443,#444,#445);
#447=CONICAL_SURFACE('',#446,8.0,44.999999999999936);
#448=ORIENTED_EDGE('',*,*,#152,.T.);
#449=EDGE_LOOP('',(#448));
#450=FACE_OUTER_BOUND('',#449,.T.);
#451=CARTESIAN_POINT('',(6.773000000000011,0.0,2.168404E-016));
#452=VERTEX_POINT('',#451);
#453=CARTESIAN_POINT('',(-7.105427E-015,0.0,-3.363212E-016));
#454=DIRECTION('',(0.0,0.0,1.0));
#455=DIRECTION('',(1.0,0.0,0.0));
#456=AXIS2_PLACEMENT_3D('',#453,#454,#455);
#457=CIRCLE('',#456,6.773000000000011);
#458=EDGE_CURVE('',#452,#452,#457,.T.);
#459=ORIENTED_EDGE('',*,*,#458,.F.);
#460=EDGE_LOOP('',(#459));
#461=FACE_BOUND('',#460,.T.);
#462=ADVANCED_FACE('',(#450,#461),#447,.T.);
#463=CARTESIAN_POINT('',(6.773000000000011,0.0,3.850010E-016));
#464=DIRECTION('',(0.0,0.0,-1.0));
#465=DIRECTION('',(-1.0,0.0,0.0));
#466=AXIS2_PLACEMENT_3D('',#463,#464,#465);
#467=PLANE('',#466);
#468=ORIENTED_EDGE('',*,*,#458,.T.);
#469=EDGE_LOOP('',(#468));
#470=FACE_OUTER_BOUND('',#469,.T.);
#471=ADVANCED_FACE('',(#470),#467,.F.);
#472=CLOSED_SHELL('',(#95,#139,#226,#280,#290,#314,#356,#368,#378,#406,#418,#430,#442,#462,#471));
#473=MANIFOLD_SOLID_BREP('SSFE16',#472);
#474=COLOUR_RGB('Zinco',0.67843097448349,0.768626987934113,0.811765015125275);
#475=FILL_AREA_STYLE_COLOUR('Zinco',#474);
#476=FILL_AREA_STYLE('Zinco',(#475));
#477=SURFACE_STYLE_FILL_AREA(#476);
#478=SURFACE_SIDE_STYLE('Zinco',(#477));
#479=SURFACE_STYLE_USAGE(.BOTH.,#478);
#480=PRESENTATION_STYLE_ASSIGNMENT((#479));
#481=STYLED_ITEM('',(#480),#473);
#482=MECHANICAL_DESIGN_GEOMETRIC_PRESENTATION_REPRESENTATION('',(#481),#36);
#483=ADVANCED_BREP_SHAPE_REPRESENTATION('ABSR',(#473),#36);
#484=SHAPE_REPRESENTATION_RELATIONSHIP('SRR','None',#483,#41);
ENDSEC;
END-ISO-10303-21;
