ISO-10303-21;
HEADER;
/****************************************************************
 * Generated by software with PDElib inside                    *
 * PDElib Version v51a, created Tue 11/30/2010                  *
 * ITI Transcendata (http://www.transcendata.com/)              *
 ****************************************************************/
FILE_DESCRIPTION((''),'2;1');
FILE_NAME('T:\\Archivio Inventor\\- FISSAGGI NUOVI\\- MFI\\MFI020.025.stp','2013-11-15T11:12:49',('carlo.corazza'),(''),'Autodesk Inventor 2012','Autodesk Inventor 2012','');
FILE_SCHEMA(('AUTOMOTIVE_DESIGN { 1 0 10303 214 1 1 1 1 }'));
ENDSEC;
DATA;
#5=APPLICATION_CONTEXT('automotive design');
#6=APPLICATION_PROTOCOL_DEFINITION('International Standard','automotive_design',2001,#5);
#7=PRODUCT_CONTEXT('',#5,'mechanical');
#8=PRODUCT('MFI020.025','MFI020.025',$,(#7));
#9=PRODUCT_RELATED_PRODUCT_CATEGORY('part',$,(#8));
#10=PRODUCT_DEFINITION_FORMATION('',$,#8);
#11=PRODUCT_DEFINITION_CONTEXT('part definition',#5,'design');
#12=PRODUCT_DEFINITION('',$,#10,#11);
#18=(NAMED_UNIT(*)PLANE_ANGLE_UNIT()SI_UNIT($,.RADIAN.));
#19=DIMENSIONAL_EXPONENTS(0.0,0.0,0.0,0.0,0.0,0.0,0.0);
#20=PLANE_ANGLE_MEASURE_WITH_UNIT(PLANE_ANGLE_MEASURE(0.0174532925),#18);
#24=(CONVERSION_BASED_UNIT('DEGREE',#20)NAMED_UNIT(#19)PLANE_ANGLE_UNIT());
#28=(NAMED_UNIT(*)SI_UNIT($,.STERADIAN.)SOLID_ANGLE_UNIT());
#32=(LENGTH_UNIT()NAMED_UNIT(*)SI_UNIT(.MILLI.,.METRE.));
#34=UNCERTAINTY_MEASURE_WITH_UNIT(LENGTH_MEASURE(0.01),#32,'DISTANCE_ACCURACY_VALUE','');
#36=(GEOMETRIC_REPRESENTATION_CONTEXT(3)GLOBAL_UNCERTAINTY_ASSIGNED_CONTEXT((#34))GLOBAL_UNIT_ASSIGNED_CONTEXT((#24,#28,#32))REPRESENTATION_CONTEXT('None','None'));
#37=AXIS2_PLACEMENT_3D('',#38,#39,#40);
#38=CARTESIAN_POINT('',(0.0,0.0,0.0));
#39=DIRECTION('',(0.0,0.0,1.0));
#40=DIRECTION('',(1.0,0.0,0.0));
#41=SHAPE_REPRESENTATION('',(#37),#36);
#42=PRODUCT_DEFINITION_SHAPE('','',#12);
#43=SHAPE_DEFINITION_REPRESENTATION(#42,#41);
#49=(NAMED_UNIT(*)PLANE_ANGLE_UNIT()SI_UNIT($,.RADIAN.));
#50=DIMENSIONAL_EXPONENTS(0.0,0.0,0.0,0.0,0.0,0.0,0.0);
#51=PLANE_ANGLE_MEASURE_WITH_UNIT(PLANE_ANGLE_MEASURE(0.0174532925),#49);
#55=(CONVERSION_BASED_UNIT('DEGREE',#51)NAMED_UNIT(#50)PLANE_ANGLE_UNIT());
#59=(NAMED_UNIT(*)SI_UNIT($,.STERADIAN.)SOLID_ANGLE_UNIT());
#63=(LENGTH_UNIT()NAMED_UNIT(*)SI_UNIT(.MILLI.,.METRE.));
#65=UNCERTAINTY_MEASURE_WITH_UNIT(LENGTH_MEASURE(0.000001),#63,'DISTANCE_ACCURACY_VALUE','');
#67=(GEOMETRIC_REPRESENTATION_CONTEXT(3)GLOBAL_UNCERTAINTY_ASSIGNED_CONTEXT((#65))GLOBAL_UNIT_ASSIGNED_CONTEXT((#55,#59,#63))REPRESENTATION_CONTEXT('','3D'));
#68=CARTESIAN_POINT('',(0.0,0.0,0.0));
#69=DIRECTION('',(0.0,0.0,1.0));
#70=DIRECTION('',(-1.0,0.0,0.0));
#71=AXIS2_PLACEMENT_3D('',#68,#69,#70);
#72=CYLINDRICAL_SURFACE('',#71,11.0);
#73=CARTESIAN_POINT('',(11.0,1.347111E-015,-2.5));
#74=VERTEX_POINT('',#73);
#75=CARTESIAN_POINT('',(0.0,0.0,-2.5));
#76=DIRECTION('',(0.0,0.0,1.0));
#77=DIRECTION('',(-1.0,0.0,0.0));
#78=AXIS2_PLACEMENT_3D('',#75,#76,#77);
#79=CIRCLE('',#78,11.0);
#80=EDGE_CURVE('',#74,#74,#79,.T.);
#81=ORIENTED_EDGE('',*,*,#80,.F.);
#82=EDGE_LOOP('',(#81));
#83=FACE_OUTER_BOUND('',#82,.T.);
#84=CARTESIAN_POINT('',(11.0,1.347111E-015,2.5));
#85=VERTEX_POINT('',#84);
#86=CARTESIAN_POINT('',(0.0,0.0,2.5));
#87=DIRECTION('',(0.0,0.0,-1.0));
#88=DIRECTION('',(-1.0,0.0,0.0));
#89=AXIS2_PLACEMENT_3D('',#86,#87,#88);
#90=CIRCLE('',#89,11.0);
#91=EDGE_CURVE('',#85,#85,#90,.T.);
#92=ORIENTED_EDGE('',*,*,#91,.F.);
#93=EDGE_LOOP('',(#92));
#94=FACE_BOUND('',#93,.T.);
#95=ADVANCED_FACE('',(#83,#94),#72,.F.);
#96=CARTESIAN_POINT('',(0.0,-25.0,0.0));
#97=DIRECTION('',(0.0,0.0,1.0));
#98=DIRECTION('',(-1.0,0.0,0.0));
#99=AXIS2_PLACEMENT_3D('',#96,#97,#98);
#100=CYLINDRICAL_SURFACE('',#99,3.25);
#101=CARTESIAN_POINT('',(3.25,-25.0,-2.5));
#102=VERTEX_POINT('',#101);
#103=CARTESIAN_POINT('',(0.0,-25.0,-2.5));
#104=DIRECTION('',(0.0,0.0,1.0));
#105=DIRECTION('',(-1.0,0.0,0.0));
#106=AXIS2_PLACEMENT_3D('',#103,#104,#105);
#107=CIRCLE('',#106,3.25);
#108=EDGE_CURVE('',#102,#102,#107,.T.);
#109=ORIENTED_EDGE('',*,*,#108,.F.);
#110=EDGE_LOOP('',(#109));
#111=FACE_OUTER_BOUND('',#110,.T.);
#112=CARTESIAN_POINT('',(3.25,-25.0,2.5));
#113=VERTEX_POINT('',#112);
#114=CARTESIAN_POINT('',(0.0,-25.0,2.5));
#115=DIRECTION('',(0.0,0.0,-1.0));
#116=DIRECTION('',(-1.0,0.0,0.0));
#117=AXIS2_PLACEMENT_3D('',#114,#115,#116);
#118=CIRCLE('',#117,3.25);
#119=EDGE_CURVE('',#113,#113,#118,.T.);
#120=ORIENTED_EDGE('',*,*,#119,.F.);
#121=EDGE_LOOP('',(#120));
#122=FACE_BOUND('',#121,.T.);
#123=ADVANCED_FACE('',(#111,#122),#100,.F.);
#124=CARTESIAN_POINT('',(0.0,25.0,0.0));
#125=DIRECTION('',(0.0,0.0,1.0));
#126=DIRECTION('',(-1.0,0.0,0.0));
#127=AXIS2_PLACEMENT_3D('',#124,#125,#126);
#128=CYLINDRICAL_SURFACE('',#127,3.25);
#129=CARTESIAN_POINT('',(3.25,25.0,-2.5));
#130=VERTEX_POINT('',#129);
#131=CARTESIAN_POINT('',(0.0,25.0,-2.5));
#132=DIRECTION('',(0.0,0.0,1.0));
#133=DIRECTION('',(-1.0,0.0,0.0));
#134=AXIS2_PLACEMENT_3D('',#131,#132,#133);
#135=CIRCLE('',#134,3.25);
#136=EDGE_CURVE('',#130,#130,#135,.T.);
#137=ORIENTED_EDGE('',*,*,#136,.F.);
#138=EDGE_LOOP('',(#137));
#139=FACE_OUTER_BOUND('',#138,.T.);
#140=CARTESIAN_POINT('',(3.25,25.0,2.5));
#141=VERTEX_POINT('',#140);
#142=CARTESIAN_POINT('',(0.0,25.0,2.5));
#143=DIRECTION('',(0.0,0.0,-1.0));
#144=DIRECTION('',(-1.0,0.0,0.0));
#145=AXIS2_PLACEMENT_3D('',#142,#143,#144);
#146=CIRCLE('',#145,3.25);
#147=EDGE_CURVE('',#141,#141,#146,.T.);
#148=ORIENTED_EDGE('',*,*,#147,.F.);
#149=EDGE_LOOP('',(#148));
#150=FACE_BOUND('',#149,.T.);
#151=ADVANCED_FACE('',(#139,#150),#128,.F.);
#152=CARTESIAN_POINT('',(0.0,6.611266E-016,-2.5));
#153=DIRECTION('',(0.0,0.0,1.0));
#154=DIRECTION('',(1.0,0.0,0.0));
#155=AXIS2_PLACEMENT_3D('',#152,#153,#154);
#156=PLANE('',#155);
#157=CARTESIAN_POINT('',(-17.545369759569049,9.6,-2.5));
#158=VERTEX_POINT('',#157);
#159=CARTESIAN_POINT('',(-17.545369759569041,-9.599999999999996,-2.5));
#160=VERTEX_POINT('',#159);
#161=CARTESIAN_POINT('',(0.0,0.0,-2.5));
#162=DIRECTION('',(0.0,0.0,1.0));
#163=DIRECTION('',(0.877268487978452,-0.48,0.0));
#164=AXIS2_PLACEMENT_3D('',#161,#162,#163);
#165=CIRCLE('',#164,20.0);
#166=EDGE_CURVE('',#158,#160,#165,.T.);
#167=ORIENTED_EDGE('',*,*,#166,.F.);
#168=CARTESIAN_POINT('',(-7.018147903827622,28.840000000000003,-2.5));
#169=VERTEX_POINT('',#168);
#170=CARTESIAN_POINT('',(-7.018147903827618,28.840000000000011,-2.5));
#171=DIRECTION('',(-0.48,-0.877268487978452,0.0));
#172=VECTOR('',#171,21.931712199461316);
#173=LINE('',#170,#172);
#174=EDGE_CURVE('',#169,#158,#173,.T.);
#175=ORIENTED_EDGE('',*,*,#174,.F.);
#176=CARTESIAN_POINT('',(7.018147903827623,28.840000000000003,-2.5));
#177=VERTEX_POINT('',#176);
#178=CARTESIAN_POINT('',(0.0,25.0,-2.5));
#179=DIRECTION('',(0.0,0.0,1.0));
#180=DIRECTION('',(-0.877268487978452,-0.48,0.0));
#181=AXIS2_PLACEMENT_3D('',#178,#179,#180);
#182=CIRCLE('',#181,8.0);
#183=EDGE_CURVE('',#177,#169,#182,.T.);
#184=ORIENTED_EDGE('',*,*,#183,.F.);
#185=CARTESIAN_POINT('',(17.545369759569056,9.600000000000007,-2.5));
#186=VERTEX_POINT('',#185);
#187=CARTESIAN_POINT('',(17.545369759569056,9.599999999999998,-2.5));
#188=DIRECTION('',(-0.48,0.877268487978452,0.0));
#189=VECTOR('',#188,21.931712199461316);
#190=LINE('',#187,#189);
#191=EDGE_CURVE('',#186,#177,#190,.T.);
#192=ORIENTED_EDGE('',*,*,#191,.F.);
#193=CARTESIAN_POINT('',(17.545369759569049,-9.600000000000001,-2.5));
#194=VERTEX_POINT('',#193);
#195=CARTESIAN_POINT('',(0.0,0.0,-2.5));
#196=DIRECTION('',(0.0,0.0,1.0));
#197=DIRECTION('',(-0.877268487978452,0.48,0.0));
#198=AXIS2_PLACEMENT_3D('',#195,#196,#197);
#199=CIRCLE('',#198,20.0);
#200=EDGE_CURVE('',#194,#186,#199,.T.);
#201=ORIENTED_EDGE('',*,*,#200,.F.);
#202=CARTESIAN_POINT('',(7.018147903827614,-28.84,-2.5));
#203=VERTEX_POINT('',#202);
#204=CARTESIAN_POINT('',(7.018147903827616,-28.839999999999996,-2.5));
#205=DIRECTION('',(0.48,0.877268487978452,0.0));
#206=VECTOR('',#205,21.931712199461305);
#207=LINE('',#204,#206);
#208=EDGE_CURVE('',#203,#194,#207,.T.);
#209=ORIENTED_EDGE('',*,*,#208,.F.);
#210=CARTESIAN_POINT('',(-7.018147903827614,-28.84,-2.5));
#211=VERTEX_POINT('',#210);
#212=CARTESIAN_POINT('',(0.0,-25.0,-2.5));
#213=DIRECTION('',(0.0,0.0,1.0));
#214=DIRECTION('',(0.877268487978452,0.48,0.0));
#215=AXIS2_PLACEMENT_3D('',#212,#213,#214);
#216=CIRCLE('',#215,8.0);
#217=EDGE_CURVE('',#211,#203,#216,.T.);
#218=ORIENTED_EDGE('',*,*,#217,.F.);
#219=CARTESIAN_POINT('',(-17.545369759569041,-9.599999999999998,-2.5));
#220=DIRECTION('',(0.48,-0.877268487978452,0.0));
#221=VECTOR('',#220,21.931712199461309);
#222=LINE('',#219,#221);
#223=EDGE_CURVE('',#160,#211,#222,.T.);
#224=ORIENTED_EDGE('',*,*,#223,.F.);
#225=EDGE_LOOP('',(#167,#175,#184,#192,#201,#209,#218,#224));
#226=FACE_OUTER_BOUND('',#225,.T.);
#227=ORIENTED_EDGE('',*,*,#80,.T.);
#228=EDGE_LOOP('',(#227));
#229=FACE_BOUND('',#228,.T.);
#230=ORIENTED_EDGE('',*,*,#108,.T.);
#231=EDGE_LOOP('',(#230));
#232=FACE_BOUND('',#231,.T.);
#233=ORIENTED_EDGE('',*,*,#136,.T.);
#234=EDGE_LOOP('',(#233));
#235=FACE_BOUND('',#234,.T.);
#236=ADVANCED_FACE('',(#226,#229,#232,#235),#156,.F.);
#237=CARTESIAN_POINT('',(0.0,25.0,0.0));
#238=DIRECTION('',(0.0,0.0,1.0));
#239=DIRECTION('',(-0.877268487978452,-0.48,0.0));
#240=AXIS2_PLACEMENT_3D('',#237,#238,#239);
#241=CYLINDRICAL_SURFACE('',#240,8.0);
#242=CARTESIAN_POINT('',(-7.018147903827622,28.840000000000003,2.5));
#243=VERTEX_POINT('',#242);
#244=CARTESIAN_POINT('',(7.018147903827623,28.840000000000003,2.5));
#245=VERTEX_POINT('',#244);
#246=CARTESIAN_POINT('',(0.0,25.0,2.5));
#247=DIRECTION('',(0.0,0.0,-1.0));
#248=DIRECTION('',(-0.877268487978452,-0.48,0.0));
#249=AXIS2_PLACEMENT_3D('',#246,#247,#248);
#250=CIRCLE('',#249,8.0);
#251=EDGE_CURVE('',#243,#245,#250,.T.);
#252=ORIENTED_EDGE('',*,*,#251,.T.);
#253=CARTESIAN_POINT('',(7.018147903827623,28.840000000000003,2.5));
#254=DIRECTION('',(0.0,0.0,-1.0));
#255=VECTOR('',#254,5.0);
#256=LINE('',#253,#255);
#257=EDGE_CURVE('',#245,#177,#256,.T.);
#258=ORIENTED_EDGE('',*,*,#257,.T.);
#259=ORIENTED_EDGE('',*,*,#183,.T.);
#260=CARTESIAN_POINT('',(-7.018147903827622,28.840000000000003,2.5));
#261=DIRECTION('',(0.0,0.0,-1.0));
#262=VECTOR('',#261,5.0);
#263=LINE('',#260,#262);
#264=EDGE_CURVE('',#243,#169,#263,.T.);
#265=ORIENTED_EDGE('',*,*,#264,.F.);
#266=EDGE_LOOP('',(#252,#258,#259,#265));
#267=FACE_OUTER_BOUND('',#266,.T.);
#268=ADVANCED_FACE('',(#267),#241,.T.);
#269=CARTESIAN_POINT('',(7.018147903827623,28.840000000000003,0.0));
#270=DIRECTION('',(0.877268487978452,0.48,0.0));
#271=DIRECTION('',(0.0,0.0,-1.0));
#272=AXIS2_PLACEMENT_3D('',#269,#270,#271);
#273=PLANE('',#272);
#274=CARTESIAN_POINT('',(17.545369759569056,9.600000000000007,2.5));
#275=VERTEX_POINT('',#274);
#276=CARTESIAN_POINT('',(7.018147903827623,28.840000000000003,2.5));
#277=DIRECTION('',(0.48,-0.877268487978452,0.0));
#278=VECTOR('',#277,21.931712199461316);
#279=LINE('',#276,#278);
#280=EDGE_CURVE('',#245,#275,#279,.T.);
#281=ORIENTED_EDGE('',*,*,#280,.T.);
#282=CARTESIAN_POINT('',(17.545369759569056,9.600000000000007,2.5));
#283=DIRECTION('',(0.0,0.0,-1.0));
#284=VECTOR('',#283,5.0);
#285=LINE('',#282,#284);
#286=EDGE_CURVE('',#275,#186,#285,.T.);
#287=ORIENTED_EDGE('',*,*,#286,.T.);
#288=ORIENTED_EDGE('',*,*,#191,.T.);
#289=ORIENTED_EDGE('',*,*,#257,.F.);
#290=EDGE_LOOP('',(#281,#287,#288,#289));
#291=FACE_OUTER_BOUND('',#290,.T.);
#292=ADVANCED_FACE('',(#291),#273,.T.);
#293=CARTESIAN_POINT('',(0.0,0.0,0.0));
#294=DIRECTION('',(0.0,0.0,1.0));
#295=DIRECTION('',(-0.877268487978452,0.48,0.0));
#296=AXIS2_PLACEMENT_3D('',#293,#294,#295);
#297=CYLINDRICAL_SURFACE('',#296,20.0);
#298=CARTESIAN_POINT('',(17.545369759569049,-9.600000000000001,2.5));
#299=VERTEX_POINT('',#298);
#300=CARTESIAN_POINT('',(0.0,0.0,2.5));
#301=DIRECTION('',(0.0,0.0,-1.0));
#302=DIRECTION('',(-0.877268487978452,0.48,0.0));
#303=AXIS2_PLACEMENT_3D('',#300,#301,#302);
#304=CIRCLE('',#303,20.0);
#305=EDGE_CURVE('',#275,#299,#304,.T.);
#306=ORIENTED_EDGE('',*,*,#305,.T.);
#307=CARTESIAN_POINT('',(17.545369759569049,-9.600000000000001,2.5));
#308=DIRECTION('',(0.0,0.0,-1.0));
#309=VECTOR('',#308,5.0);
#310=LINE('',#307,#309);
#311=EDGE_CURVE('',#299,#194,#310,.T.);
#312=ORIENTED_EDGE('',*,*,#311,.T.);
#313=ORIENTED_EDGE('',*,*,#200,.T.);
#314=ORIENTED_EDGE('',*,*,#286,.F.);
#315=EDGE_LOOP('',(#306,#312,#313,#314));
#316=FACE_OUTER_BOUND('',#315,.T.);
#317=ADVANCED_FACE('',(#316),#297,.T.);
#318=CARTESIAN_POINT('',(17.545369759569049,-9.600000000000001,0.0));
#319=DIRECTION('',(0.877268487978452,-0.48,0.0));
#320=DIRECTION('',(0.0,0.0,-1.0));
#321=AXIS2_PLACEMENT_3D('',#318,#319,#320);
#322=PLANE('',#321);
#323=CARTESIAN_POINT('',(7.018147903827614,-28.84,2.5));
#324=VERTEX_POINT('',#323);
#325=CARTESIAN_POINT('',(17.545369759569049,-9.6,2.5));
#326=DIRECTION('',(-0.48,-0.877268487978452,0.0));
#327=VECTOR('',#326,21.931712199461305);
#328=LINE('',#325,#327);
#329=EDGE_CURVE('',#299,#324,#328,.T.);
#330=ORIENTED_EDGE('',*,*,#329,.T.);
#331=CARTESIAN_POINT('',(7.018147903827614,-28.84,2.5));
#332=DIRECTION('',(0.0,0.0,-1.0));
#333=VECTOR('',#332,5.0);
#334=LINE('',#331,#333);
#335=EDGE_CURVE('',#324,#203,#334,.T.);
#336=ORIENTED_EDGE('',*,*,#335,.T.);
#337=ORIENTED_EDGE('',*,*,#208,.T.);
#338=ORIENTED_EDGE('',*,*,#311,.F.);
#339=EDGE_LOOP('',(#330,#336,#337,#338));
#340=FACE_OUTER_BOUND('',#339,.T.);
#341=ADVANCED_FACE('',(#340),#322,.T.);
#342=CARTESIAN_POINT('',(0.0,-25.0,0.0));
#343=DIRECTION('',(0.0,0.0,1.0));
#344=DIRECTION('',(0.877268487978452,0.48,0.0));
#345=AXIS2_PLACEMENT_3D('',#342,#343,#344);
#346=CYLINDRICAL_SURFACE('',#345,8.000000000000002);
#347=CARTESIAN_POINT('',(-7.018147903827614,-28.84,2.5));
#348=VERTEX_POINT('',#347);
#349=CARTESIAN_POINT('',(0.0,-25.0,2.5));
#350=DIRECTION('',(0.0,0.0,-1.0));
#351=DIRECTION('',(0.877268487978452,0.48,0.0));
#352=AXIS2_PLACEMENT_3D('',#349,#350,#351);
#353=CIRCLE('',#352,8.0);
#354=EDGE_CURVE('',#324,#348,#353,.T.);
#355=ORIENTED_EDGE('',*,*,#354,.T.);
#356=CARTESIAN_POINT('',(-7.018147903827614,-28.84,2.5));
#357=DIRECTION('',(0.0,0.0,-1.0));
#358=VECTOR('',#357,5.0);
#359=LINE('',#356,#358);
#360=EDGE_CURVE('',#348,#211,#359,.T.);
#361=ORIENTED_EDGE('',*,*,#360,.T.);
#362=ORIENTED_EDGE('',*,*,#217,.T.);
#363=ORIENTED_EDGE('',*,*,#335,.F.);
#364=EDGE_LOOP('',(#355,#361,#362,#363));
#365=FACE_OUTER_BOUND('',#364,.T.);
#366=ADVANCED_FACE('',(#365),#346,.T.);
#367=CARTESIAN_POINT('',(-7.018147903827614,-28.84,0.0));
#368=DIRECTION('',(-0.877268487978452,-0.48,0.0));
#369=DIRECTION('',(0.0,0.0,1.0));
#370=AXIS2_PLACEMENT_3D('',#367,#368,#369);
#371=PLANE('',#370);
#372=CARTESIAN_POINT('',(-17.545369759569041,-9.599999999999996,2.5));
#373=VERTEX_POINT('',#372);
#374=CARTESIAN_POINT('',(-7.018147903827614,-28.84,2.5));
#375=DIRECTION('',(-0.48,0.877268487978452,0.0));
#376=VECTOR('',#375,21.931712199461309);
#377=LINE('',#374,#376);
#378=EDGE_CURVE('',#348,#373,#377,.T.);
#379=ORIENTED_EDGE('',*,*,#378,.T.);
#380=CARTESIAN_POINT('',(-17.545369759569041,-9.599999999999996,2.5));
#381=DIRECTION('',(0.0,0.0,-1.0));
#382=VECTOR('',#381,5.0);
#383=LINE('',#380,#382);
#384=EDGE_CURVE('',#373,#160,#383,.T.);
#385=ORIENTED_EDGE('',*,*,#384,.T.);
#386=ORIENTED_EDGE('',*,*,#223,.T.);
#387=ORIENTED_EDGE('',*,*,#360,.F.);
#388=EDGE_LOOP('',(#379,#385,#386,#387));
#389=FACE_OUTER_BOUND('',#388,.T.);
#390=ADVANCED_FACE('',(#389),#371,.T.);
#391=CARTESIAN_POINT('',(0.0,0.0,0.0));
#392=DIRECTION('',(0.0,0.0,1.0));
#393=DIRECTION('',(0.877268487978452,-0.48,0.0));
#394=AXIS2_PLACEMENT_3D('',#391,#392,#393);
#395=CYLINDRICAL_SURFACE('',#394,20.0);
#396=CARTESIAN_POINT('',(-17.545369759569049,9.6,2.5));
#397=VERTEX_POINT('',#396);
#398=CARTESIAN_POINT('',(0.0,0.0,2.5));
#399=DIRECTION('',(0.0,0.0,-1.0));
#400=DIRECTION('',(0.877268487978452,-0.48,0.0));
#401=AXIS2_PLACEMENT_3D('',#398,#399,#400);
#402=CIRCLE('',#401,20.0);
#403=EDGE_CURVE('',#373,#397,#402,.T.);
#404=ORIENTED_EDGE('',*,*,#403,.T.);
#405=CARTESIAN_POINT('',(-17.545369759569049,9.6,-2.5));
#406=DIRECTION('',(0.0,0.0,1.0));
#407=VECTOR('',#406,5.0);
#408=LINE('',#405,#407);
#409=EDGE_CURVE('',#158,#397,#408,.T.);
#410=ORIENTED_EDGE('',*,*,#409,.F.);
#411=ORIENTED_EDGE('',*,*,#166,.T.);
#412=ORIENTED_EDGE('',*,*,#384,.F.);
#413=EDGE_LOOP('',(#404,#410,#411,#412));
#414=FACE_OUTER_BOUND('',#413,.T.);
#415=ADVANCED_FACE('',(#414),#395,.T.);
#416=CARTESIAN_POINT('',(-17.545369759569049,9.6,0.0));
#417=DIRECTION('',(-0.877268487978452,0.48,0.0));
#418=DIRECTION('',(0.0,0.0,1.0));
#419=AXIS2_PLACEMENT_3D('',#416,#417,#418);
#420=PLANE('',#419);
#421=CARTESIAN_POINT('',(-17.545369759569049,9.6,2.5));
#422=DIRECTION('',(0.48,0.877268487978452,0.0));
#423=VECTOR('',#422,21.931712199461316);
#424=LINE('',#421,#423);
#425=EDGE_CURVE('',#397,#243,#424,.T.);
#426=ORIENTED_EDGE('',*,*,#425,.T.);
#427=ORIENTED_EDGE('',*,*,#264,.T.);
#428=ORIENTED_EDGE('',*,*,#174,.T.);
#429=ORIENTED_EDGE('',*,*,#409,.T.);
#430=EDGE_LOOP('',(#426,#427,#428,#429));
#431=FACE_OUTER_BOUND('',#430,.T.);
#432=ADVANCED_FACE('',(#431),#420,.T.);
#433=CARTESIAN_POINT('',(-2.348919E-016,1.110223E-015,2.5));
#434=DIRECTION('',(0.0,0.0,1.0));
#435=DIRECTION('',(1.0,0.0,0.0));
#436=AXIS2_PLACEMENT_3D('',#433,#434,#435);
#437=PLANE('',#436);
#438=ORIENTED_EDGE('',*,*,#251,.F.);
#439=ORIENTED_EDGE('',*,*,#425,.F.);
#440=ORIENTED_EDGE('',*,*,#403,.F.);
#441=ORIENTED_EDGE('',*,*,#378,.F.);
#442=ORIENTED_EDGE('',*,*,#354,.F.);
#443=ORIENTED_EDGE('',*,*,#329,.F.);
#444=ORIENTED_EDGE('',*,*,#305,.F.);
#445=ORIENTED_EDGE('',*,*,#280,.F.);
#446=EDGE_LOOP('',(#438,#439,#440,#441,#442,#443,#444,#445));
#447=FACE_OUTER_BOUND('',#446,.T.);
#448=ORIENTED_EDGE('',*,*,#91,.T.);
#449=EDGE_LOOP('',(#448));
#450=FACE_BOUND('',#449,.T.);
#451=ORIENTED_EDGE('',*,*,#119,.T.);
#452=EDGE_LOOP('',(#451));
#453=FACE_BOUND('',#452,.T.);
#454=ORIENTED_EDGE('',*,*,#147,.T.);
#455=EDGE_LOOP('',(#454));
#456=FACE_BOUND('',#455,.T.);
#457=ADVANCED_FACE('',(#447,#450,#453,#456),#437,.T.);
#458=CLOSED_SHELL('',(#95,#123,#151,#236,#268,#292,#317,#341,#366,#390,#415,#432,#457));
#459=MANIFOLD_SOLID_BREP('Solido1',#458);
#460=COLOUR_RGB('Zinco',0.67843097448349,0.768626987934113,0.811765015125275);
#461=FILL_AREA_STYLE_COLOUR('Zinco',#460);
#462=FILL_AREA_STYLE('Zinco',(#461));
#463=SURFACE_STYLE_FILL_AREA(#462);
#464=SURFACE_SIDE_STYLE('Zinco',(#463));
#465=SURFACE_STYLE_USAGE(.BOTH.,#464);
#466=PRESENTATION_STYLE_ASSIGNMENT((#465));
#467=STYLED_ITEM('',(#466),#459);
#468=MECHANICAL_DESIGN_GEOMETRIC_PRESENTATION_REPRESENTATION('',(#467),#36);
#469=ADVANCED_BREP_SHAPE_REPRESENTATION('ABSR',(#459),#36);
#470=SHAPE_REPRESENTATION_RELATIONSHIP('SRR','None',#469,#41);
ENDSEC;
END-ISO-10303-21;
