ISO-10303-21;
HEADER;
/****************************************************************
 * Generated by software with PDElib inside                    *
 * PDElib Version v51a, created Tue 11/30/2010                  *
 * ITI Transcendata (http://www.transcendata.com/)              *
 ****************************************************************/
FILE_DESCRIPTION((''),'2;1');
FILE_NAME('T:\\Archivio Inventor\\- FISSAGGI NUOVI\\- MPBI\\MPBI008.010.stp','2014-12-22T11:31:17',('carlo.corazza'),(''),'Autodesk Inventor 2012','Autodesk Inventor 2012','');
FILE_SCHEMA(('AUTOMOTIVE_DESIGN { 1 0 10303 214 1 1 1 1 }'));
ENDSEC;
DATA;
#5=APPLICATION_CONTEXT('automotive design');
#6=APPLICATION_PROTOCOL_DEFINITION('International Standard','automotive_design',2001,#5);
#7=PRODUCT_CONTEXT('',#5,'mechanical');
#8=PRODUCT('MPBI008.010','MPBI008.010',$,(#7));
#9=PRODUCT_RELATED_PRODUCT_CATEGORY('part',$,(#8));
#10=PRODUCT_DEFINITION_FORMATION('',$,#8);
#11=PRODUCT_DEFINITION_CONTEXT('part definition',#5,'design');
#12=PRODUCT_DEFINITION('',$,#10,#11);
#18=(NAMED_UNIT(*)PLANE_ANGLE_UNIT()SI_UNIT($,.RADIAN.));
#19=DIMENSIONAL_EXPONENTS(0.0,0.0,0.0,0.0,0.0,0.0,0.0);
#20=PLANE_ANGLE_MEASURE_WITH_UNIT(PLANE_ANGLE_MEASURE(0.0174532925),#18);
#24=(CONVERSION_BASED_UNIT('DEGREE',#20)NAMED_UNIT(#19)PLANE_ANGLE_UNIT());
#28=(NAMED_UNIT(*)SI_UNIT($,.STERADIAN.)SOLID_ANGLE_UNIT());
#32=(LENGTH_UNIT()NAMED_UNIT(*)SI_UNIT(.MILLI.,.METRE.));
#34=UNCERTAINTY_MEASURE_WITH_UNIT(LENGTH_MEASURE(0.01),#32,'DISTANCE_ACCURACY_VALUE','');
#36=(GEOMETRIC_REPRESENTATION_CONTEXT(3)GLOBAL_UNCERTAINTY_ASSIGNED_CONTEXT((#34))GLOBAL_UNIT_ASSIGNED_CONTEXT((#24,#28,#32))REPRESENTATION_CONTEXT('None','None'));
#37=AXIS2_PLACEMENT_3D('',#38,#39,#40);
#38=CARTESIAN_POINT('',(0.0,0.0,0.0));
#39=DIRECTION('',(0.0,0.0,1.0));
#40=DIRECTION('',(1.0,0.0,0.0));
#41=SHAPE_REPRESENTATION('',(#37),#36);
#42=PRODUCT_DEFINITION_SHAPE('','',#12);
#43=SHAPE_DEFINITION_REPRESENTATION(#42,#41);
#49=(NAMED_UNIT(*)PLANE_ANGLE_UNIT()SI_UNIT($,.RADIAN.));
#50=DIMENSIONAL_EXPONENTS(0.0,0.0,0.0,0.0,0.0,0.0,0.0);
#51=PLANE_ANGLE_MEASURE_WITH_UNIT(PLANE_ANGLE_MEASURE(0.0174532925),#49);
#55=(CONVERSION_BASED_UNIT('DEGREE',#51)NAMED_UNIT(#50)PLANE_ANGLE_UNIT());
#59=(NAMED_UNIT(*)SI_UNIT($,.STERADIAN.)SOLID_ANGLE_UNIT());
#63=(LENGTH_UNIT()NAMED_UNIT(*)SI_UNIT(.MILLI.,.METRE.));
#65=UNCERTAINTY_MEASURE_WITH_UNIT(LENGTH_MEASURE(0.000001),#63,'DISTANCE_ACCURACY_VALUE','');
#67=(GEOMETRIC_REPRESENTATION_CONTEXT(3)GLOBAL_UNCERTAINTY_ASSIGNED_CONTEXT((#65))GLOBAL_UNIT_ASSIGNED_CONTEXT((#55,#59,#63))REPRESENTATION_CONTEXT('','3D'));
#68=CARTESIAN_POINT('',(12.5,-59.454683895705969,11.000000000000039));
#69=DIRECTION('',(-6.942129E-019,1.0,-8.973443E-016));
#70=DIRECTION('',(1.0,0.0,0.0));
#71=AXIS2_PLACEMENT_3D('',#68,#69,#70);
#72=CYLINDRICAL_SURFACE('',#71,2.25);
#73=CARTESIAN_POINT('',(10.25,-16.000000000000007,10.999999999999998));
#74=VERTEX_POINT('',#73);
#75=CARTESIAN_POINT('',(12.5,-16.000000000000007,10.999999999999998));
#76=DIRECTION('',(0.0,1.0,0.0));
#77=DIRECTION('',(1.0,0.0,0.0));
#78=AXIS2_PLACEMENT_3D('',#75,#76,#77);
#79=CIRCLE('',#78,2.25);
#80=EDGE_CURVE('',#74,#74,#79,.T.);
#81=ORIENTED_EDGE('',*,*,#80,.F.);
#82=EDGE_LOOP('',(#81));
#83=FACE_OUTER_BOUND('',#82,.T.);
#84=CARTESIAN_POINT('',(14.75,-12.999999999999998,10.999999999999996));
#85=VERTEX_POINT('',#84);
#86=CARTESIAN_POINT('',(12.5,-12.999999999999998,10.999999999999996));
#87=DIRECTION('',(0.0,-1.0,0.0));
#88=DIRECTION('',(1.0,0.0,0.0));
#89=AXIS2_PLACEMENT_3D('',#86,#87,#88);
#90=CIRCLE('',#89,2.25);
#91=EDGE_CURVE('',#85,#85,#90,.T.);
#92=ORIENTED_EDGE('',*,*,#91,.F.);
#93=EDGE_LOOP('',(#92));
#94=FACE_BOUND('',#93,.T.);
#95=ADVANCED_FACE('',(#83,#94),#72,.F.);
#96=CARTESIAN_POINT('',(-12.500000000000002,-59.454683895705969,11.000000000000043));
#97=DIRECTION('',(-6.942129E-019,1.0,-8.973443E-016));
#98=DIRECTION('',(1.0,0.0,0.0));
#99=AXIS2_PLACEMENT_3D('',#96,#97,#98);
#100=CYLINDRICAL_SURFACE('',#99,2.25);
#101=CARTESIAN_POINT('',(-14.750000000000004,-16.000000000000007,11.000000000000004));
#102=VERTEX_POINT('',#101);
#103=CARTESIAN_POINT('',(-12.500000000000002,-16.000000000000007,11.000000000000004));
#104=DIRECTION('',(0.0,1.0,0.0));
#105=DIRECTION('',(1.0,0.0,0.0));
#106=AXIS2_PLACEMENT_3D('',#103,#104,#105);
#107=CIRCLE('',#106,2.25);
#108=EDGE_CURVE('',#102,#102,#107,.T.);
#109=ORIENTED_EDGE('',*,*,#108,.F.);
#110=EDGE_LOOP('',(#109));
#111=FACE_OUTER_BOUND('',#110,.T.);
#112=CARTESIAN_POINT('',(-10.250000000000002,-12.999999999999998,11.0));
#113=VERTEX_POINT('',#112);
#114=CARTESIAN_POINT('',(-12.500000000000002,-12.999999999999998,11.0));
#115=DIRECTION('',(0.0,-1.0,0.0));
#116=DIRECTION('',(1.0,0.0,0.0));
#117=AXIS2_PLACEMENT_3D('',#114,#115,#116);
#118=CIRCLE('',#117,2.25);
#119=EDGE_CURVE('',#113,#113,#118,.T.);
#120=ORIENTED_EDGE('',*,*,#119,.F.);
#121=EDGE_LOOP('',(#120));
#122=FACE_BOUND('',#121,.T.);
#123=ADVANCED_FACE('',(#111,#122),#100,.F.);
#124=CARTESIAN_POINT('',(0.0,0.0,3.0));
#125=DIRECTION('',(0.0,0.0,1.0));
#126=DIRECTION('',(-1.0,0.0,0.0));
#127=AXIS2_PLACEMENT_3D('',#124,#125,#126);
#128=CYLINDRICAL_SURFACE('',#127,6.05);
#129=CARTESIAN_POINT('',(6.05,7.409113E-016,0.0));
#130=VERTEX_POINT('',#129);
#131=CARTESIAN_POINT('',(0.0,0.0,0.0));
#132=DIRECTION('',(0.0,0.0,1.0));
#133=DIRECTION('',(-1.0,0.0,0.0));
#134=AXIS2_PLACEMENT_3D('',#131,#132,#133);
#135=CIRCLE('',#134,6.05);
#136=EDGE_CURVE('',#130,#130,#135,.T.);
#137=ORIENTED_EDGE('',*,*,#136,.F.);
#138=EDGE_LOOP('',(#137));
#139=FACE_OUTER_BOUND('',#138,.T.);
#140=CARTESIAN_POINT('',(6.05,-7.409113E-016,3.0));
#141=VERTEX_POINT('',#140);
#142=CARTESIAN_POINT('',(0.0,0.0,3.0));
#143=DIRECTION('',(0.0,0.0,-1.0));
#144=DIRECTION('',(-1.0,0.0,0.0));
#145=AXIS2_PLACEMENT_3D('',#142,#143,#144);
#146=CIRCLE('',#145,6.05);
#147=EDGE_CURVE('',#141,#141,#146,.T.);
#148=ORIENTED_EDGE('',*,*,#147,.F.);
#149=EDGE_LOOP('',(#148));
#150=FACE_BOUND('',#149,.T.);
#151=ADVANCED_FACE('',(#139,#150),#128,.F.);
#152=CARTESIAN_POINT('',(0.0,-11.500000000000004,4.500000000000001));
#153=DIRECTION('',(-1.0,0.0,0.0));
#154=DIRECTION('',(0.0,0.0,-1.0));
#155=AXIS2_PLACEMENT_3D('',#152,#153,#154);
#156=CYLINDRICAL_SURFACE('',#155,4.5);
#157=CARTESIAN_POINT('',(-17.5,-16.000000000000007,4.500000000000006));
#158=VERTEX_POINT('',#157);
#159=CARTESIAN_POINT('',(17.5,-16.000000000000007,4.500000000000006));
#160=VERTEX_POINT('',#159);
#161=CARTESIAN_POINT('',(-17.5,-16.000000000000007,4.500000000000006));
#162=DIRECTION('',(1.0,0.0,0.0));
#163=VECTOR('',#162,35.0);
#164=LINE('',#161,#163);
#165=EDGE_CURVE('',#158,#160,#164,.T.);
#166=ORIENTED_EDGE('',*,*,#165,.F.);
#167=CARTESIAN_POINT('',(-16.765515353871852,-11.500000000000004,0.0));
#168=VERTEX_POINT('',#167);
#169=CARTESIAN_POINT('',(-16.765515353871852,-11.500000000000004,1.110223E-015));
#170=CARTESIAN_POINT('',(-16.905417191229596,-12.846396851538486,1.110223E-015));
#171=CARTESIAN_POINT('',(-17.045319028587333,-14.178064763665898,0.646038869504721));
#172=CARTESIAN_POINT('',(-17.185220865945077,-15.017574457349417,1.693405516341562));
#173=CARTESIAN_POINT('',(-17.290147243963382,-15.647206727612053,2.478930501469193));
#174=CARTESIAN_POINT('',(-17.395073621981695,-16.000000000000004,3.49020236134614));
#175=CARTESIAN_POINT('',(-17.5,-16.000000000000004,4.500000000000002));
#176=B_SPLINE_CURVE_WITH_KNOTS('',3,(#169,#170,#171,#172,#173,#174,#175),.UNSPECIFIED.,.F.,.U.,(4,3,4),(0.0,0.897597901025656,1.570796326794897),.UNSPECIFIED.);
#177=EDGE_CURVE('',#168,#158,#176,.T.);
#178=ORIENTED_EDGE('',*,*,#177,.F.);
#179=CARTESIAN_POINT('',(16.765515353871852,-11.500000000000004,0.0));
#180=VERTEX_POINT('',#179);
#181=CARTESIAN_POINT('',(16.765515353871852,-11.500000000000004,0.0));
#182=DIRECTION('',(-1.0,0.0,0.0));
#183=VECTOR('',#182,33.53103070774371);
#184=LINE('',#181,#183);
#185=EDGE_CURVE('',#180,#168,#184,.T.);
#186=ORIENTED_EDGE('',*,*,#185,.F.);
#187=CARTESIAN_POINT('',(17.5,-16.000000000000004,4.500000000000004));
#188=CARTESIAN_POINT('',(17.395073621981695,-16.000000000000004,3.490202361346142));
#189=CARTESIAN_POINT('',(17.290147243963389,-15.647206727612058,2.478930501469193));
#190=CARTESIAN_POINT('',(17.18522086594508,-15.017574457349419,1.693405516341562));
#191=CARTESIAN_POINT('',(17.045319028587336,-14.178064763665903,0.646038869504722));
#192=CARTESIAN_POINT('',(16.905417191229596,-12.846396851538488,2.392266E-015));
#193=CARTESIAN_POINT('',(16.765515353871852,-11.500000000000007,1.110223E-015));
#194=B_SPLINE_CURVE_WITH_KNOTS('',3,(#187,#188,#189,#190,#191,#192,#193),.UNSPECIFIED.,.F.,.U.,(4,3,4),(0.0,0.673198425769242,1.570796326794897),.UNSPECIFIED.);
#195=EDGE_CURVE('',#160,#180,#194,.T.);
#196=ORIENTED_EDGE('',*,*,#195,.F.);
#197=EDGE_LOOP('',(#166,#178,#186,#196));
#198=FACE_OUTER_BOUND('',#197,.T.);
#199=ADVANCED_FACE('',(#198),#156,.T.);
#200=CARTESIAN_POINT('',(-8.326673E-016,-13.0,8.144663000290432));
#201=DIRECTION('',(0.0,1.0,0.0));
#202=DIRECTION('',(1.0,0.0,0.0));
#203=AXIS2_PLACEMENT_3D('',#200,#201,#202);
#204=PLANE('',#203);
#205=CARTESIAN_POINT('',(17.5,-13.000000000000004,4.500000000000004));
#206=VERTEX_POINT('',#205);
#207=CARTESIAN_POINT('',(-17.5,-13.000000000000004,4.500000000000004));
#208=VERTEX_POINT('',#207);
#209=CARTESIAN_POINT('',(17.5,-13.000000000000004,4.500000000000004));
#210=DIRECTION('',(-1.0,0.0,0.0));
#211=VECTOR('',#210,35.0);
#212=LINE('',#209,#211);
#213=EDGE_CURVE('',#206,#208,#212,.T.);
#214=ORIENTED_EDGE('',*,*,#213,.T.);
#215=CARTESIAN_POINT('',(-17.5,-12.999999999999993,16.0));
#216=VERTEX_POINT('',#215);
#217=CARTESIAN_POINT('',(-17.5,-13.000000000000004,4.500000000000004));
#218=DIRECTION('',(0.0,0.0,1.0));
#219=VECTOR('',#218,11.499999999999996);
#220=LINE('',#217,#219);
#221=EDGE_CURVE('',#208,#216,#220,.T.);
#222=ORIENTED_EDGE('',*,*,#221,.T.);
#223=CARTESIAN_POINT('',(17.5,-12.999999999999993,16.0));
#224=VERTEX_POINT('',#223);
#225=CARTESIAN_POINT('',(-17.5,-12.999999999999993,16.0));
#226=DIRECTION('',(1.0,0.0,0.0));
#227=VECTOR('',#226,35.0);
#228=LINE('',#225,#227);
#229=EDGE_CURVE('',#216,#224,#228,.T.);
#230=ORIENTED_EDGE('',*,*,#229,.T.);
#231=CARTESIAN_POINT('',(17.5,-13.000000000000004,4.500000000000004));
#232=DIRECTION('',(0.0,0.0,1.0));
#233=VECTOR('',#232,11.499999999999996);
#234=LINE('',#231,#233);
#235=EDGE_CURVE('',#206,#224,#234,.T.);
#236=ORIENTED_EDGE('',*,*,#235,.F.);
#237=EDGE_LOOP('',(#214,#222,#230,#236));
#238=FACE_OUTER_BOUND('',#237,.T.);
#239=ORIENTED_EDGE('',*,*,#91,.T.);
#240=EDGE_LOOP('',(#239));
#241=FACE_BOUND('',#240,.T.);
#242=ORIENTED_EDGE('',*,*,#119,.T.);
#243=EDGE_LOOP('',(#242));
#244=FACE_BOUND('',#243,.T.);
#245=ADVANCED_FACE('',(#238,#241,#244),#204,.T.);
#246=CARTESIAN_POINT('',(17.5,-12.999999999999993,16.0));
#247=DIRECTION('',(1.0,0.0,0.0));
#248=DIRECTION('',(0.0,-1.0,0.0));
#249=AXIS2_PLACEMENT_3D('',#246,#247,#248);
#250=PLANE('',#249);
#251=CARTESIAN_POINT('',(17.5,-15.999999999999995,16.000000000000007));
#252=VERTEX_POINT('',#251);
#253=CARTESIAN_POINT('',(17.5,-15.999999999999995,16.000000000000007));
#254=DIRECTION('',(0.0,0.0,-1.0));
#255=VECTOR('',#254,11.5);
#256=LINE('',#253,#255);
#257=EDGE_CURVE('',#252,#160,#256,.T.);
#258=ORIENTED_EDGE('',*,*,#257,.T.);
#259=CARTESIAN_POINT('',(17.5,-13.000000000000004,4.500000000000004));
#260=DIRECTION('',(0.0,-1.0,0.0));
#261=VECTOR('',#260,3.0);
#262=LINE('',#259,#261);
#263=EDGE_CURVE('',#206,#160,#262,.T.);
#264=ORIENTED_EDGE('',*,*,#263,.F.);
#265=ORIENTED_EDGE('',*,*,#235,.T.);
#266=CARTESIAN_POINT('',(17.5,-12.999999999999993,16.0));
#267=DIRECTION('',(0.0,-1.0,0.0));
#268=VECTOR('',#267,3.0);
#269=LINE('',#266,#268);
#270=EDGE_CURVE('',#224,#252,#269,.T.);
#271=ORIENTED_EDGE('',*,*,#270,.T.);
#272=EDGE_LOOP('',(#258,#264,#265,#271));
#273=FACE_OUTER_BOUND('',#272,.T.);
#274=ADVANCED_FACE('',(#273),#250,.T.);
#275=CARTESIAN_POINT('',(17.5,-13.000000000000004,4.500000000000002));
#276=CARTESIAN_POINT('',(17.5,-14.000000000000004,4.500000000000003));
#277=CARTESIAN_POINT('',(17.5,-15.000000000000002,4.500000000000004));
#278=CARTESIAN_POINT('',(17.5,-16.000000000000004,4.500000000000004));
#279=CARTESIAN_POINT('',(17.395073621981695,-13.000000000000004,4.163400787115381));
#280=CARTESIAN_POINT('',(17.395073621981695,-14.000000000000004,3.939001311858968));
#281=CARTESIAN_POINT('',(17.395073621981695,-15.000000000000002,3.714601836602556));
#282=CARTESIAN_POINT('',(17.395073621981695,-16.000000000000004,3.490202361346142));
#283=CARTESIAN_POINT('',(17.150245406605649,-12.725605232587158,3.37685600721109));
#284=CARTESIAN_POINT('',(17.150245406605649,-13.542675387645261,2.628093345351813));
#285=CARTESIAN_POINT('',(17.150245406605649,-14.359745542703363,1.879330683492537));
#286=CARTESIAN_POINT('',(17.150245406605649,-15.176815697761466,1.130568021633261));
#287=CARTESIAN_POINT('',(16.905417191229596,-11.948798950512831,3.000000000000002));
#288=CARTESIAN_POINT('',(16.905417191229596,-12.247998250854714,2.000000000000002));
#289=CARTESIAN_POINT('',(16.905417191229596,-12.5471975511966,1.000000000000001));
#290=CARTESIAN_POINT('',(16.905417191229596,-12.846396851538486,5.551115E-016));
#291=CARTESIAN_POINT('',(16.765515353871852,-11.500000000000004,3.000000000000002));
#292=CARTESIAN_POINT('',(16.765515353871852,-11.500000000000004,2.000000000000002));
#293=CARTESIAN_POINT('',(16.765515353871852,-11.500000000000004,1.000000000000001));
#294=CARTESIAN_POINT('',(16.765515353871852,-11.500000000000004,5.551115E-016));
#295=B_SPLINE_SURFACE_WITH_KNOTS('',3,3,((#275,#279,#283,#287,#291),(#276,#280,#284,#288,#292),(#277,#281,#285,#289,#293),(#278,#282,#286,#290,#294)),.UNSPECIFIED.,.F.,.F.,.F.,(4,4),(4,1,4),(0.0,0.3),(0.0,0.192433955724244,0.44901256335657),.UNSPECIFIED.);
#296=ORIENTED_EDGE('',*,*,#195,.T.);
#297=CARTESIAN_POINT('',(16.765515353871852,-11.500000000000004,3.0));
#298=VERTEX_POINT('',#297);
#299=CARTESIAN_POINT('',(16.765515353871852,-11.500000000000004,3.0));
#300=DIRECTION('',(0.0,0.0,-1.0));
#301=VECTOR('',#300,3.0);
#302=LINE('',#299,#301);
#303=EDGE_CURVE('',#298,#180,#302,.T.);
#304=ORIENTED_EDGE('',*,*,#303,.F.);
#305=CARTESIAN_POINT('',(16.765515353871852,-11.500000000000004,3.000000000000002));
#306=CARTESIAN_POINT('',(16.905417191229596,-11.948798950512831,3.000000000000002));
#307=CARTESIAN_POINT('',(17.045319028587336,-12.392688254555305,3.215346289834909));
#308=CARTESIAN_POINT('',(17.18522086594508,-12.672524819116475,3.564468505447189));
#309=CARTESIAN_POINT('',(17.290147243963389,-12.882402242537355,3.826310167156399));
#310=CARTESIAN_POINT('',(17.395073621981695,-13.000000000000004,4.16340078711538));
#311=CARTESIAN_POINT('',(17.5,-13.000000000000004,4.500000000000001));
#312=B_SPLINE_CURVE_WITH_KNOTS('',3,(#305,#306,#307,#308,#309,#310,#311),.UNSPECIFIED.,.F.,.U.,(4,3,4),(0.0,0.897597901025656,1.570796326794897),.UNSPECIFIED.);
#313=EDGE_CURVE('',#298,#206,#312,.T.);
#314=ORIENTED_EDGE('',*,*,#313,.T.);
#315=ORIENTED_EDGE('',*,*,#263,.T.);
#316=EDGE_LOOP('',(#296,#304,#314,#315));
#317=FACE_OUTER_BOUND('',#316,.T.);
#318=ADVANCED_FACE('',(#317),#295,.T.);
#319=CARTESIAN_POINT('',(-17.5,-16.000000000000004,4.500000000000004));
#320=CARTESIAN_POINT('',(-17.5,-15.000000000000002,4.500000000000004));
#321=CARTESIAN_POINT('',(-17.5,-14.000000000000004,4.500000000000003));
#322=CARTESIAN_POINT('',(-17.5,-13.000000000000004,4.500000000000002));
#323=CARTESIAN_POINT('',(-17.395073621981695,-16.000000000000004,3.490202361346142));
#324=CARTESIAN_POINT('',(-17.395073621981695,-15.000000000000002,3.714601836602557));
#325=CARTESIAN_POINT('',(-17.395073621981695,-14.000000000000004,3.939001311858967));
#326=CARTESIAN_POINT('',(-17.395073621981695,-13.000000000000004,4.163400787115381));
#327=CARTESIAN_POINT('',(-17.150245406605642,-15.176815697761459,1.130568021633261));
#328=CARTESIAN_POINT('',(-17.150245406605642,-14.35974554270336,1.879330683492536));
#329=CARTESIAN_POINT('',(-17.150245406605642,-13.542675387645254,2.628093345351811));
#330=CARTESIAN_POINT('',(-17.150245406605642,-12.725605232587153,3.376856007211088));
#331=CARTESIAN_POINT('',(-16.905417191229596,-12.846396851538486,5.551115E-016));
#332=CARTESIAN_POINT('',(-16.905417191229596,-12.5471975511966,1.000000000000001));
#333=CARTESIAN_POINT('',(-16.905417191229596,-12.247998250854717,2.000000000000002));
#334=CARTESIAN_POINT('',(-16.905417191229596,-11.948798950512831,3.000000000000002));
#335=CARTESIAN_POINT('',(-16.765515353871852,-11.500000000000004,5.551115E-016));
#336=CARTESIAN_POINT('',(-16.765515353871852,-11.500000000000004,1.000000000000001));
#337=CARTESIAN_POINT('',(-16.765515353871852,-11.500000000000004,2.000000000000002));
#338=CARTESIAN_POINT('',(-16.765515353871852,-11.500000000000004,3.000000000000002));
#339=B_SPLINE_SURFACE_WITH_KNOTS('',3,3,((#319,#323,#327,#331,#335),(#320,#324,#328,#332,#336),(#321,#325,#329,#333,#337),(#322,#326,#330,#334,#338)),.UNSPECIFIED.,.F.,.F.,.F.,(4,4),(4,1,4),(-0.3,5.551115E-017),(-0.44901256335657,-0.256578607632325,0.0),.UNSPECIFIED.);
#340=ORIENTED_EDGE('',*,*,#177,.T.);
#341=CARTESIAN_POINT('',(-17.5,-13.000000000000004,4.500000000000004));
#342=DIRECTION('',(0.0,-1.0,0.0));
#343=VECTOR('',#342,3.0);
#344=LINE('',#341,#343);
#345=EDGE_CURVE('',#208,#158,#344,.T.);
#346=ORIENTED_EDGE('',*,*,#345,.F.);
#347=CARTESIAN_POINT('',(-16.765515353871852,-11.500000000000004,3.0));
#348=VERTEX_POINT('',#347);
#349=CARTESIAN_POINT('',(-16.765515353871852,-11.500000000000004,3.000000000000002));
#350=CARTESIAN_POINT('',(-16.905417191229596,-11.948798950512831,3.000000000000002));
#351=CARTESIAN_POINT('',(-17.045319028587333,-12.392688254555303,3.215346289834908));
#352=CARTESIAN_POINT('',(-17.185220865945077,-12.672524819116473,3.564468505447188));
#353=CARTESIAN_POINT('',(-17.290147243963382,-12.882402242537353,3.826310167156398));
#354=CARTESIAN_POINT('',(-17.395073621981695,-13.000000000000004,4.163400787115381));
#355=CARTESIAN_POINT('',(-17.5,-13.000000000000004,4.500000000000001));
#356=B_SPLINE_CURVE_WITH_KNOTS('',3,(#349,#350,#351,#352,#353,#354,#355),.UNSPECIFIED.,.F.,.U.,(4,3,4),(0.0,0.897597901025656,1.570796326794897),.UNSPECIFIED.);
#357=EDGE_CURVE('',#348,#208,#356,.T.);
#358=ORIENTED_EDGE('',*,*,#357,.F.);
#359=CARTESIAN_POINT('',(-16.765515353871852,-11.500000000000004,0.0));
#360=DIRECTION('',(0.0,0.0,1.0));
#361=VECTOR('',#360,3.0);
#362=LINE('',#359,#361);
#363=EDGE_CURVE('',#168,#348,#362,.T.);
#364=ORIENTED_EDGE('',*,*,#363,.F.);
#365=EDGE_LOOP('',(#340,#346,#358,#364));
#366=FACE_OUTER_BOUND('',#365,.T.);
#367=ADVANCED_FACE('',(#366),#339,.T.);
#368=CARTESIAN_POINT('',(-17.5,-13.000000000000004,4.500000000000004));
#369=DIRECTION('',(-1.0,0.0,0.0));
#370=DIRECTION('',(0.0,1.0,0.0));
#371=AXIS2_PLACEMENT_3D('',#368,#369,#370);
#372=PLANE('',#371);
#373=CARTESIAN_POINT('',(-17.5,-15.999999999999995,16.000000000000007));
#374=VERTEX_POINT('',#373);
#375=CARTESIAN_POINT('',(-17.5,-16.000000000000004,4.500000000000006));
#376=DIRECTION('',(0.0,0.0,1.0));
#377=VECTOR('',#376,11.5);
#378=LINE('',#375,#377);
#379=EDGE_CURVE('',#158,#374,#378,.T.);
#380=ORIENTED_EDGE('',*,*,#379,.T.);
#381=CARTESIAN_POINT('',(-17.5,-12.999999999999993,16.0));
#382=DIRECTION('',(0.0,-1.0,0.0));
#383=VECTOR('',#382,3.0);
#384=LINE('',#381,#383);
#385=EDGE_CURVE('',#216,#374,#384,.T.);
#386=ORIENTED_EDGE('',*,*,#385,.F.);
#387=ORIENTED_EDGE('',*,*,#221,.F.);
#388=ORIENTED_EDGE('',*,*,#345,.T.);
#389=EDGE_LOOP('',(#380,#386,#387,#388));
#390=FACE_OUTER_BOUND('',#389,.T.);
#391=ADVANCED_FACE('',(#390),#372,.T.);
#392=CARTESIAN_POINT('',(-17.5,-12.999999999999993,16.0));
#393=DIRECTION('',(0.0,0.0,1.0));
#394=DIRECTION('',(0.0,-1.0,0.0));
#395=AXIS2_PLACEMENT_3D('',#392,#393,#394);
#396=PLANE('',#395);
#397=CARTESIAN_POINT('',(-17.5,-15.999999999999995,16.000000000000007));
#398=DIRECTION('',(1.0,0.0,0.0));
#399=VECTOR('',#398,35.0);
#400=LINE('',#397,#399);
#401=EDGE_CURVE('',#374,#252,#400,.T.);
#402=ORIENTED_EDGE('',*,*,#401,.T.);
#403=ORIENTED_EDGE('',*,*,#270,.F.);
#404=ORIENTED_EDGE('',*,*,#229,.F.);
#405=ORIENTED_EDGE('',*,*,#385,.T.);
#406=EDGE_LOOP('',(#402,#403,#404,#405));
#407=FACE_OUTER_BOUND('',#406,.T.);
#408=ADVANCED_FACE('',(#407),#396,.T.);
#409=CARTESIAN_POINT('',(-2.775558E-016,-16.0,8.144663000290436));
#410=DIRECTION('',(0.0,1.0,0.0));
#411=DIRECTION('',(1.0,0.0,0.0));
#412=AXIS2_PLACEMENT_3D('',#409,#410,#411);
#413=PLANE('',#412);
#414=ORIENTED_EDGE('',*,*,#165,.T.);
#415=ORIENTED_EDGE('',*,*,#257,.F.);
#416=ORIENTED_EDGE('',*,*,#401,.F.);
#417=ORIENTED_EDGE('',*,*,#379,.F.);
#418=EDGE_LOOP('',(#414,#415,#416,#417));
#419=FACE_OUTER_BOUND('',#418,.T.);
#420=ORIENTED_EDGE('',*,*,#80,.T.);
#421=EDGE_LOOP('',(#420));
#422=FACE_BOUND('',#421,.T.);
#423=ORIENTED_EDGE('',*,*,#108,.T.);
#424=EDGE_LOOP('',(#423));
#425=FACE_BOUND('',#424,.T.);
#426=ADVANCED_FACE('',(#419,#422,#425),#413,.F.);
#427=CARTESIAN_POINT('',(0.0,-11.500000000000004,4.500000000000001));
#428=DIRECTION('',(-1.0,0.0,0.0));
#429=DIRECTION('',(0.0,0.0,-1.0));
#430=AXIS2_PLACEMENT_3D('',#427,#428,#429);
#431=CYLINDRICAL_SURFACE('',#430,1.499999999999999);
#432=ORIENTED_EDGE('',*,*,#213,.F.);
#433=ORIENTED_EDGE('',*,*,#313,.F.);
#434=CARTESIAN_POINT('',(-16.765515353871855,-11.500000000000004,3.0));
#435=DIRECTION('',(1.0,0.0,0.0));
#436=VECTOR('',#435,33.53103070774371);
#437=LINE('',#434,#436);
#438=EDGE_CURVE('',#348,#298,#437,.T.);
#439=ORIENTED_EDGE('',*,*,#438,.F.);
#440=ORIENTED_EDGE('',*,*,#357,.T.);
#441=EDGE_LOOP('',(#432,#433,#439,#440));
#442=FACE_OUTER_BOUND('',#441,.T.);
#443=ADVANCED_FACE('',(#442),#431,.F.);
#444=CARTESIAN_POINT('',(8.981121897139122,4.397664092302661,0.0));
#445=DIRECTION('',(0.898112189713912,0.439766409230266,0.0));
#446=DIRECTION('',(0.0,0.0,-1.0));
#447=AXIS2_PLACEMENT_3D('',#444,#445,#446);
#448=PLANE('',#447);
#449=ORIENTED_EDGE('',*,*,#303,.T.);
#450=CARTESIAN_POINT('',(8.981121897139122,4.397664092302661,0.0));
#451=VERTEX_POINT('',#450);
#452=CARTESIAN_POINT('',(8.981121897139122,4.397664092302661,0.0));
#453=DIRECTION('',(0.439766409230266,-0.898112189713912,0.0));
#454=VECTOR('',#453,17.701200667777115);
#455=LINE('',#452,#454);
#456=EDGE_CURVE('',#451,#180,#455,.T.);
#457=ORIENTED_EDGE('',*,*,#456,.F.);
#458=CARTESIAN_POINT('',(8.981121897139122,4.397664092302661,3.0));
#459=VERTEX_POINT('',#458);
#460=CARTESIAN_POINT('',(8.981121897139122,4.397664092302661,0.0));
#461=DIRECTION('',(0.0,0.0,1.0));
#462=VECTOR('',#461,3.0);
#463=LINE('',#460,#462);
#464=EDGE_CURVE('',#451,#459,#463,.T.);
#465=ORIENTED_EDGE('',*,*,#464,.T.);
#466=CARTESIAN_POINT('',(8.981121897139122,4.397664092302661,3.0));
#467=DIRECTION('',(0.439766409230266,-0.898112189713912,0.0));
#468=VECTOR('',#467,17.701200667777115);
#469=LINE('',#466,#468);
#470=EDGE_CURVE('',#459,#298,#469,.T.);
#471=ORIENTED_EDGE('',*,*,#470,.T.);
#472=EDGE_LOOP('',(#449,#457,#465,#471));
#473=FACE_OUTER_BOUND('',#472,.T.);
#474=ADVANCED_FACE('',(#473),#448,.T.);
#475=CARTESIAN_POINT('',(4.163336E-016,-6.291943881741828,0.0));
#476=DIRECTION('',(0.0,0.0,1.0));
#477=DIRECTION('',(1.0,0.0,0.0));
#478=AXIS2_PLACEMENT_3D('',#475,#476,#477);
#479=PLANE('',#478);
#480=ORIENTED_EDGE('',*,*,#185,.T.);
#481=CARTESIAN_POINT('',(-8.981121897139119,4.397664092302661,0.0));
#482=VERTEX_POINT('',#481);
#483=CARTESIAN_POINT('',(-16.765515353871852,-11.500000000000004,0.0));
#484=DIRECTION('',(0.439766409230266,0.898112189713912,0.0));
#485=VECTOR('',#484,17.701200667777115);
#486=LINE('',#483,#485);
#487=EDGE_CURVE('',#168,#482,#486,.T.);
#488=ORIENTED_EDGE('',*,*,#487,.T.);
#489=CARTESIAN_POINT('',(0.0,0.0,0.0));
#490=DIRECTION('',(0.0,0.0,-1.0));
#491=DIRECTION('',(-0.898112189713912,-0.439766409230266,0.0));
#492=AXIS2_PLACEMENT_3D('',#489,#490,#491);
#493=CIRCLE('',#492,10.0);
#494=EDGE_CURVE('',#482,#451,#493,.T.);
#495=ORIENTED_EDGE('',*,*,#494,.T.);
#496=ORIENTED_EDGE('',*,*,#456,.T.);
#497=EDGE_LOOP('',(#480,#488,#495,#496));
#498=FACE_OUTER_BOUND('',#497,.T.);
#499=ORIENTED_EDGE('',*,*,#136,.T.);
#500=EDGE_LOOP('',(#499));
#501=FACE_BOUND('',#500,.T.);
#502=ADVANCED_FACE('',(#498,#501),#479,.F.);
#503=CARTESIAN_POINT('',(0.0,0.0,0.0));
#504=DIRECTION('',(0.0,0.0,1.0));
#505=DIRECTION('',(-0.898112189713912,-0.439766409230266,0.0));
#506=AXIS2_PLACEMENT_3D('',#503,#504,#505);
#507=CYLINDRICAL_SURFACE('',#506,10.0);
#508=CARTESIAN_POINT('',(-8.981121897139119,4.397664092302661,3.0));
#509=VERTEX_POINT('',#508);
#510=CARTESIAN_POINT('',(0.0,0.0,3.0));
#511=DIRECTION('',(0.0,0.0,-1.0));
#512=DIRECTION('',(-0.898112189713912,-0.439766409230266,0.0));
#513=AXIS2_PLACEMENT_3D('',#510,#511,#512);
#514=CIRCLE('',#513,10.0);
#515=EDGE_CURVE('',#509,#459,#514,.T.);
#516=ORIENTED_EDGE('',*,*,#515,.T.);
#517=ORIENTED_EDGE('',*,*,#464,.F.);
#518=ORIENTED_EDGE('',*,*,#494,.F.);
#519=CARTESIAN_POINT('',(-8.981121897139119,4.397664092302661,0.0));
#520=DIRECTION('',(0.0,0.0,1.0));
#521=VECTOR('',#520,3.0);
#522=LINE('',#519,#521);
#523=EDGE_CURVE('',#482,#509,#522,.T.);
#524=ORIENTED_EDGE('',*,*,#523,.T.);
#525=EDGE_LOOP('',(#516,#517,#518,#524));
#526=FACE_OUTER_BOUND('',#525,.T.);
#527=ADVANCED_FACE('',(#526),#507,.T.);
#528=CARTESIAN_POINT('',(-17.5,-13.000000000000004,0.0));
#529=DIRECTION('',(-0.898112189713912,0.439766409230266,0.0));
#530=DIRECTION('',(0.0,0.0,1.0));
#531=AXIS2_PLACEMENT_3D('',#528,#529,#530);
#532=PLANE('',#531);
#533=ORIENTED_EDGE('',*,*,#363,.T.);
#534=CARTESIAN_POINT('',(-16.765515353871852,-11.500000000000004,3.0));
#535=DIRECTION('',(0.439766409230266,0.898112189713912,0.0));
#536=VECTOR('',#535,17.701200667777115);
#537=LINE('',#534,#536);
#538=EDGE_CURVE('',#348,#509,#537,.T.);
#539=ORIENTED_EDGE('',*,*,#538,.T.);
#540=ORIENTED_EDGE('',*,*,#523,.F.);
#541=ORIENTED_EDGE('',*,*,#487,.F.);
#542=EDGE_LOOP('',(#533,#539,#540,#541));
#543=FACE_OUTER_BOUND('',#542,.T.);
#544=ADVANCED_FACE('',(#543),#532,.T.);
#545=CARTESIAN_POINT('',(5.992390E-016,-6.291943881741826,3.0));
#546=DIRECTION('',(0.0,0.0,1.0));
#547=DIRECTION('',(1.0,0.0,0.0));
#548=AXIS2_PLACEMENT_3D('',#545,#546,#547);
#549=PLANE('',#548);
#550=ORIENTED_EDGE('',*,*,#438,.T.);
#551=ORIENTED_EDGE('',*,*,#470,.F.);
#552=ORIENTED_EDGE('',*,*,#515,.F.);
#553=ORIENTED_EDGE('',*,*,#538,.F.);
#554=EDGE_LOOP('',(#550,#551,#552,#553));
#555=FACE_OUTER_BOUND('',#554,.T.);
#556=ORIENTED_EDGE('',*,*,#147,.T.);
#557=EDGE_LOOP('',(#556));
#558=FACE_BOUND('',#557,.T.);
#559=ADVANCED_FACE('',(#555,#558),#549,.T.);
#560=CLOSED_SHELL('',(#95,#123,#151,#199,#245,#274,#318,#367,#391,#408,#426,#443,#474,#502,#527,#544,#559));
#561=MANIFOLD_SOLID_BREP('Solido1',#560);
#562=COLOUR_RGB('Zinco',0.67843097448349,0.768626987934113,0.811765015125275);
#563=FILL_AREA_STYLE_COLOUR('Zinco',#562);
#564=FILL_AREA_STYLE('Zinco',(#563));
#565=SURFACE_STYLE_FILL_AREA(#564);
#566=SURFACE_SIDE_STYLE('Zinco',(#565));
#567=SURFACE_STYLE_USAGE(.BOTH.,#566);
#568=PRESENTATION_STYLE_ASSIGNMENT((#567));
#569=STYLED_ITEM('',(#568),#561);
#570=MECHANICAL_DESIGN_GEOMETRIC_PRESENTATION_REPRESENTATION('',(#569),#36);
#571=ADVANCED_BREP_SHAPE_REPRESENTATION('ABSR',(#561),#36);
#572=SHAPE_REPRESENTATION_RELATIONSHIP('SRR','None',#571,#41);
ENDSEC;
END-ISO-10303-21;
