ISO-10303-21;
HEADER;
/****************************************************************
 * Generated by software with PDElib inside                    *
 * PDElib Version v51a, created Tue 11/30/2010                  *
 * ITI Transcendata (http://www.transcendata.com/)              *
 ****************************************************************/
FILE_DESCRIPTION((''),'2;1');
FILE_NAME('T:\\Archivio Inventor\\- FISSAGGI NUOVI\\- MPBI\\MPBI012.016.stp','2014-12-22T11:31:23',('carlo.corazza'),(''),'Autodesk Inventor 2012','Autodesk Inventor 2012','');
FILE_SCHEMA(('AUTOMOTIVE_DESIGN { 1 0 10303 214 1 1 1 1 }'));
ENDSEC;
DATA;
#5=APPLICATION_CONTEXT('automotive design');
#6=APPLICATION_PROTOCOL_DEFINITION('International Standard','automotive_design',2001,#5);
#7=PRODUCT_CONTEXT('',#5,'mechanical');
#8=PRODUCT('MPBI012.016','MPBI012.016',$,(#7));
#9=PRODUCT_RELATED_PRODUCT_CATEGORY('part',$,(#8));
#10=PRODUCT_DEFINITION_FORMATION('',$,#8);
#11=PRODUCT_DEFINITION_CONTEXT('part definition',#5,'design');
#12=PRODUCT_DEFINITION('',$,#10,#11);
#18=(NAMED_UNIT(*)PLANE_ANGLE_UNIT()SI_UNIT($,.RADIAN.));
#19=DIMENSIONAL_EXPONENTS(0.0,0.0,0.0,0.0,0.0,0.0,0.0);
#20=PLANE_ANGLE_MEASURE_WITH_UNIT(PLANE_ANGLE_MEASURE(0.0174532925),#18);
#24=(CONVERSION_BASED_UNIT('DEGREE',#20)NAMED_UNIT(#19)PLANE_ANGLE_UNIT());
#28=(NAMED_UNIT(*)SI_UNIT($,.STERADIAN.)SOLID_ANGLE_UNIT());
#32=(LENGTH_UNIT()NAMED_UNIT(*)SI_UNIT(.MILLI.,.METRE.));
#34=UNCERTAINTY_MEASURE_WITH_UNIT(LENGTH_MEASURE(0.01),#32,'DISTANCE_ACCURACY_VALUE','');
#36=(GEOMETRIC_REPRESENTATION_CONTEXT(3)GLOBAL_UNCERTAINTY_ASSIGNED_CONTEXT((#34))GLOBAL_UNIT_ASSIGNED_CONTEXT((#24,#28,#32))REPRESENTATION_CONTEXT('None','None'));
#37=AXIS2_PLACEMENT_3D('',#38,#39,#40);
#38=CARTESIAN_POINT('',(0.0,0.0,0.0));
#39=DIRECTION('',(0.0,0.0,1.0));
#40=DIRECTION('',(1.0,0.0,0.0));
#41=SHAPE_REPRESENTATION('',(#37),#36);
#42=PRODUCT_DEFINITION_SHAPE('','',#12);
#43=SHAPE_DEFINITION_REPRESENTATION(#42,#41);
#49=(NAMED_UNIT(*)PLANE_ANGLE_UNIT()SI_UNIT($,.RADIAN.));
#50=DIMENSIONAL_EXPONENTS(0.0,0.0,0.0,0.0,0.0,0.0,0.0);
#51=PLANE_ANGLE_MEASURE_WITH_UNIT(PLANE_ANGLE_MEASURE(0.0174532925),#49);
#55=(CONVERSION_BASED_UNIT('DEGREE',#51)NAMED_UNIT(#50)PLANE_ANGLE_UNIT());
#59=(NAMED_UNIT(*)SI_UNIT($,.STERADIAN.)SOLID_ANGLE_UNIT());
#63=(LENGTH_UNIT()NAMED_UNIT(*)SI_UNIT(.MILLI.,.METRE.));
#65=UNCERTAINTY_MEASURE_WITH_UNIT(LENGTH_MEASURE(0.000001),#63,'DISTANCE_ACCURACY_VALUE','');
#67=(GEOMETRIC_REPRESENTATION_CONTEXT(3)GLOBAL_UNCERTAINTY_ASSIGNED_CONTEXT((#65))GLOBAL_UNIT_ASSIGNED_CONTEXT((#55,#59,#63))REPRESENTATION_CONTEXT('','3D'));
#68=CARTESIAN_POINT('',(16.0,-73.049911359955914,13.999999999999979));
#69=DIRECTION('',(2.312522E-018,1.0,1.905111E-016));
#70=DIRECTION('',(1.0,0.0,0.0));
#71=AXIS2_PLACEMENT_3D('',#68,#69,#70);
#72=CYLINDRICAL_SURFACE('',#71,2.75);
#73=CARTESIAN_POINT('',(13.250000000000002,-20.0,13.999999999999989));
#74=VERTEX_POINT('',#73);
#75=CARTESIAN_POINT('',(16.0,-20.0,13.999999999999989));
#76=DIRECTION('',(0.0,1.0,0.0));
#77=DIRECTION('',(1.0,0.0,0.0));
#78=AXIS2_PLACEMENT_3D('',#75,#76,#77);
#79=CIRCLE('',#78,2.75);
#80=EDGE_CURVE('',#74,#74,#79,.T.);
#81=ORIENTED_EDGE('',*,*,#80,.F.);
#82=EDGE_LOOP('',(#81));
#83=FACE_OUTER_BOUND('',#82,.T.);
#84=CARTESIAN_POINT('',(18.75,-16.000000000000004,13.999999999999989));
#85=VERTEX_POINT('',#84);
#86=CARTESIAN_POINT('',(16.0,-15.999999999999996,13.999999999999989));
#87=DIRECTION('',(0.0,-1.0,0.0));
#88=DIRECTION('',(1.0,0.0,0.0));
#89=AXIS2_PLACEMENT_3D('',#86,#87,#88);
#90=CIRCLE('',#89,2.75);
#91=EDGE_CURVE('',#85,#85,#90,.T.);
#92=ORIENTED_EDGE('',*,*,#91,.F.);
#93=EDGE_LOOP('',(#92));
#94=FACE_BOUND('',#93,.T.);
#95=ADVANCED_FACE('',(#83,#94),#72,.F.);
#96=CARTESIAN_POINT('',(-16.000000000000004,-73.049911359955914,13.999999999999986));
#97=DIRECTION('',(2.312522E-018,1.0,1.905111E-016));
#98=DIRECTION('',(1.0,0.0,0.0));
#99=AXIS2_PLACEMENT_3D('',#96,#97,#98);
#100=CYLINDRICAL_SURFACE('',#99,2.75);
#101=CARTESIAN_POINT('',(-18.750000000000004,-20.0,13.999999999999996));
#102=VERTEX_POINT('',#101);
#103=CARTESIAN_POINT('',(-16.000000000000004,-20.0,13.999999999999996));
#104=DIRECTION('',(0.0,1.0,0.0));
#105=DIRECTION('',(1.0,0.0,0.0));
#106=AXIS2_PLACEMENT_3D('',#103,#104,#105);
#107=CIRCLE('',#106,2.75);
#108=EDGE_CURVE('',#102,#102,#107,.T.);
#109=ORIENTED_EDGE('',*,*,#108,.F.);
#110=EDGE_LOOP('',(#109));
#111=FACE_OUTER_BOUND('',#110,.T.);
#112=CARTESIAN_POINT('',(-13.250000000000002,-16.0,13.999999999999996));
#113=VERTEX_POINT('',#112);
#114=CARTESIAN_POINT('',(-16.000000000000004,-15.999999999999996,13.999999999999996));
#115=DIRECTION('',(0.0,-1.0,0.0));
#116=DIRECTION('',(1.0,0.0,0.0));
#117=AXIS2_PLACEMENT_3D('',#114,#115,#116);
#118=CIRCLE('',#117,2.75);
#119=EDGE_CURVE('',#113,#113,#118,.T.);
#120=ORIENTED_EDGE('',*,*,#119,.F.);
#121=EDGE_LOOP('',(#120));
#122=FACE_BOUND('',#121,.T.);
#123=ADVANCED_FACE('',(#111,#122),#100,.F.);
#124=CARTESIAN_POINT('',(0.0,0.0,4.0));
#125=DIRECTION('',(0.0,0.0,1.0));
#126=DIRECTION('',(-1.0,0.0,0.0));
#127=AXIS2_PLACEMENT_3D('',#124,#125,#126);
#128=CYLINDRICAL_SURFACE('',#127,8.050000000000001);
#129=CARTESIAN_POINT('',(8.050000000000001,9.858407E-016,0.0));
#130=VERTEX_POINT('',#129);
#131=CARTESIAN_POINT('',(0.0,0.0,0.0));
#132=DIRECTION('',(0.0,0.0,1.0));
#133=DIRECTION('',(-1.0,0.0,0.0));
#134=AXIS2_PLACEMENT_3D('',#131,#132,#133);
#135=CIRCLE('',#134,8.050000000000001);
#136=EDGE_CURVE('',#130,#130,#135,.T.);
#137=ORIENTED_EDGE('',*,*,#136,.F.);
#138=EDGE_LOOP('',(#137));
#139=FACE_OUTER_BOUND('',#138,.T.);
#140=CARTESIAN_POINT('',(8.050000000000001,-9.858407E-016,4.0));
#141=VERTEX_POINT('',#140);
#142=CARTESIAN_POINT('',(0.0,0.0,4.0));
#143=DIRECTION('',(0.0,0.0,-1.0));
#144=DIRECTION('',(-1.0,0.0,0.0));
#145=AXIS2_PLACEMENT_3D('',#142,#143,#144);
#146=CIRCLE('',#145,8.050000000000001);
#147=EDGE_CURVE('',#141,#141,#146,.T.);
#148=ORIENTED_EDGE('',*,*,#147,.F.);
#149=EDGE_LOOP('',(#148));
#150=FACE_BOUND('',#149,.T.);
#151=ADVANCED_FACE('',(#139,#150),#128,.F.);
#152=CARTESIAN_POINT('',(0.0,-14.000000000000002,6.000000000000001));
#153=DIRECTION('',(-1.0,0.0,0.0));
#154=DIRECTION('',(0.0,0.0,-1.0));
#155=AXIS2_PLACEMENT_3D('',#152,#153,#154);
#156=CYLINDRICAL_SURFACE('',#155,6.000000000000001);
#157=CARTESIAN_POINT('',(-21.0,-20.0,6.000000000000001));
#158=VERTEX_POINT('',#157);
#159=CARTESIAN_POINT('',(21.0,-20.0,6.000000000000001));
#160=VERTEX_POINT('',#159);
#161=CARTESIAN_POINT('',(-21.0,-20.0,5.999999999999998));
#162=DIRECTION('',(1.0,0.0,0.0));
#163=VECTOR('',#162,42.0);
#164=LINE('',#161,#163);
#165=EDGE_CURVE('',#158,#160,#164,.T.);
#166=ORIENTED_EDGE('',*,*,#165,.F.);
#167=CARTESIAN_POINT('',(-20.142925462528218,-14.000000000000002,-1.110223E-015));
#168=VERTEX_POINT('',#167);
#169=CARTESIAN_POINT('',(-20.142925462528218,-14.000000000000002,1.110223E-015));
#170=CARTESIAN_POINT('',(-20.224551608954101,-14.897597901025657,1.027617E-015));
#171=CARTESIAN_POINT('',(-20.306177755379984,-15.793550410354342,0.205314547164804));
#172=CARTESIAN_POINT('',(-20.387803901805871,-16.602029274571134,0.594722516932836));
#173=CARTESIAN_POINT('',(-20.469430048231754,-17.410508138787922,0.984130486700867));
#174=CARTESIAN_POINT('',(-20.551056194657633,-18.131513357892818,1.557631879072128));
#175=CARTESIAN_POINT('',(-20.632682341083516,-18.69003309950773,2.259447783428084));
#176=CARTESIAN_POINT('',(-20.755121560722344,-19.527812711930096,3.312171639962018));
#177=CARTESIAN_POINT('',(-20.877560780361172,-20.0,4.653603148461516));
#178=CARTESIAN_POINT('',(-21.0,-20.0,5.999999999999998));
#179=B_SPLINE_CURVE_WITH_KNOTS('',3,(#169,#170,#171,#172,#173,#174,#175,#176,#177,#178),.UNSPECIFIED.,.F.,.U.,(4,3,3,4),(0.0,0.448798950512828,0.897597901025655,1.570796326794896),.UNSPECIFIED.);
#180=EDGE_CURVE('',#168,#158,#179,.T.);
#181=ORIENTED_EDGE('',*,*,#180,.F.);
#182=CARTESIAN_POINT('',(20.142925462528215,-14.000000000000002,-1.110223E-015));
#183=VERTEX_POINT('',#182);
#184=CARTESIAN_POINT('',(20.142925462528215,-14.0,0.0));
#185=DIRECTION('',(-1.0,0.0,0.0));
#186=VECTOR('',#185,40.285850925056437);
#187=LINE('',#184,#186);
#188=EDGE_CURVE('',#183,#168,#187,.T.);
#189=ORIENTED_EDGE('',*,*,#188,.F.);
#190=CARTESIAN_POINT('',(21.0,-20.0,6.000000000000001));
#191=CARTESIAN_POINT('',(20.877560780361172,-20.0,4.653603148461518));
#192=CARTESIAN_POINT('',(20.755121560722344,-19.527812711930103,3.312171639962017));
#193=CARTESIAN_POINT('',(20.632682341083523,-18.690033099507733,2.259447783428083));
#194=CARTESIAN_POINT('',(20.551056194657633,-18.131513357892821,1.557631879072127));
#195=CARTESIAN_POINT('',(20.469430048231754,-17.410508138787925,0.984130486700867));
#196=CARTESIAN_POINT('',(20.387803901805871,-16.602029274571134,0.594722516932835));
#197=CARTESIAN_POINT('',(20.306177755379984,-15.793550410354339,0.205314547164804));
#198=CARTESIAN_POINT('',(20.224551608954101,-14.897597901025655,1.159787E-015));
#199=CARTESIAN_POINT('',(20.142925462528218,-14.0,1.665335E-015));
#200=B_SPLINE_CURVE_WITH_KNOTS('',3,(#190,#191,#192,#193,#194,#195,#196,#197,#198,#199),.UNSPECIFIED.,.F.,.U.,(4,3,3,4),(0.0,0.673198425769242,1.121997376282069,1.570796326794896),.UNSPECIFIED.);
#201=EDGE_CURVE('',#160,#183,#200,.T.);
#202=ORIENTED_EDGE('',*,*,#201,.F.);
#203=EDGE_LOOP('',(#166,#181,#189,#202));
#204=FACE_OUTER_BOUND('',#203,.T.);
#205=ADVANCED_FACE('',(#204),#156,.T.);
#206=CARTESIAN_POINT('',(0.0,-16.0,10.179407813372991));
#207=DIRECTION('',(0.0,1.0,0.0));
#208=DIRECTION('',(1.0,0.0,0.0));
#209=AXIS2_PLACEMENT_3D('',#206,#207,#208);
#210=PLANE('',#209);
#211=CARTESIAN_POINT('',(21.0,-16.0,6.000000000000001));
#212=VERTEX_POINT('',#211);
#213=CARTESIAN_POINT('',(-21.0,-16.0,6.000000000000001));
#214=VERTEX_POINT('',#213);
#215=CARTESIAN_POINT('',(21.0,-16.0,5.999999999999998));
#216=DIRECTION('',(-1.0,0.0,0.0));
#217=VECTOR('',#216,42.0);
#218=LINE('',#215,#217);
#219=EDGE_CURVE('',#212,#214,#218,.T.);
#220=ORIENTED_EDGE('',*,*,#219,.T.);
#221=CARTESIAN_POINT('',(-21.0,-16.000000000000004,20.000000000000004));
#222=VERTEX_POINT('',#221);
#223=CARTESIAN_POINT('',(-21.0,-16.0,6.000000000000001));
#224=DIRECTION('',(0.0,0.0,1.0));
#225=VECTOR('',#224,14.0);
#226=LINE('',#223,#225);
#227=EDGE_CURVE('',#214,#222,#226,.T.);
#228=ORIENTED_EDGE('',*,*,#227,.T.);
#229=CARTESIAN_POINT('',(21.0,-16.000000000000004,20.000000000000004));
#230=VERTEX_POINT('',#229);
#231=CARTESIAN_POINT('',(-21.0,-16.000000000000004,20.000000000000004));
#232=DIRECTION('',(1.0,0.0,0.0));
#233=VECTOR('',#232,42.0);
#234=LINE('',#231,#233);
#235=EDGE_CURVE('',#222,#230,#234,.T.);
#236=ORIENTED_EDGE('',*,*,#235,.T.);
#237=CARTESIAN_POINT('',(21.0,-16.0,6.000000000000001));
#238=DIRECTION('',(0.0,0.0,1.0));
#239=VECTOR('',#238,14.0);
#240=LINE('',#237,#239);
#241=EDGE_CURVE('',#212,#230,#240,.T.);
#242=ORIENTED_EDGE('',*,*,#241,.F.);
#243=EDGE_LOOP('',(#220,#228,#236,#242));
#244=FACE_OUTER_BOUND('',#243,.T.);
#245=ORIENTED_EDGE('',*,*,#91,.T.);
#246=EDGE_LOOP('',(#245));
#247=FACE_BOUND('',#246,.T.);
#248=ORIENTED_EDGE('',*,*,#119,.T.);
#249=EDGE_LOOP('',(#248));
#250=FACE_BOUND('',#249,.T.);
#251=ADVANCED_FACE('',(#244,#247,#250),#210,.T.);
#252=CARTESIAN_POINT('',(21.0,-16.000000000000004,20.000000000000004));
#253=DIRECTION('',(1.0,0.0,0.0));
#254=DIRECTION('',(0.0,-1.0,0.0));
#255=AXIS2_PLACEMENT_3D('',#252,#253,#254);
#256=PLANE('',#255);
#257=CARTESIAN_POINT('',(21.0,-20.000000000000004,20.000000000000004));
#258=VERTEX_POINT('',#257);
#259=CARTESIAN_POINT('',(21.0,-20.000000000000004,20.0));
#260=DIRECTION('',(0.0,0.0,-1.0));
#261=VECTOR('',#260,14.0);
#262=LINE('',#259,#261);
#263=EDGE_CURVE('',#258,#160,#262,.T.);
#264=ORIENTED_EDGE('',*,*,#263,.T.);
#265=CARTESIAN_POINT('',(21.0,-16.0,6.000000000000001));
#266=DIRECTION('',(0.0,-1.0,0.0));
#267=VECTOR('',#266,4.0);
#268=LINE('',#265,#267);
#269=EDGE_CURVE('',#212,#160,#268,.T.);
#270=ORIENTED_EDGE('',*,*,#269,.F.);
#271=ORIENTED_EDGE('',*,*,#241,.T.);
#272=CARTESIAN_POINT('',(21.0,-16.000000000000004,20.000000000000004));
#273=DIRECTION('',(0.0,-1.0,0.0));
#274=VECTOR('',#273,4.000000000000004);
#275=LINE('',#272,#274);
#276=EDGE_CURVE('',#230,#258,#275,.T.);
#277=ORIENTED_EDGE('',*,*,#276,.T.);
#278=EDGE_LOOP('',(#264,#270,#271,#277));
#279=FACE_OUTER_BOUND('',#278,.T.);
#280=ADVANCED_FACE('',(#279),#256,.T.);
#281=CARTESIAN_POINT('',(21.0,-16.0,6.000000000000001));
#282=CARTESIAN_POINT('',(21.0,-17.333333333333336,6.000000000000001));
#283=CARTESIAN_POINT('',(21.0,-18.666666666666668,6.000000000000001));
#284=CARTESIAN_POINT('',(21.0,-20.0,6.000000000000001));
#285=CARTESIAN_POINT('',(20.877560780361172,-16.0,5.551201049487173));
#286=CARTESIAN_POINT('',(20.877560780361172,-17.333333333333336,5.252001749145288));
#287=CARTESIAN_POINT('',(20.877560780361172,-18.666666666666668,4.952802448803404));
#288=CARTESIAN_POINT('',(20.877560780361172,-20.0,4.653603148461518));
#289=CARTESIAN_POINT('',(20.673495414296461,-15.737673728850057,4.805961322543007));
#290=CARTESIAN_POINT('',(20.673495414296461,-16.896122881416758,4.009935537571677));
#291=CARTESIAN_POINT('',(20.673495414296461,-18.054572033983469,3.213909752600346));
#292=CARTESIAN_POINT('',(20.673495414296461,-19.213021186550169,2.417883967629017));
#293=CARTESIAN_POINT('',(20.387803901805871,-14.896500973227676,4.136876364776537));
#294=CARTESIAN_POINT('',(20.387803901805871,-15.494168288712785,2.894793941294226));
#295=CARTESIAN_POINT('',(20.387803901805871,-16.091835604197907,1.652711517811917));
#296=CARTESIAN_POINT('',(20.387803901805871,-16.689502919683022,0.410629094329606));
#297=CARTESIAN_POINT('',(20.224551608954101,-14.299199300341884,4.000000000000002));
#298=CARTESIAN_POINT('',(20.224551608954101,-14.498665500569805,2.666666666666667));
#299=CARTESIAN_POINT('',(20.224551608954101,-14.698131700797731,1.333333333333333));
#300=CARTESIAN_POINT('',(20.224551608954101,-14.897597901025652,-7.972271E-016));
#301=CARTESIAN_POINT('',(20.142925462528218,-14.0,4.000000000000002));
#302=CARTESIAN_POINT('',(20.142925462528218,-13.999999999999996,2.666666666666668));
#303=CARTESIAN_POINT('',(20.142925462528218,-14.0,1.333333333333334));
#304=CARTESIAN_POINT('',(20.142925462528218,-13.999999999999996,0.0));
#305=B_SPLINE_SURFACE_WITH_KNOTS('',3,3,((#281,#285,#289,#293,#297,#301),(#282,#286,#290,#294,#298,#302),(#283,#287,#291,#295,#299,#303),(#284,#288,#292,#296,#300,#304)),.UNSPECIFIED.,.F.,.F.,.F.,(4,4),(4,1,1,4),(0.0,0.4),(0.0,0.25577387933762,0.426289798896032,0.596805718454446),.UNSPECIFIED.);
#306=ORIENTED_EDGE('',*,*,#201,.T.);
#307=CARTESIAN_POINT('',(20.142925462528215,-14.000000000000002,4.0));
#308=VERTEX_POINT('',#307);
#309=CARTESIAN_POINT('',(20.142925462528218,-14.000000000000002,4.0));
#310=DIRECTION('',(0.0,0.0,-1.0));
#311=VECTOR('',#310,4.000000000000002);
#312=LINE('',#309,#311);
#313=EDGE_CURVE('',#308,#183,#312,.T.);
#314=ORIENTED_EDGE('',*,*,#313,.F.);
#315=CARTESIAN_POINT('',(20.142925462528218,-14.000000000000002,4.000000000000002));
#316=CARTESIAN_POINT('',(20.224551608954101,-14.299199300341886,4.000000000000002));
#317=CARTESIAN_POINT('',(20.306177755379984,-14.59785013678478,4.06843818238827));
#318=CARTESIAN_POINT('',(20.387803901805871,-14.867343091523713,4.198240838977613));
#319=CARTESIAN_POINT('',(20.469430048231754,-15.136836046262642,4.328043495566956));
#320=CARTESIAN_POINT('',(20.551056194657633,-15.377171119297607,4.519210626357376));
#321=CARTESIAN_POINT('',(20.632682341083516,-15.563344366502578,4.753149261142695));
#322=CARTESIAN_POINT('',(20.755121560722344,-15.842604237310034,5.104057213320673));
#323=CARTESIAN_POINT('',(20.877560780361172,-16.0,5.551201049487172));
#324=CARTESIAN_POINT('',(21.0,-16.0,6.0));
#325=B_SPLINE_CURVE_WITH_KNOTS('',3,(#315,#316,#317,#318,#319,#320,#321,#322,#323,#324),.UNSPECIFIED.,.F.,.U.,(4,3,3,4),(0.0,0.448798950512827,0.897597901025655,1.570796326794896),.UNSPECIFIED.);
#326=EDGE_CURVE('',#308,#212,#325,.T.);
#327=ORIENTED_EDGE('',*,*,#326,.T.);
#328=ORIENTED_EDGE('',*,*,#269,.T.);
#329=EDGE_LOOP('',(#306,#314,#327,#328));
#330=FACE_OUTER_BOUND('',#329,.T.);
#331=ADVANCED_FACE('',(#330),#305,.T.);
#332=CARTESIAN_POINT('',(-21.0,-20.0,6.000000000000001));
#333=CARTESIAN_POINT('',(-21.0,-18.666666666666668,6.000000000000001));
#334=CARTESIAN_POINT('',(-21.0,-17.333333333333336,6.000000000000001));
#335=CARTESIAN_POINT('',(-21.0,-16.0,6.000000000000001));
#336=CARTESIAN_POINT('',(-20.877560780361172,-20.0,4.653603148461518));
#337=CARTESIAN_POINT('',(-20.877560780361172,-18.666666666666668,4.952802448803403));
#338=CARTESIAN_POINT('',(-20.877560780361172,-17.333333333333336,5.252001749145289));
#339=CARTESIAN_POINT('',(-20.877560780361172,-16.0,5.551201049487173));
#340=CARTESIAN_POINT('',(-20.673495414296461,-19.213021186550165,2.417883967629018));
#341=CARTESIAN_POINT('',(-20.673495414296461,-18.054572033983462,3.213909752600348));
#342=CARTESIAN_POINT('',(-20.673495414296461,-16.896122881416751,4.009935537571677));
#343=CARTESIAN_POINT('',(-20.673495414296461,-15.737673728850055,4.805961322543007));
#344=CARTESIAN_POINT('',(-20.387803901805871,-16.689502919683026,0.410629094329606));
#345=CARTESIAN_POINT('',(-20.387803901805871,-16.091835604197907,1.652711517811916));
#346=CARTESIAN_POINT('',(-20.387803901805871,-15.494168288712793,2.894793941294227));
#347=CARTESIAN_POINT('',(-20.387803901805871,-14.896500973227676,4.136876364776536));
#348=CARTESIAN_POINT('',(-20.224551608954101,-14.897597901025657,0.0));
#349=CARTESIAN_POINT('',(-20.224551608954101,-14.698131700797735,1.333333333333334));
#350=CARTESIAN_POINT('',(-20.224551608954101,-14.49866550056981,2.666666666666668));
#351=CARTESIAN_POINT('',(-20.224551608954101,-14.299199300341886,4.000000000000002));
#352=CARTESIAN_POINT('',(-20.142925462528218,-14.000000000000002,0.0));
#353=CARTESIAN_POINT('',(-20.142925462528218,-14.000000000000002,1.333333333333334));
#354=CARTESIAN_POINT('',(-20.142925462528218,-14.000000000000002,2.666666666666668));
#355=CARTESIAN_POINT('',(-20.142925462528218,-14.000000000000002,4.000000000000002));
#356=B_SPLINE_SURFACE_WITH_KNOTS('',3,3,((#332,#336,#340,#344,#348,#352),(#333,#337,#341,#345,#349,#353),(#334,#338,#342,#346,#350,#354),(#335,#339,#343,#347,#351,#355)),.UNSPECIFIED.,.F.,.F.,.F.,(4,4),(4,1,1,4),(-0.4,0.0),(-0.596805718454446,-0.341031839116826,-0.170515919558413,0.0),.UNSPECIFIED.);
#357=ORIENTED_EDGE('',*,*,#180,.T.);
#358=CARTESIAN_POINT('',(-21.0,-16.0,6.000000000000001));
#359=DIRECTION('',(0.0,-1.0,0.0));
#360=VECTOR('',#359,4.0);
#361=LINE('',#358,#360);
#362=EDGE_CURVE('',#214,#158,#361,.T.);
#363=ORIENTED_EDGE('',*,*,#362,.F.);
#364=CARTESIAN_POINT('',(-20.142925462528218,-14.000000000000002,4.0));
#365=VERTEX_POINT('',#364);
#366=CARTESIAN_POINT('',(-20.142925462528218,-14.000000000000002,4.000000000000002));
#367=CARTESIAN_POINT('',(-20.224551608954101,-14.299199300341886,4.000000000000002));
#368=CARTESIAN_POINT('',(-20.306177755379984,-14.59785013678478,4.068438182388269));
#369=CARTESIAN_POINT('',(-20.387803901805871,-14.867343091523711,4.198240838977613));
#370=CARTESIAN_POINT('',(-20.469430048231754,-15.136836046262641,4.328043495566956));
#371=CARTESIAN_POINT('',(-20.551056194657633,-15.377171119297607,4.519210626357376));
#372=CARTESIAN_POINT('',(-20.632682341083516,-15.563344366502578,4.753149261142695));
#373=CARTESIAN_POINT('',(-20.755121560722344,-15.842604237310031,5.104057213320673));
#374=CARTESIAN_POINT('',(-20.877560780361172,-16.0,5.551201049487172));
#375=CARTESIAN_POINT('',(-21.0,-16.0,6.0));
#376=B_SPLINE_CURVE_WITH_KNOTS('',3,(#366,#367,#368,#369,#370,#371,#372,#373,#374,#375),.UNSPECIFIED.,.F.,.U.,(4,3,3,4),(0.0,0.448798950512828,0.897597901025655,1.570796326794896),.UNSPECIFIED.);
#377=EDGE_CURVE('',#365,#214,#376,.T.);
#378=ORIENTED_EDGE('',*,*,#377,.F.);
#379=CARTESIAN_POINT('',(-20.142925462528218,-14.0,-1.332268E-015));
#380=DIRECTION('',(0.0,0.0,1.0));
#381=VECTOR('',#380,4.000000000000002);
#382=LINE('',#379,#381);
#383=EDGE_CURVE('',#168,#365,#382,.T.);
#384=ORIENTED_EDGE('',*,*,#383,.F.);
#385=EDGE_LOOP('',(#357,#363,#378,#384));
#386=FACE_OUTER_BOUND('',#385,.T.);
#387=ADVANCED_FACE('',(#386),#356,.T.);
#388=CARTESIAN_POINT('',(-21.0,-16.0,6.000000000000001));
#389=DIRECTION('',(-1.0,0.0,0.0));
#390=DIRECTION('',(0.0,1.0,0.0));
#391=AXIS2_PLACEMENT_3D('',#388,#389,#390);
#392=PLANE('',#391);
#393=CARTESIAN_POINT('',(-21.0,-20.000000000000004,20.000000000000004));
#394=VERTEX_POINT('',#393);
#395=CARTESIAN_POINT('',(-21.0,-20.000000000000004,6.000000000000001));
#396=DIRECTION('',(0.0,0.0,1.0));
#397=VECTOR('',#396,14.0);
#398=LINE('',#395,#397);
#399=EDGE_CURVE('',#158,#394,#398,.T.);
#400=ORIENTED_EDGE('',*,*,#399,.T.);
#401=CARTESIAN_POINT('',(-21.0,-16.000000000000004,20.000000000000004));
#402=DIRECTION('',(0.0,-1.0,0.0));
#403=VECTOR('',#402,4.000000000000004);
#404=LINE('',#401,#403);
#405=EDGE_CURVE('',#222,#394,#404,.T.);
#406=ORIENTED_EDGE('',*,*,#405,.F.);
#407=ORIENTED_EDGE('',*,*,#227,.F.);
#408=ORIENTED_EDGE('',*,*,#362,.T.);
#409=EDGE_LOOP('',(#400,#406,#407,#408));
#410=FACE_OUTER_BOUND('',#409,.T.);
#411=ADVANCED_FACE('',(#410),#392,.T.);
#412=CARTESIAN_POINT('',(-21.0,-16.000000000000004,20.000000000000004));
#413=DIRECTION('',(0.0,0.0,1.0));
#414=DIRECTION('',(0.0,-1.0,0.0));
#415=AXIS2_PLACEMENT_3D('',#412,#413,#414);
#416=PLANE('',#415);
#417=CARTESIAN_POINT('',(-21.0,-20.000000000000004,20.000000000000004));
#418=DIRECTION('',(1.0,0.0,0.0));
#419=VECTOR('',#418,42.0);
#420=LINE('',#417,#419);
#421=EDGE_CURVE('',#394,#258,#420,.T.);
#422=ORIENTED_EDGE('',*,*,#421,.T.);
#423=ORIENTED_EDGE('',*,*,#276,.F.);
#424=ORIENTED_EDGE('',*,*,#235,.F.);
#425=ORIENTED_EDGE('',*,*,#405,.T.);
#426=EDGE_LOOP('',(#422,#423,#424,#425));
#427=FACE_OUTER_BOUND('',#426,.T.);
#428=ADVANCED_FACE('',(#427),#416,.T.);
#429=CARTESIAN_POINT('',(5.551115E-016,-20.0,10.179407813372991));
#430=DIRECTION('',(0.0,1.0,0.0));
#431=DIRECTION('',(1.0,0.0,0.0));
#432=AXIS2_PLACEMENT_3D('',#429,#430,#431);
#433=PLANE('',#432);
#434=ORIENTED_EDGE('',*,*,#165,.T.);
#435=ORIENTED_EDGE('',*,*,#263,.F.);
#436=ORIENTED_EDGE('',*,*,#421,.F.);
#437=ORIENTED_EDGE('',*,*,#399,.F.);
#438=EDGE_LOOP('',(#434,#435,#436,#437));
#439=FACE_OUTER_BOUND('',#438,.T.);
#440=ORIENTED_EDGE('',*,*,#80,.T.);
#441=EDGE_LOOP('',(#440));
#442=FACE_BOUND('',#441,.T.);
#443=ORIENTED_EDGE('',*,*,#108,.T.);
#444=EDGE_LOOP('',(#443));
#445=FACE_BOUND('',#444,.T.);
#446=ADVANCED_FACE('',(#439,#442,#445),#433,.F.);
#447=CARTESIAN_POINT('',(0.0,-14.000000000000002,6.000000000000001));
#448=DIRECTION('',(-1.0,0.0,0.0));
#449=DIRECTION('',(0.0,0.0,-1.0));
#450=AXIS2_PLACEMENT_3D('',#447,#448,#449);
#451=CYLINDRICAL_SURFACE('',#450,2.000000000000001);
#452=ORIENTED_EDGE('',*,*,#219,.F.);
#453=ORIENTED_EDGE('',*,*,#326,.F.);
#454=CARTESIAN_POINT('',(-20.142925462528218,-14.0,4.0));
#455=DIRECTION('',(1.0,0.0,0.0));
#456=VECTOR('',#455,40.285850925056437);
#457=LINE('',#454,#456);
#458=EDGE_CURVE('',#365,#308,#457,.T.);
#459=ORIENTED_EDGE('',*,*,#458,.F.);
#460=ORIENTED_EDGE('',*,*,#377,.T.);
#461=EDGE_LOOP('',(#452,#453,#459,#460));
#462=FACE_OUTER_BOUND('',#461,.T.);
#463=ADVANCED_FACE('',(#462),#451,.F.);
#464=CARTESIAN_POINT('',(11.949033173485851,5.120606040200181,0.0));
#465=DIRECTION('',(0.91915639796045,0.393892772323091,0.0));
#466=DIRECTION('',(0.0,0.0,-1.0));
#467=AXIS2_PLACEMENT_3D('',#464,#465,#466);
#468=PLANE('',#467);
#469=ORIENTED_EDGE('',*,*,#313,.T.);
#470=CARTESIAN_POINT('',(11.949033173485851,5.120606040200181,0.0));
#471=VERTEX_POINT('',#470);
#472=CARTESIAN_POINT('',(11.949033173485851,5.120606040200181,0.0));
#473=DIRECTION('',(0.393892772323091,-0.91915639796045,0.0));
#474=VECTOR('',#473,20.80234232457892);
#475=LINE('',#472,#474);
#476=EDGE_CURVE('',#471,#183,#475,.T.);
#477=ORIENTED_EDGE('',*,*,#476,.F.);
#478=CARTESIAN_POINT('',(11.949033173485851,5.120606040200181,4.0));
#479=VERTEX_POINT('',#478);
#480=CARTESIAN_POINT('',(11.949033173485851,5.120606040200181,0.0));
#481=DIRECTION('',(0.0,0.0,1.0));
#482=VECTOR('',#481,4.0);
#483=LINE('',#480,#482);
#484=EDGE_CURVE('',#471,#479,#483,.T.);
#485=ORIENTED_EDGE('',*,*,#484,.T.);
#486=CARTESIAN_POINT('',(11.949033173485851,5.120606040200181,4.0));
#487=DIRECTION('',(0.393892772323091,-0.91915639796045,0.0));
#488=VECTOR('',#487,20.80234232457892);
#489=LINE('',#486,#488);
#490=EDGE_CURVE('',#479,#308,#489,.T.);
#491=ORIENTED_EDGE('',*,*,#490,.T.);
#492=EDGE_LOOP('',(#469,#477,#485,#491));
#493=FACE_OUTER_BOUND('',#492,.T.);
#494=ADVANCED_FACE('',(#493),#468,.T.);
#495=CARTESIAN_POINT('',(1.387779E-016,-7.434239298453504,0.0));
#496=DIRECTION('',(0.0,0.0,1.0));
#497=DIRECTION('',(1.0,0.0,0.0));
#498=AXIS2_PLACEMENT_3D('',#495,#496,#497);
#499=PLANE('',#498);
#500=ORIENTED_EDGE('',*,*,#188,.T.);
#501=CARTESIAN_POINT('',(-11.949033173485855,5.120606040200183,0.0));
#502=VERTEX_POINT('',#501);
#503=CARTESIAN_POINT('',(-20.142925462528218,-14.0,0.0));
#504=DIRECTION('',(0.393892772323091,0.91915639796045,0.0));
#505=VECTOR('',#504,20.802342324578927);
#506=LINE('',#503,#505);
#507=EDGE_CURVE('',#168,#502,#506,.T.);
#508=ORIENTED_EDGE('',*,*,#507,.T.);
#509=CARTESIAN_POINT('',(0.0,0.0,0.0));
#510=DIRECTION('',(0.0,0.0,-1.0));
#511=DIRECTION('',(-0.91915639796045,-0.393892772323091,0.0));
#512=AXIS2_PLACEMENT_3D('',#509,#510,#511);
#513=CIRCLE('',#512,13.000000000000002);
#514=EDGE_CURVE('',#502,#471,#513,.T.);
#515=ORIENTED_EDGE('',*,*,#514,.T.);
#516=ORIENTED_EDGE('',*,*,#476,.T.);
#517=EDGE_LOOP('',(#500,#508,#515,#516));
#518=FACE_OUTER_BOUND('',#517,.T.);
#519=ORIENTED_EDGE('',*,*,#136,.T.);
#520=EDGE_LOOP('',(#519));
#521=FACE_BOUND('',#520,.T.);
#522=ADVANCED_FACE('',(#518,#521),#499,.F.);
#523=CARTESIAN_POINT('',(0.0,0.0,0.0));
#524=DIRECTION('',(0.0,0.0,1.0));
#525=DIRECTION('',(-0.91915639796045,-0.393892772323091,0.0));
#526=AXIS2_PLACEMENT_3D('',#523,#524,#525);
#527=CYLINDRICAL_SURFACE('',#526,13.000000000000002);
#528=CARTESIAN_POINT('',(-11.949033173485855,5.120606040200183,4.0));
#529=VERTEX_POINT('',#528);
#530=CARTESIAN_POINT('',(0.0,0.0,4.0));
#531=DIRECTION('',(0.0,0.0,-1.0));
#532=DIRECTION('',(-0.91915639796045,-0.393892772323091,0.0));
#533=AXIS2_PLACEMENT_3D('',#530,#531,#532);
#534=CIRCLE('',#533,13.000000000000002);
#535=EDGE_CURVE('',#529,#479,#534,.T.);
#536=ORIENTED_EDGE('',*,*,#535,.T.);
#537=ORIENTED_EDGE('',*,*,#484,.F.);
#538=ORIENTED_EDGE('',*,*,#514,.F.);
#539=CARTESIAN_POINT('',(-11.949033173485855,5.120606040200183,0.0));
#540=DIRECTION('',(0.0,0.0,1.0));
#541=VECTOR('',#540,4.0);
#542=LINE('',#539,#541);
#543=EDGE_CURVE('',#502,#529,#542,.T.);
#544=ORIENTED_EDGE('',*,*,#543,.T.);
#545=EDGE_LOOP('',(#536,#537,#538,#544));
#546=FACE_OUTER_BOUND('',#545,.T.);
#547=ADVANCED_FACE('',(#546),#527,.T.);
#548=CARTESIAN_POINT('',(-21.0,-16.0,0.0));
#549=DIRECTION('',(-0.91915639796045,0.393892772323091,0.0));
#550=DIRECTION('',(0.0,0.0,1.0));
#551=AXIS2_PLACEMENT_3D('',#548,#549,#550);
#552=PLANE('',#551);
#553=ORIENTED_EDGE('',*,*,#383,.T.);
#554=CARTESIAN_POINT('',(-20.142925462528218,-14.0,4.0));
#555=DIRECTION('',(0.393892772323091,0.91915639796045,0.0));
#556=VECTOR('',#555,20.802342324578927);
#557=LINE('',#554,#556);
#558=EDGE_CURVE('',#365,#529,#557,.T.);
#559=ORIENTED_EDGE('',*,*,#558,.T.);
#560=ORIENTED_EDGE('',*,*,#543,.F.);
#561=ORIENTED_EDGE('',*,*,#507,.F.);
#562=EDGE_LOOP('',(#553,#559,#560,#561));
#563=FACE_OUTER_BOUND('',#562,.T.);
#564=ADVANCED_FACE('',(#563),#552,.T.);
#565=CARTESIAN_POINT('',(-2.158850E-016,-7.434239298453504,4.0));
#566=DIRECTION('',(0.0,0.0,1.0));
#567=DIRECTION('',(1.0,0.0,0.0));
#568=AXIS2_PLACEMENT_3D('',#565,#566,#567);
#569=PLANE('',#568);
#570=ORIENTED_EDGE('',*,*,#458,.T.);
#571=ORIENTED_EDGE('',*,*,#490,.F.);
#572=ORIENTED_EDGE('',*,*,#535,.F.);
#573=ORIENTED_EDGE('',*,*,#558,.F.);
#574=EDGE_LOOP('',(#570,#571,#572,#573));
#575=FACE_OUTER_BOUND('',#574,.T.);
#576=ORIENTED_EDGE('',*,*,#147,.T.);
#577=EDGE_LOOP('',(#576));
#578=FACE_BOUND('',#577,.T.);
#579=ADVANCED_FACE('',(#575,#578),#569,.T.);
#580=CLOSED_SHELL('',(#95,#123,#151,#205,#251,#280,#331,#387,#411,#428,#446,#463,#494,#522,#547,#564,#579));
#581=MANIFOLD_SOLID_BREP('Solido1',#580);
#582=COLOUR_RGB('Zinco',0.67843097448349,0.768626987934113,0.811765015125275);
#583=FILL_AREA_STYLE_COLOUR('Zinco',#582);
#584=FILL_AREA_STYLE('Zinco',(#583));
#585=SURFACE_STYLE_FILL_AREA(#584);
#586=SURFACE_SIDE_STYLE('Zinco',(#585));
#587=SURFACE_STYLE_USAGE(.BOTH.,#586);
#588=PRESENTATION_STYLE_ASSIGNMENT((#587));
#589=STYLED_ITEM('',(#588),#581);
#590=MECHANICAL_DESIGN_GEOMETRIC_PRESENTATION_REPRESENTATION('',(#589),#36);
#591=ADVANCED_BREP_SHAPE_REPRESENTATION('ABSR',(#581),#36);
#592=SHAPE_REPRESENTATION_RELATIONSHIP('SRR','None',#591,#41);
ENDSEC;
END-ISO-10303-21;
