ISO-10303-21;
HEADER;
FILE_DESCRIPTION (( 'STEP AP203' ),
    '1' );
FILE_NAME ('059.015.012.STEP',
    '2015-06-04T08:30:03',
    ( '' ),
    ( '' ),
    'SwSTEP 2.0',
    'SolidWorks 2012',
    '' );
FILE_SCHEMA (( 'CONFIG_CONTROL_DESIGN' ));
ENDSEC;

DATA;
#1 = ORGANIZATION ( 'NON SPECIFICATO', 'NON SPECIFICATO', '' ) ;
#2 = COORDINATED_UNIVERSAL_TIME_OFFSET ( 1, 0, .AHEAD. ) ;
#3 = CALENDAR_DATE ( 2015, 4, 6 ) ;
#4 = DATE_AND_TIME ( #3, #24 ) ;
#5 = DATE_AND_TIME ( #13, #29 ) ;
#6 = PERSON_AND_ORGANIZATION ( #246, #1 ) ;
#7 = PERSON_AND_ORGANIZATION ( #246, #1 ) ;
#8 = DATE_AND_TIME ( #37, #28 ) ;
#9 = APPROVAL_PERSON_ORGANIZATION ( #6, #53, #168 ) ;
#10 = COORDINATED_UNIVERSAL_TIME_OFFSET ( 1, 0, .AHEAD. ) ;
#11 = CALENDAR_DATE ( 2015, 4, 6 ) ;
#12 = CYLINDRICAL_SURFACE ( 'NONE', #64, 7.500000000000000000 ) ;
#13 = CALENDAR_DATE ( 2015, 4, 6 ) ;
#14 = LOCAL_TIME ( 10, 30, 3.000000000000000000, #10 ) ;
#15 = DATE_AND_TIME ( #23, #25 ) ;
#16 = SHAPE_DEFINITION_REPRESENTATION ( #249, #43 ) ;
#17 = APPROVAL_DATE_TIME ( #15, #48 ) ;
#18 = COORDINATED_UNIVERSAL_TIME_OFFSET ( 1, 0, .AHEAD. ) ;
#19 = PERSON_AND_ORGANIZATION ( #246, #1 ) ;
#20 = APPROVAL_PERSON_ORGANIZATION ( #40, #48, #97 ) ;
#21 = PERSON_AND_ORGANIZATION ( #246, #1 ) ;
#22 = PERSON_AND_ORGANIZATION ( #246, #1 ) ;
#23 = CALENDAR_DATE ( 2015, 4, 6 ) ;
#24 = LOCAL_TIME ( 10, 30, 3.000000000000000000, #36 ) ;
#25 = LOCAL_TIME ( 10, 30, 3.000000000000000000, #2 ) ;
#26 = FACE_OUTER_BOUND ( 'NONE', #213, .T. ) ;
#27 = PERSON_AND_ORGANIZATION ( #246, #1 ) ;
#28 = LOCAL_TIME ( 10, 30, 3.000000000000000000, #32 ) ;
#29 = LOCAL_TIME ( 10, 30, 3.000000000000000000, #18 ) ;
#30 = CYLINDRICAL_SURFACE ( 'NONE', #65, 7.500000000000000000 ) ;
#31 = CYLINDRICAL_SURFACE ( 'NONE', #61, 5.999999999999998200 ) ;
#32 = COORDINATED_UNIVERSAL_TIME_OFFSET ( 1, 0, .AHEAD. ) ;
#33 = PERSON_AND_ORGANIZATION ( #246, #1 ) ;
#34 = APPROVAL_DATE_TIME ( #5, #58 ) ;
#35 = DATE_AND_TIME ( #11, #14 ) ;
#36 = COORDINATED_UNIVERSAL_TIME_OFFSET ( 1, 0, .AHEAD. ) ;
#37 = CALENDAR_DATE ( 2015, 4, 6 ) ;
#38 = APPROVAL_PERSON_ORGANIZATION ( #7, #58, #167 ) ;
#39 = APPROVAL_DATE_TIME ( #35, #53 ) ;
#40 = PERSON_AND_ORGANIZATION ( #246, #1 ) ;
#41 = MANIFOLD_SOLID_BREP ( 'Elemento strutturale1', #208 ) ;
#42 = UNCERTAINTY_MEASURE_WITH_UNIT (LENGTH_MEASURE( 1.000000000000000100E-005 ), #138, 'distance_accuracy_value', 'NONE');
#43 = ADVANCED_BREP_SHAPE_REPRESENTATION ( '059.015.012', ( #41, #62 ), #72 ) ;
#44 = CC_DESIGN_PERSON_AND_ORGANIZATION_ASSIGNMENT ( #27, #153, ( #49 ) ) ;
#45 = CC_DESIGN_PERSON_AND_ORGANIZATION_ASSIGNMENT ( #22, #120, ( #49 ) ) ;
#46 = CC_DESIGN_APPROVAL ( #48, ( #49 ) ) ;
#47 = PRODUCT_RELATED_PRODUCT_CATEGORY ( 'detail', '', ( #247 ) ) ;
#48 = APPROVAL ( #119, 'NON SPECIFICATO' ) ;
#49 = PRODUCT_DEFINITION_FORMATION_WITH_SPECIFIED_SOURCE ( 'TUTTO', '', #247, .NOT_KNOWN. ) ;
#50 = CC_DESIGN_SECURITY_CLASSIFICATION ( #77, ( #49 ) ) ;
#51 = CC_DESIGN_DATE_AND_TIME_ASSIGNMENT ( #8, #111, ( #59 ) ) ;
#52 = CC_DESIGN_APPROVAL ( #53, ( #77 ) ) ;
#53 = APPROVAL ( #170, 'NON SPECIFICATO' ) ;
#54 = CC_DESIGN_DATE_AND_TIME_ASSIGNMENT ( #4, #112, ( #77 ) ) ;
#55 = CC_DESIGN_PERSON_AND_ORGANIZATION_ASSIGNMENT ( #19, #118, ( #77 ) ) ;
#56 = CC_DESIGN_PERSON_AND_ORGANIZATION_ASSIGNMENT ( #33, #123, ( #59 ) ) ;
#57 = CC_DESIGN_APPROVAL ( #58, ( #59 ) ) ;
#58 = APPROVAL ( #164, 'NON SPECIFICATO' ) ;
#59 = PRODUCT_DEFINITION ( 'NON CONOSCIUTO', '', #49, #248 ) ;
#60 = CC_DESIGN_PERSON_AND_ORGANIZATION_ASSIGNMENT ( #21, #149, ( #247 ) ) ;
#61 = AXIS2_PLACEMENT_3D ( 'NONE', #162, #113, #125 ) ;
#62 = AXIS2_PLACEMENT_3D ( 'NONE', #91, #152, #115 ) ;
#63 = AXIS2_PLACEMENT_3D ( 'NONE', #98, #156, #131 ) ;
#64 = AXIS2_PLACEMENT_3D ( 'NONE', #165, #95, #126 ) ;
#65 = AXIS2_PLACEMENT_3D ( 'NONE', #159, #116, #148 ) ;
#66 = AXIS2_PLACEMENT_3D ( 'NONE', #110, #127, #173 ) ;
#67 = AXIS2_PLACEMENT_3D ( 'NONE', #114, #157, #142 ) ;
#68 = AXIS2_PLACEMENT_3D ( 'NONE', #93, #171, #144 ) ;
#69 = AXIS2_PLACEMENT_3D ( 'NONE', #145, #104, #99 ) ;
#70 = AXIS2_PLACEMENT_3D ( 'NONE', #141, #172, #106 ) ;
#71 = AXIS2_PLACEMENT_3D ( 'NONE', #101, #147, #133 ) ;
#72 =( GEOMETRIC_REPRESENTATION_CONTEXT ( 3 ) GLOBAL_UNCERTAINTY_ASSIGNED_CONTEXT ( ( #42 ) ) GLOBAL_UNIT_ASSIGNED_CONTEXT ( ( #138, #174, #100 ) ) REPRESENTATION_CONTEXT ( 'NONE', 'WORKASPACE' ) );
#73 = AXIS2_PLACEMENT_3D ( 'NONE', #132, #96, #166 ) ;
#74 = AXIS2_PLACEMENT_3D ( 'NONE', #150, #134, #130 ) ;
#75 = EDGE_CURVE ( 'NONE', #204, #227, #182, .T. ) ;
#76 = EDGE_CURVE ( 'NONE', #222, #204, #181, .T. ) ;
#77 = SECURITY_CLASSIFICATION ( '', '', #169 ) ;
#78 = EDGE_CURVE ( 'NONE', #204, #222, #186, .T. ) ;
#79 = AXIS2_PLACEMENT_3D ( 'NONE', #117, #155, #129 ) ;
#80 = EDGE_CURVE ( 'NONE', #198, #214, #234, .T. ) ;
#81 = EDGE_CURVE ( 'NONE', #179, #187, #226, .T. ) ;
#82 = AXIS2_PLACEMENT_3D ( 'NONE', #107, #105, #158 ) ;
#83 = EDGE_CURVE ( 'NONE', #179, #198, #230, .T. ) ;
#84 = EDGE_CURVE ( 'NONE', #214, #187, #233, .T. ) ;
#85 = EDGE_CURVE ( 'NONE', #198, #179, #206, .T. ) ;
#86 = EDGE_CURVE ( 'NONE', #176, #227, #216, .T. ) ;
#87 = EDGE_CURVE ( 'NONE', #227, #176, #192, .T. ) ;
#88 = EDGE_CURVE ( 'NONE', #187, #214, #194, .T. ) ;
#89 = EDGE_CURVE ( 'NONE', #222, #176, #201, .T. ) ;
#90 = CARTESIAN_POINT ( 'NONE',  ( -50.00000000000000000, 9.184850993605147900E-016, -7.500000000000000000 ) ) ;
#91 = CARTESIAN_POINT ( 'NONE',  ( 0.0000000000000000000, 0.0000000000000000000, 0.0000000000000000000 ) ) ;
#92 = CARTESIAN_POINT ( 'NONE',  ( -50.00000000000000000, 0.0000000000000000000, 7.500000000000000000 ) ) ;
#93 = CARTESIAN_POINT ( 'NONE',  ( -50.00000000000000000, 0.0000000000000000000, 0.0000000000000000000 ) ) ;
#94 = CARTESIAN_POINT ( 'NONE',  ( 50.00000000000000000, 0.0000000000000000000, 5.999999999999998200 ) ) ;
#95 = DIRECTION ( 'NONE',  ( -1.000000000000000000, -0.0000000000000000000, -0.0000000000000000000 ) ) ;
#96 = DIRECTION ( 'NONE',  ( 1.000000000000000000, 0.0000000000000000000, 0.0000000000000000000 ) ) ;
#97 = APPROVAL_ROLE ( '' ) ;
#98 = CARTESIAN_POINT ( 'NONE',  ( -50.00000000000000000, 0.0000000000000000000, 0.0000000000000000000 ) ) ;
#99 = DIRECTION ( 'NONE',  ( 0.0000000000000000000, 0.0000000000000000000, -1.000000000000000000 ) ) ;
#100 =( NAMED_UNIT ( * ) SI_UNIT ( $, .STERADIAN. ) SOLID_ANGLE_UNIT ( ) );
#101 = CARTESIAN_POINT ( 'NONE',  ( 50.00000000000000000, 0.0000000000000000000, 0.0000000000000000000 ) ) ;
#102 = CARTESIAN_POINT ( 'NONE',  ( 50.00000000000000000, 0.0000000000000000000, 5.999999999999998200 ) ) ;
#103 = CARTESIAN_POINT ( 'NONE',  ( 50.00000000000000000, 0.0000000000000000000, 7.500000000000000000 ) ) ;
#104 = DIRECTION ( 'NONE',  ( 1.000000000000000000, 0.0000000000000000000, 0.0000000000000000000 ) ) ;
#105 = DIRECTION ( 'NONE',  ( 1.000000000000000000, 0.0000000000000000000, 0.0000000000000000000 ) ) ;
#106 = DIRECTION ( 'NONE',  ( 0.0000000000000000000, 0.0000000000000000000, -1.000000000000000000 ) ) ;
#107 = CARTESIAN_POINT ( 'NONE',  ( 50.00000000000000000, 0.0000000000000000000, 0.0000000000000000000 ) ) ;
#108 = DIRECTION ( 'NONE',  ( -1.000000000000000000, -0.0000000000000000000, -0.0000000000000000000 ) ) ;
#109 = CARTESIAN_POINT ( 'NONE',  ( 50.00000000000000000, 9.184850993605147900E-016, -7.500000000000000000 ) ) ;
#110 = CARTESIAN_POINT ( 'NONE',  ( 50.00000000000000000, 0.0000000000000000000, 0.0000000000000000000 ) ) ;
#111 = DATE_TIME_ROLE ( 'creation_date' ) ;
#112 = DATE_TIME_ROLE ( 'classification_date' ) ;
#113 = DIRECTION ( 'NONE',  ( -1.000000000000000000, -0.0000000000000000000, -0.0000000000000000000 ) ) ;
#114 = CARTESIAN_POINT ( 'NONE',  ( -50.00000000000000000, 0.0000000000000000000, 0.0000000000000000000 ) ) ;
#115 = DIRECTION ( 'NONE',  ( 1.000000000000000000, 0.0000000000000000000, 0.0000000000000000000 ) ) ;
#116 = DIRECTION ( 'NONE',  ( -1.000000000000000000, -0.0000000000000000000, -0.0000000000000000000 ) ) ;
#117 = CARTESIAN_POINT ( 'NONE',  ( 50.00000000000000000, 0.0000000000000000000, 0.0000000000000000000 ) ) ;
#118 = PERSON_AND_ORGANIZATION_ROLE ( 'classification_officer' ) ;
#119 = APPROVAL_STATUS ( 'not_yet_approved' ) ;
#120 = PERSON_AND_ORGANIZATION_ROLE ( 'creator' ) ;
#121 = CARTESIAN_POINT ( 'NONE',  ( -50.00000000000000000, 7.347880794884117800E-016, -5.999999999999998200 ) ) ;
#122 = PLANE ( 'NONE',  #71 ) ;
#123 = PERSON_AND_ORGANIZATION_ROLE ( 'creator' ) ;
#124 = DIRECTION ( 'NONE',  ( -1.000000000000000000, -0.0000000000000000000, -0.0000000000000000000 ) ) ;
#125 = DIRECTION ( 'NONE',  ( 0.0000000000000000000, 0.0000000000000000000, 1.000000000000000000 ) ) ;
#126 = DIRECTION ( 'NONE',  ( 0.0000000000000000000, 0.0000000000000000000, 1.000000000000000000 ) ) ;
#127 = DIRECTION ( 'NONE',  ( -1.000000000000000000, -0.0000000000000000000, -0.0000000000000000000 ) ) ;
#128 = APPLICATION_PROTOCOL_DEFINITION ( 'international standard', 'config_control_design', 1994, #160 ) ;
#129 = DIRECTION ( 'NONE',  ( 0.0000000000000000000, 0.0000000000000000000, -1.000000000000000000 ) ) ;
#130 = DIRECTION ( 'NONE',  ( 0.0000000000000000000, 0.0000000000000000000, -1.000000000000000000 ) ) ;
#131 = DIRECTION ( 'NONE',  ( 0.0000000000000000000, 0.0000000000000000000, -1.000000000000000000 ) ) ;
#132 = CARTESIAN_POINT ( 'NONE',  ( 50.00000000000000000, 0.0000000000000000000, 0.0000000000000000000 ) ) ;
#133 = DIRECTION ( 'NONE',  ( 0.0000000000000000000, 0.0000000000000000000, -1.000000000000000000 ) ) ;
#134 = DIRECTION ( 'NONE',  ( 1.000000000000000000, 0.0000000000000000000, 0.0000000000000000000 ) ) ;
#135 = CARTESIAN_POINT ( 'NONE',  ( 50.00000000000000000, 9.184850993605147900E-016, -7.500000000000000000 ) ) ;
#136 = DIRECTION ( 'NONE',  ( -1.000000000000000000, -0.0000000000000000000, -0.0000000000000000000 ) ) ;
#137 = PLANE ( 'NONE',  #63 ) ;
#138 =( LENGTH_UNIT ( ) NAMED_UNIT ( * ) SI_UNIT ( .MILLI., .METRE. ) );
#139 = APPLICATION_CONTEXT ( 'configuration controlled 3d designs of mechanical parts and assemblies' ) ;
#140 = CARTESIAN_POINT ( 'NONE',  ( 50.00000000000000000, 7.347880794884117800E-016, -5.999999999999998200 ) ) ;
#141 = CARTESIAN_POINT ( 'NONE',  ( 50.00000000000000000, 0.0000000000000000000, 0.0000000000000000000 ) ) ;
#142 = DIRECTION ( 'NONE',  ( 0.0000000000000000000, 0.0000000000000000000, -1.000000000000000000 ) ) ;
#143 = CARTESIAN_POINT ( 'NONE',  ( 50.00000000000000000, 0.0000000000000000000, 7.500000000000000000 ) ) ;
#144 = DIRECTION ( 'NONE',  ( 0.0000000000000000000, 0.0000000000000000000, -1.000000000000000000 ) ) ;
#145 = CARTESIAN_POINT ( 'NONE',  ( -50.00000000000000000, 0.0000000000000000000, 0.0000000000000000000 ) ) ;
#146 = CARTESIAN_POINT ( 'NONE',  ( -50.00000000000000000, 0.0000000000000000000, 5.999999999999998200 ) ) ;
#147 = DIRECTION ( 'NONE',  ( 1.000000000000000000, 0.0000000000000000000, 0.0000000000000000000 ) ) ;
#148 = DIRECTION ( 'NONE',  ( 0.0000000000000000000, 0.0000000000000000000, 1.000000000000000000 ) ) ;
#149 = PERSON_AND_ORGANIZATION_ROLE ( 'design_owner' ) ;
#150 = CARTESIAN_POINT ( 'NONE',  ( -50.00000000000000000, 0.0000000000000000000, 0.0000000000000000000 ) ) ;
#151 = MECHANICAL_CONTEXT ( 'NONE', #139, 'mechanical' ) ;
#152 = DIRECTION ( 'NONE',  ( 0.0000000000000000000, 0.0000000000000000000, 1.000000000000000000 ) ) ;
#153 = PERSON_AND_ORGANIZATION_ROLE ( 'design_supplier' ) ;
#154 = APPLICATION_PROTOCOL_DEFINITION ( 'international standard', 'config_control_design', 1994, #139 ) ;
#155 = DIRECTION ( 'NONE',  ( 1.000000000000000000, 0.0000000000000000000, 0.0000000000000000000 ) ) ;
#156 = DIRECTION ( 'NONE',  ( 1.000000000000000000, 0.0000000000000000000, 0.0000000000000000000 ) ) ;
#157 = DIRECTION ( 'NONE',  ( 1.000000000000000000, 0.0000000000000000000, 0.0000000000000000000 ) ) ;
#158 = DIRECTION ( 'NONE',  ( 0.0000000000000000000, 0.0000000000000000000, -1.000000000000000000 ) ) ;
#159 = CARTESIAN_POINT ( 'NONE',  ( 50.00000000000000000, 0.0000000000000000000, 0.0000000000000000000 ) ) ;
#160 = APPLICATION_CONTEXT ( 'configuration controlled 3d designs of mechanical parts and assemblies' ) ;
#161 = DIRECTION ( 'NONE',  ( -1.000000000000000000, -0.0000000000000000000, -0.0000000000000000000 ) ) ;
#162 = CARTESIAN_POINT ( 'NONE',  ( 50.00000000000000000, 0.0000000000000000000, 0.0000000000000000000 ) ) ;
#163 = CARTESIAN_POINT ( 'NONE',  ( 50.00000000000000000, 7.347880794884117800E-016, -5.999999999999998200 ) ) ;
#164 = APPROVAL_STATUS ( 'not_yet_approved' ) ;
#165 = CARTESIAN_POINT ( 'NONE',  ( 50.00000000000000000, 0.0000000000000000000, 0.0000000000000000000 ) ) ;
#166 = DIRECTION ( 'NONE',  ( 0.0000000000000000000, 0.0000000000000000000, -1.000000000000000000 ) ) ;
#167 = APPROVAL_ROLE ( '' ) ;
#168 = APPROVAL_ROLE ( '' ) ;
#169 = SECURITY_CLASSIFICATION_LEVEL ( 'unclassified' ) ;
#170 = APPROVAL_STATUS ( 'not_yet_approved' ) ;
#171 = DIRECTION ( 'NONE',  ( 1.000000000000000000, 0.0000000000000000000, 0.0000000000000000000 ) ) ;
#172 = DIRECTION ( 'NONE',  ( 1.000000000000000000, 0.0000000000000000000, 0.0000000000000000000 ) ) ;
#173 = DIRECTION ( 'NONE',  ( 0.0000000000000000000, 0.0000000000000000000, 1.000000000000000000 ) ) ;
#174 =( NAMED_UNIT ( * ) PLANE_ANGLE_UNIT ( ) SI_UNIT ( $, .RADIAN. ) );
#175 = ORIENTED_EDGE ( 'NONE', *, *, #84, .F. ) ;
#176 = VERTEX_POINT ( 'NONE', #90 ) ;
#177 = EDGE_LOOP ( 'NONE', ( #237, #231 ) ) ;
#178 = EDGE_LOOP ( 'NONE', ( #190, #205 ) ) ;
#179 = VERTEX_POINT ( 'NONE', #94 ) ;
#180 = FACE_OUTER_BOUND ( 'NONE', #209, .T. ) ;
#181 = CIRCLE ( 'NONE', #79, 7.500000000000000000 ) ;
#182 = LINE ( 'NONE', #103, #219 ) ;
#183 = FACE_OUTER_BOUND ( 'NONE', #228, .T. ) ;
#184 = FACE_BOUND ( 'NONE', #221, .T. ) ;
#185 = FACE_OUTER_BOUND ( 'NONE', #229, .T. ) ;
#186 = CIRCLE ( 'NONE', #82, 7.500000000000000000 ) ;
#187 = VERTEX_POINT ( 'NONE', #146 ) ;
#188 = ORIENTED_EDGE ( 'NONE', *, *, #78, .F. ) ;
#189 = ORIENTED_EDGE ( 'NONE', *, *, #75, .F. ) ;
#190 = ORIENTED_EDGE ( 'NONE', *, *, #78, .T. ) ;
#191 = ORIENTED_EDGE ( 'NONE', *, *, #89, .F. ) ;
#192 = CIRCLE ( 'NONE', #68, 7.500000000000000000 ) ;
#193 = ORIENTED_EDGE ( 'NONE', *, *, #75, .T. ) ;
#194 = CIRCLE ( 'NONE', #69, 5.999999999999998200 ) ;
#195 = FACE_OUTER_BOUND ( 'NONE', #178, .T. ) ;
#196 = VECTOR ( 'NONE', #136, 1000.000000000000000 ) ;
#197 = ORIENTED_EDGE ( 'NONE', *, *, #84, .T. ) ;
#198 = VERTEX_POINT ( 'NONE', #163 ) ;
#199 = ORIENTED_EDGE ( 'NONE', *, *, #83, .T. ) ;
#200 = VECTOR ( 'NONE', #161, 1000.000000000000000 ) ;
#201 = LINE ( 'NONE', #109, #196 ) ;
#202 = FACE_OUTER_BOUND ( 'NONE', #211, .T. ) ;
#203 = ORIENTED_EDGE ( 'NONE', *, *, #88, .F. ) ;
#204 = VERTEX_POINT ( 'NONE', #143 ) ;
#205 = ORIENTED_EDGE ( 'NONE', *, *, #76, .T. ) ;
#206 = CIRCLE ( 'NONE', #73, 5.999999999999998200 ) ;
#207 = ORIENTED_EDGE ( 'NONE', *, *, #89, .T. ) ;
#208 = CLOSED_SHELL ( 'NONE', ( #242, #241, #245, #243, #240, #244 ) ) ;
#209 = EDGE_LOOP ( 'NONE', ( #210, #235, #218, #175 ) ) ;
#210 = ORIENTED_EDGE ( 'NONE', *, *, #80, .F. ) ;
#211 = EDGE_LOOP ( 'NONE', ( #199, #224, #203, #223 ) ) ;
#212 = ORIENTED_EDGE ( 'NONE', *, *, #76, .F. ) ;
#213 = EDGE_LOOP ( 'NONE', ( #236, #217 ) ) ;
#214 = VERTEX_POINT ( 'NONE', #121 ) ;
#215 = FACE_BOUND ( 'NONE', #177, .T. ) ;
#216 = CIRCLE ( 'NONE', #67, 7.500000000000000000 ) ;
#217 = ORIENTED_EDGE ( 'NONE', *, *, #86, .F. ) ;
#218 = ORIENTED_EDGE ( 'NONE', *, *, #81, .T. ) ;
#219 = VECTOR ( 'NONE', #124, 1000.000000000000000 ) ;
#220 = VECTOR ( 'NONE', #108, 1000.000000000000000 ) ;
#221 = EDGE_LOOP ( 'NONE', ( #225, #197 ) ) ;
#222 = VERTEX_POINT ( 'NONE', #135 ) ;
#223 = ORIENTED_EDGE ( 'NONE', *, *, #81, .F. ) ;
#224 = ORIENTED_EDGE ( 'NONE', *, *, #80, .T. ) ;
#225 = ORIENTED_EDGE ( 'NONE', *, *, #88, .T. ) ;
#226 = LINE ( 'NONE', #102, #200 ) ;
#227 = VERTEX_POINT ( 'NONE', #92 ) ;
#228 = EDGE_LOOP ( 'NONE', ( #212, #207, #238, #189 ) ) ;
#229 = EDGE_LOOP ( 'NONE', ( #191, #188, #193, #239 ) ) ;
#230 = CIRCLE ( 'NONE', #70, 5.999999999999998200 ) ;
#231 = ORIENTED_EDGE ( 'NONE', *, *, #85, .F. ) ;
#232 = CYLINDRICAL_SURFACE ( 'NONE', #66, 5.999999999999998200 ) ;
#233 = CIRCLE ( 'NONE', #74, 5.999999999999998200 ) ;
#234 = LINE ( 'NONE', #140, #220 ) ;
#235 = ORIENTED_EDGE ( 'NONE', *, *, #85, .T. ) ;
#236 = ORIENTED_EDGE ( 'NONE', *, *, #87, .F. ) ;
#237 = ORIENTED_EDGE ( 'NONE', *, *, #83, .F. ) ;
#238 = ORIENTED_EDGE ( 'NONE', *, *, #86, .T. ) ;
#239 = ORIENTED_EDGE ( 'NONE', *, *, #87, .T. ) ;
#240 = ADVANCED_FACE ( 'NONE', ( #215, #195 ), #122, .T. ) ;
#241 = ADVANCED_FACE ( 'NONE', ( #202 ), #232, .F. ) ;
#242 = ADVANCED_FACE ( 'NONE', ( #183 ), #30, .T. ) ;
#243 = ADVANCED_FACE ( 'NONE', ( #185 ), #12, .T. ) ;
#244 = ADVANCED_FACE ( 'NONE', ( #184, #26 ), #137, .F. ) ;
#245 = ADVANCED_FACE ( 'NONE', ( #180 ), #31, .F. ) ;
#246 = PERSON ( 'NON SPECIFICATO', 'NON SPECIFICATO', 'NON SPECIFICATO', ('NON SPECIFICATO'), ('NON SPECIFICATO'), ('NON SPECIFICATO') ) ;
#247 = PRODUCT ( '059.015.012', '059.015.012', '', ( #151 ) ) ;
#248 = DESIGN_CONTEXT ( 'detailed design', #160, 'design' ) ;
#249 = PRODUCT_DEFINITION_SHAPE ( 'NONE', 'NONE',  #59 ) ;
ENDSEC;
END-ISO-10303-21;
