ISO-10303-21;
HEADER;
FILE_DESCRIPTION (( 'STEP AP203' ),
    '1' );
FILE_NAME ('059.028.025.STEP',
    '2015-06-04T08:38:15',
    ( '' ),
    ( '' ),
    'SwSTEP 2.0',
    'SolidWorks 2012',
    '' );
FILE_SCHEMA (( 'CONFIG_CONTROL_DESIGN' ));
ENDSEC;

DATA;
#1 = DATE_AND_TIME ( #2, #3 ) ;
#2 = CALENDAR_DATE ( 2015, 4, 6 ) ;
#3 = LOCAL_TIME ( 10, 38, 15.00000000000000000, #4 ) ;
#4 = COORDINATED_UNIVERSAL_TIME_OFFSET ( 1, 0, .AHEAD. ) ;
#5 = APPROVAL_PERSON_ORGANIZATION ( #6, #111, #192 ) ;
#6 = PERSON_AND_ORGANIZATION ( #247, #34 ) ;
#7 = DATE_AND_TIME ( #8, #9 ) ;
#8 = CALENDAR_DATE ( 2015, 4, 6 ) ;
#9 = LOCAL_TIME ( 10, 38, 15.00000000000000000, #10 ) ;
#10 = COORDINATED_UNIVERSAL_TIME_OFFSET ( 1, 0, .AHEAD. ) ;
#11 = PERSON_AND_ORGANIZATION ( #247, #34 ) ;
#12 = PERSON_AND_ORGANIZATION ( #247, #34 ) ;
#13 = PERSON_AND_ORGANIZATION ( #247, #34 ) ;
#14 = APPROVAL_DATE_TIME ( #15, #118 ) ;
#15 = DATE_AND_TIME ( #16, #17 ) ;
#16 = CALENDAR_DATE ( 2015, 4, 6 ) ;
#17 = LOCAL_TIME ( 10, 38, 15.00000000000000000, #18 ) ;
#18 = COORDINATED_UNIVERSAL_TIME_OFFSET ( 1, 0, .AHEAD. ) ;
#19 = APPROVAL_PERSON_ORGANIZATION ( #20, #118, #184 ) ;
#20 = PERSON_AND_ORGANIZATION ( #247, #34 ) ;
#21 = DATE_AND_TIME ( #22, #23 ) ;
#22 = CALENDAR_DATE ( 2015, 4, 6 ) ;
#23 = LOCAL_TIME ( 10, 38, 15.00000000000000000, #24 ) ;
#24 = COORDINATED_UNIVERSAL_TIME_OFFSET ( 1, 0, .AHEAD. ) ;
#25 = PERSON_AND_ORGANIZATION ( #247, #34 ) ;
#26 = APPROVAL_DATE_TIME ( #27, #123 ) ;
#27 = DATE_AND_TIME ( #28, #29 ) ;
#28 = CALENDAR_DATE ( 2015, 4, 6 ) ;
#29 = LOCAL_TIME ( 10, 38, 15.00000000000000000, #30 ) ;
#30 = COORDINATED_UNIVERSAL_TIME_OFFSET ( 1, 0, .AHEAD. ) ;
#31 = APPROVAL_PERSON_ORGANIZATION ( #32, #123, #179 ) ;
#32 = PERSON_AND_ORGANIZATION ( #247, #34 ) ;
#33 = PERSON_AND_ORGANIZATION ( #247, #34 ) ;
#34 = ORGANIZATION ( 'NON SPECIFICATO', 'NON SPECIFICATO', '' ) ;
#35 = SHAPE_DEFINITION_REPRESENTATION ( #248, #108 ) ;
#36 = VERTEX_POINT ( 'NONE', #224 ) ;
#37 = VECTOR ( 'NONE', #206, 1000.000000000000000 ) ;
#38 = VERTEX_POINT ( 'NONE', #204 ) ;
#39 = VERTEX_POINT ( 'NONE', #211 ) ;
#40 = VERTEX_POINT ( 'NONE', #231 ) ;
#41 = VERTEX_POINT ( 'NONE', #213 ) ;
#42 = CIRCLE ( 'NONE', #148, 13.99999999999999800 ) ;
#43 = CIRCLE ( 'NONE', #145, 13.99999999999999800 ) ;
#44 = VERTEX_POINT ( 'NONE', #208 ) ;
#45 = ORIENTED_EDGE ( 'NONE', *, *, #151, .T. ) ;
#46 = ORIENTED_EDGE ( 'NONE', *, *, #142, .F. ) ;
#47 = APPROVAL_DATE_TIME ( #1, #111 ) ;
#48 = ORIENTED_EDGE ( 'NONE', *, *, #152, .F. ) ;
#49 = CYLINDRICAL_SURFACE ( 'NONE', #127, 12.50000000000000000 ) ;
#50 = FACE_OUTER_BOUND ( 'NONE', #84, .T. ) ;
#51 = EDGE_LOOP ( 'NONE', ( #68, #61, #74, #48 ) ) ;
#52 = ORIENTED_EDGE ( 'NONE', *, *, #138, .T. ) ;
#53 = ORIENTED_EDGE ( 'NONE', *, *, #150, .F. ) ;
#54 = ORIENTED_EDGE ( 'NONE', *, *, #143, .T. ) ;
#55 = ORIENTED_EDGE ( 'NONE', *, *, #146, .F. ) ;
#56 = ORIENTED_EDGE ( 'NONE', *, *, #149, .F. ) ;
#57 = ORIENTED_EDGE ( 'NONE', *, *, #154, .T. ) ;
#58 = ORIENTED_EDGE ( 'NONE', *, *, #153, .F. ) ;
#59 = EDGE_LOOP ( 'NONE', ( #73, #57, #55, #56 ) ) ;
#60 = VERTEX_POINT ( 'NONE', #223 ) ;
#61 = ORIENTED_EDGE ( 'NONE', *, *, #147, .T. ) ;
#62 = EDGE_LOOP ( 'NONE', ( #99, #82 ) ) ;
#63 = CYLINDRICAL_SURFACE ( 'NONE', #130, 13.99999999999999800 ) ;
#64 = EDGE_LOOP ( 'NONE', ( #70, #54, #67, #75 ) ) ;
#65 = EDGE_LOOP ( 'NONE', ( #76, #52 ) ) ;
#66 = ORIENTED_EDGE ( 'NONE', *, *, #143, .F. ) ;
#67 = ORIENTED_EDGE ( 'NONE', *, *, #144, .T. ) ;
#68 = ORIENTED_EDGE ( 'NONE', *, *, #154, .F. ) ;
#69 = ORIENTED_EDGE ( 'NONE', *, *, #147, .F. ) ;
#70 = ORIENTED_EDGE ( 'NONE', *, *, #138, .F. ) ;
#71 = ORIENTED_EDGE ( 'NONE', *, *, #144, .F. ) ;
#72 = FACE_BOUND ( 'NONE', #62, .T. ) ;
#73 = ORIENTED_EDGE ( 'NONE', *, *, #142, .T. ) ;
#74 = ORIENTED_EDGE ( 'NONE', *, *, #149, .T. ) ;
#75 = ORIENTED_EDGE ( 'NONE', *, *, #151, .F. ) ;
#76 = ORIENTED_EDGE ( 'NONE', *, *, #150, .T. ) ;
#77 = CLOSED_SHELL ( 'NONE', ( #243, #240, #245, #241, #242, #244 ) ) ;
#78 = CIRCLE ( 'NONE', #141, 12.50000000000000000 ) ;
#79 = EDGE_LOOP ( 'NONE', ( #66, #53, #45, #83 ) ) ;
#80 = CYLINDRICAL_SURFACE ( 'NONE', #136, 13.99999999999999800 ) ;
#81 = EDGE_LOOP ( 'NONE', ( #46, #69 ) ) ;
#82 = ORIENTED_EDGE ( 'NONE', *, *, #152, .T. ) ;
#83 = ORIENTED_EDGE ( 'NONE', *, *, #153, .T. ) ;
#84 = EDGE_LOOP ( 'NONE', ( #58, #71 ) ) ;
#85 = CIRCLE ( 'NONE', #134, 12.50000000000000000 ) ;
#86 = LINE ( 'NONE', #157, #93 ) ;
#87 = CIRCLE ( 'NONE', #131, 12.50000000000000000 ) ;
#88 = CIRCLE ( 'NONE', #140, 13.99999999999999800 ) ;
#89 = CIRCLE ( 'NONE', #132, 13.99999999999999800 ) ;
#90 = VECTOR ( 'NONE', #210, 1000.000000000000000 ) ;
#91 = FACE_OUTER_BOUND ( 'NONE', #64, .T. ) ;
#92 = LINE ( 'NONE', #207, #90 ) ;
#93 = VECTOR ( 'NONE', #201, 1000.000000000000000 ) ;
#94 = FACE_OUTER_BOUND ( 'NONE', #79, .T. ) ;
#95 = FACE_OUTER_BOUND ( 'NONE', #59, .T. ) ;
#96 = VECTOR ( 'NONE', #200, 1000.000000000000000 ) ;
#97 = FACE_BOUND ( 'NONE', #81, .T. ) ;
#98 = LINE ( 'NONE', #209, #96 ) ;
#99 = ORIENTED_EDGE ( 'NONE', *, *, #146, .T. ) ;
#100 = CYLINDRICAL_SURFACE ( 'NONE', #137, 12.50000000000000000 ) ;
#101 = FACE_OUTER_BOUND ( 'NONE', #65, .T. ) ;
#102 = FACE_OUTER_BOUND ( 'NONE', #51, .T. ) ;
#103 = LINE ( 'NONE', #225, #37 ) ;
#104 = CIRCLE ( 'NONE', #133, 12.50000000000000000 ) ;
#105 = VERTEX_POINT ( 'NONE', #195 ) ;
#106 = UNCERTAINTY_MEASURE_WITH_UNIT (LENGTH_MEASURE( 1.000000000000000100E-005 ), #198, 'distance_accuracy_value', 'NONE');
#107 = MANIFOLD_SOLID_BREP ( 'Elemento strutturale1', #77 ) ;
#108 = ADVANCED_BREP_SHAPE_REPRESENTATION ( '059.028.025', ( #107, #128 ), #139 ) ;
#109 = CC_DESIGN_SECURITY_CLASSIFICATION ( #114, ( #119 ) ) ;
#110 = CC_DESIGN_APPROVAL ( #111, ( #114 ) ) ;
#111 = APPROVAL ( #191, 'NON SPECIFICATO' ) ;
#112 = CC_DESIGN_DATE_AND_TIME_ASSIGNMENT ( #7, #189, ( #114 ) ) ;
#113 = CC_DESIGN_PERSON_AND_ORGANIZATION_ASSIGNMENT ( #11, #188, ( #114 ) ) ;
#114 = SECURITY_CLASSIFICATION ( '', '', #187 ) ;
#115 = CC_DESIGN_PERSON_AND_ORGANIZATION_ASSIGNMENT ( #12, #186, ( #119 ) ) ;
#116 = CC_DESIGN_PERSON_AND_ORGANIZATION_ASSIGNMENT ( #13, #185, ( #119 ) ) ;
#117 = CC_DESIGN_APPROVAL ( #118, ( #119 ) ) ;
#118 = APPROVAL ( #183, 'NON SPECIFICATO' ) ;
#119 = PRODUCT_DEFINITION_FORMATION_WITH_SPECIFIED_SOURCE ( 'TUTTO', '', #246, .NOT_KNOWN. ) ;
#120 = CC_DESIGN_DATE_AND_TIME_ASSIGNMENT ( #21, #182, ( #124 ) ) ;
#121 = CC_DESIGN_PERSON_AND_ORGANIZATION_ASSIGNMENT ( #25, #181, ( #124 ) ) ;
#122 = CC_DESIGN_APPROVAL ( #123, ( #124 ) ) ;
#123 = APPROVAL ( #178, 'NON SPECIFICATO' ) ;
#124 = PRODUCT_DEFINITION ( 'NON CONOSCIUTO', '', #119, #249 ) ;
#125 = CC_DESIGN_PERSON_AND_ORGANIZATION_ASSIGNMENT ( #33, #174, ( #246 ) ) ;
#126 = PRODUCT_RELATED_PRODUCT_CATEGORY ( 'detail', '', ( #246 ) ) ;
#127 = AXIS2_PLACEMENT_3D ( 'NONE', #160, #158, #159 ) ;
#128 = AXIS2_PLACEMENT_3D ( 'NONE', #170, #171, #172 ) ;
#129 = AXIS2_PLACEMENT_3D ( 'NONE', #155, #161, #162 ) ;
#130 = AXIS2_PLACEMENT_3D ( 'NONE', #168, #167, #199 ) ;
#131 = AXIS2_PLACEMENT_3D ( 'NONE', #180, #230, #227 ) ;
#132 = AXIS2_PLACEMENT_3D ( 'NONE', #218, #215, #156 ) ;
#133 = AXIS2_PLACEMENT_3D ( 'NONE', #236, #217, #237 ) ;
#134 = AXIS2_PLACEMENT_3D ( 'NONE', #212, #196, #163 ) ;
#135 = AXIS2_PLACEMENT_3D ( 'NONE', #220, #194, #229 ) ;
#136 = AXIS2_PLACEMENT_3D ( 'NONE', #202, #219, #165 ) ;
#137 = AXIS2_PLACEMENT_3D ( 'NONE', #164, #226, #221 ) ;
#138 = EDGE_CURVE ( 'NONE', #41, #44, #42, .T. ) ;
#139 =( GEOMETRIC_REPRESENTATION_CONTEXT ( 3 ) GLOBAL_UNCERTAINTY_ASSIGNED_CONTEXT ( ( #106 ) ) GLOBAL_UNIT_ASSIGNED_CONTEXT ( ( #198, #177, #228 ) ) REPRESENTATION_CONTEXT ( 'NONE', 'WORKASPACE' ) );
#140 = AXIS2_PLACEMENT_3D ( 'NONE', #203, #197, #234 ) ;
#141 = AXIS2_PLACEMENT_3D ( 'NONE', #193, #238, #205 ) ;
#142 = EDGE_CURVE ( 'NONE', #60, #40, #104, .T. ) ;
#143 = EDGE_CURVE ( 'NONE', #41, #38, #103, .T. ) ;
#144 = EDGE_CURVE ( 'NONE', #38, #105, #43, .T. ) ;
#145 = AXIS2_PLACEMENT_3D ( 'NONE', #190, #233, #222 ) ;
#146 = EDGE_CURVE ( 'NONE', #39, #36, #85, .T. ) ;
#147 = EDGE_CURVE ( 'NONE', #40, #60, #78, .T. ) ;
#148 = AXIS2_PLACEMENT_3D ( 'NONE', #239, #216, #232 ) ;
#149 = EDGE_CURVE ( 'NONE', #60, #39, #86, .T. ) ;
#150 = EDGE_CURVE ( 'NONE', #44, #41, #88, .T. ) ;
#151 = EDGE_CURVE ( 'NONE', #44, #105, #92, .T. ) ;
#152 = EDGE_CURVE ( 'NONE', #36, #39, #87, .T. ) ;
#153 = EDGE_CURVE ( 'NONE', #105, #38, #89, .T. ) ;
#154 = EDGE_CURVE ( 'NONE', #40, #36, #98, .T. ) ;
#155 = CARTESIAN_POINT ( 'NONE',  ( -50.00000000000000000, 0.0000000000000000000, 0.0000000000000000000 ) ) ;
#156 = DIRECTION ( 'NONE',  ( 0.0000000000000000000, 0.0000000000000000000, -1.000000000000000000 ) ) ;
#157 = CARTESIAN_POINT ( 'NONE',  ( 50.00000000000000000, 0.0000000000000000000, 12.50000000000000000 ) ) ;
#158 = DIRECTION ( 'NONE',  ( -1.000000000000000000, -0.0000000000000000000, -0.0000000000000000000 ) ) ;
#159 = DIRECTION ( 'NONE',  ( 0.0000000000000000000, 0.0000000000000000000, 1.000000000000000000 ) ) ;
#160 = CARTESIAN_POINT ( 'NONE',  ( 50.00000000000000000, 0.0000000000000000000, 0.0000000000000000000 ) ) ;
#161 = DIRECTION ( 'NONE',  ( 1.000000000000000000, 0.0000000000000000000, 0.0000000000000000000 ) ) ;
#162 = DIRECTION ( 'NONE',  ( 0.0000000000000000000, 0.0000000000000000000, -1.000000000000000000 ) ) ;
#163 = DIRECTION ( 'NONE',  ( 0.0000000000000000000, 0.0000000000000000000, -1.000000000000000000 ) ) ;
#164 = CARTESIAN_POINT ( 'NONE',  ( 50.00000000000000000, 0.0000000000000000000, 0.0000000000000000000 ) ) ;
#165 = DIRECTION ( 'NONE',  ( 0.0000000000000000000, 0.0000000000000000000, 1.000000000000000000 ) ) ;
#166 = PLANE ( 'NONE',  #129 ) ;
#167 = DIRECTION ( 'NONE',  ( -1.000000000000000000, -0.0000000000000000000, -0.0000000000000000000 ) ) ;
#168 = CARTESIAN_POINT ( 'NONE',  ( 50.00000000000000000, 0.0000000000000000000, 0.0000000000000000000 ) ) ;
#169 = APPLICATION_CONTEXT ( 'configuration controlled 3d designs of mechanical parts and assemblies' ) ;
#170 = CARTESIAN_POINT ( 'NONE',  ( 0.0000000000000000000, 0.0000000000000000000, 0.0000000000000000000 ) ) ;
#171 = DIRECTION ( 'NONE',  ( 0.0000000000000000000, 0.0000000000000000000, 1.000000000000000000 ) ) ;
#172 = DIRECTION ( 'NONE',  ( 1.000000000000000000, 0.0000000000000000000, 0.0000000000000000000 ) ) ;
#173 = MECHANICAL_CONTEXT ( 'NONE', #169, 'mechanical' ) ;
#174 = PERSON_AND_ORGANIZATION_ROLE ( 'design_owner' ) ;
#175 = APPLICATION_CONTEXT ( 'configuration controlled 3d designs of mechanical parts and assemblies' ) ;
#176 = APPLICATION_PROTOCOL_DEFINITION ( 'international standard', 'config_control_design', 1994, #175 ) ;
#177 =( NAMED_UNIT ( * ) PLANE_ANGLE_UNIT ( ) SI_UNIT ( $, .RADIAN. ) );
#178 = APPROVAL_STATUS ( 'not_yet_approved' ) ;
#179 = APPROVAL_ROLE ( '' ) ;
#180 = CARTESIAN_POINT ( 'NONE',  ( -50.00000000000000000, 0.0000000000000000000, 0.0000000000000000000 ) ) ;
#181 = PERSON_AND_ORGANIZATION_ROLE ( 'creator' ) ;
#182 = DATE_TIME_ROLE ( 'creation_date' ) ;
#183 = APPROVAL_STATUS ( 'not_yet_approved' ) ;
#184 = APPROVAL_ROLE ( '' ) ;
#185 = PERSON_AND_ORGANIZATION_ROLE ( 'creator' ) ;
#186 = PERSON_AND_ORGANIZATION_ROLE ( 'design_supplier' ) ;
#187 = SECURITY_CLASSIFICATION_LEVEL ( 'unclassified' ) ;
#188 = PERSON_AND_ORGANIZATION_ROLE ( 'classification_officer' ) ;
#189 = DATE_TIME_ROLE ( 'classification_date' ) ;
#190 = CARTESIAN_POINT ( 'NONE',  ( -50.00000000000000000, 0.0000000000000000000, 0.0000000000000000000 ) ) ;
#191 = APPROVAL_STATUS ( 'not_yet_approved' ) ;
#192 = APPROVAL_ROLE ( '' ) ;
#193 = CARTESIAN_POINT ( 'NONE',  ( 50.00000000000000000, 0.0000000000000000000, 0.0000000000000000000 ) ) ;
#194 = DIRECTION ( 'NONE',  ( 1.000000000000000000, 0.0000000000000000000, 0.0000000000000000000 ) ) ;
#195 = CARTESIAN_POINT ( 'NONE',  ( -50.00000000000000000, 0.0000000000000000000, 13.99999999999999800 ) ) ;
#196 = DIRECTION ( 'NONE',  ( 1.000000000000000000, 0.0000000000000000000, 0.0000000000000000000 ) ) ;
#197 = DIRECTION ( 'NONE',  ( 1.000000000000000000, 0.0000000000000000000, 0.0000000000000000000 ) ) ;
#198 =( LENGTH_UNIT ( ) NAMED_UNIT ( * ) SI_UNIT ( .MILLI., .METRE. ) );
#199 = DIRECTION ( 'NONE',  ( 0.0000000000000000000, 0.0000000000000000000, 1.000000000000000000 ) ) ;
#200 = DIRECTION ( 'NONE',  ( -1.000000000000000000, -0.0000000000000000000, -0.0000000000000000000 ) ) ;
#201 = DIRECTION ( 'NONE',  ( -1.000000000000000000, -0.0000000000000000000, -0.0000000000000000000 ) ) ;
#202 = CARTESIAN_POINT ( 'NONE',  ( 50.00000000000000000, 0.0000000000000000000, 0.0000000000000000000 ) ) ;
#203 = CARTESIAN_POINT ( 'NONE',  ( 50.00000000000000000, 0.0000000000000000000, 0.0000000000000000000 ) ) ;
#204 = CARTESIAN_POINT ( 'NONE',  ( -50.00000000000000000, 1.714505518806294400E-015, -13.99999999999999800 ) ) ;
#205 = DIRECTION ( 'NONE',  ( 0.0000000000000000000, 0.0000000000000000000, -1.000000000000000000 ) ) ;
#206 = DIRECTION ( 'NONE',  ( -1.000000000000000000, -0.0000000000000000000, -0.0000000000000000000 ) ) ;
#207 = CARTESIAN_POINT ( 'NONE',  ( 50.00000000000000000, 0.0000000000000000000, 13.99999999999999800 ) ) ;
#208 = CARTESIAN_POINT ( 'NONE',  ( 50.00000000000000000, 0.0000000000000000000, 13.99999999999999800 ) ) ;
#209 = CARTESIAN_POINT ( 'NONE',  ( 50.00000000000000000, 1.530808498934191500E-015, -12.50000000000000000 ) ) ;
#210 = DIRECTION ( 'NONE',  ( -1.000000000000000000, -0.0000000000000000000, -0.0000000000000000000 ) ) ;
#211 = CARTESIAN_POINT ( 'NONE',  ( -50.00000000000000000, 0.0000000000000000000, 12.50000000000000000 ) ) ;
#212 = CARTESIAN_POINT ( 'NONE',  ( -50.00000000000000000, 0.0000000000000000000, 0.0000000000000000000 ) ) ;
#213 = CARTESIAN_POINT ( 'NONE',  ( 50.00000000000000000, 1.714505518806294400E-015, -13.99999999999999800 ) ) ;
#214 = APPLICATION_PROTOCOL_DEFINITION ( 'international standard', 'config_control_design', 1994, #169 ) ;
#215 = DIRECTION ( 'NONE',  ( 1.000000000000000000, 0.0000000000000000000, 0.0000000000000000000 ) ) ;
#216 = DIRECTION ( 'NONE',  ( 1.000000000000000000, 0.0000000000000000000, 0.0000000000000000000 ) ) ;
#217 = DIRECTION ( 'NONE',  ( 1.000000000000000000, 0.0000000000000000000, 0.0000000000000000000 ) ) ;
#218 = CARTESIAN_POINT ( 'NONE',  ( -50.00000000000000000, 0.0000000000000000000, 0.0000000000000000000 ) ) ;
#219 = DIRECTION ( 'NONE',  ( -1.000000000000000000, -0.0000000000000000000, -0.0000000000000000000 ) ) ;
#220 = CARTESIAN_POINT ( 'NONE',  ( 50.00000000000000000, 0.0000000000000000000, 0.0000000000000000000 ) ) ;
#221 = DIRECTION ( 'NONE',  ( 0.0000000000000000000, 0.0000000000000000000, 1.000000000000000000 ) ) ;
#222 = DIRECTION ( 'NONE',  ( 0.0000000000000000000, 0.0000000000000000000, -1.000000000000000000 ) ) ;
#223 = CARTESIAN_POINT ( 'NONE',  ( 50.00000000000000000, 0.0000000000000000000, 12.50000000000000000 ) ) ;
#224 = CARTESIAN_POINT ( 'NONE',  ( -50.00000000000000000, 1.530808498934191500E-015, -12.50000000000000000 ) ) ;
#225 = CARTESIAN_POINT ( 'NONE',  ( 50.00000000000000000, 1.714505518806294400E-015, -13.99999999999999800 ) ) ;
#226 = DIRECTION ( 'NONE',  ( -1.000000000000000000, -0.0000000000000000000, -0.0000000000000000000 ) ) ;
#227 = DIRECTION ( 'NONE',  ( 0.0000000000000000000, 0.0000000000000000000, -1.000000000000000000 ) ) ;
#228 =( NAMED_UNIT ( * ) SI_UNIT ( $, .STERADIAN. ) SOLID_ANGLE_UNIT ( ) );
#229 = DIRECTION ( 'NONE',  ( 0.0000000000000000000, 0.0000000000000000000, -1.000000000000000000 ) ) ;
#230 = DIRECTION ( 'NONE',  ( 1.000000000000000000, 0.0000000000000000000, 0.0000000000000000000 ) ) ;
#231 = CARTESIAN_POINT ( 'NONE',  ( 50.00000000000000000, 1.530808498934191500E-015, -12.50000000000000000 ) ) ;
#232 = DIRECTION ( 'NONE',  ( 0.0000000000000000000, 0.0000000000000000000, -1.000000000000000000 ) ) ;
#233 = DIRECTION ( 'NONE',  ( 1.000000000000000000, 0.0000000000000000000, 0.0000000000000000000 ) ) ;
#234 = DIRECTION ( 'NONE',  ( 0.0000000000000000000, 0.0000000000000000000, -1.000000000000000000 ) ) ;
#235 = PLANE ( 'NONE',  #135 ) ;
#236 = CARTESIAN_POINT ( 'NONE',  ( 50.00000000000000000, 0.0000000000000000000, 0.0000000000000000000 ) ) ;
#237 = DIRECTION ( 'NONE',  ( 0.0000000000000000000, 0.0000000000000000000, -1.000000000000000000 ) ) ;
#238 = DIRECTION ( 'NONE',  ( 1.000000000000000000, 0.0000000000000000000, 0.0000000000000000000 ) ) ;
#239 = CARTESIAN_POINT ( 'NONE',  ( 50.00000000000000000, 0.0000000000000000000, 0.0000000000000000000 ) ) ;
#240 = ADVANCED_FACE ( 'NONE', ( #95 ), #100, .F. ) ;
#241 = ADVANCED_FACE ( 'NONE', ( #94 ), #80, .T. ) ;
#242 = ADVANCED_FACE ( 'NONE', ( #97, #101 ), #235, .T. ) ;
#243 = ADVANCED_FACE ( 'NONE', ( #91 ), #63, .T. ) ;
#244 = ADVANCED_FACE ( 'NONE', ( #72, #50 ), #166, .F. ) ;
#245 = ADVANCED_FACE ( 'NONE', ( #102 ), #49, .F. ) ;
#246 = PRODUCT ( '059.028.025', '059.028.025', '', ( #173 ) ) ;
#247 = PERSON ( 'NON SPECIFICATO', 'NON SPECIFICATO', 'NON SPECIFICATO', ('NON SPECIFICATO'), ('NON SPECIFICATO'), ('NON SPECIFICATO') ) ;
#248 = PRODUCT_DEFINITION_SHAPE ( 'NONE', 'NONE',  #124 ) ;
#249 = DESIGN_CONTEXT ( 'detailed design', #175, 'design' ) ;
ENDSEC;
END-ISO-10303-21;
