ISO-10303-21;
HEADER;
FILE_DESCRIPTION (( 'STEP AP203' ),
    '1' );
FILE_NAME ('059.063.059.STEP',
    '2015-06-04T08:15:19',
    ( '' ),
    ( '' ),
    'SwSTEP 2.0',
    'SolidWorks 2012',
    '' );
FILE_SCHEMA (( 'CONFIG_CONTROL_DESIGN' ));
ENDSEC;

DATA;
#1 = ADVANCED_BREP_SHAPE_REPRESENTATION ( '059.063.059', ( #3, #38 ), #36 ) ;
#2 = UNCERTAINTY_MEASURE_WITH_UNIT (LENGTH_MEASURE( 1.000000000000000100E-005 ), #129, 'distance_accuracy_value', 'NONE');
#3 = MANIFOLD_SOLID_BREP ( 'Elemento strutturale1', #141 ) ;
#4 = AXIS2_PLACEMENT_3D ( 'NONE', #134, #122, #68 ) ;
#5 = AXIS2_PLACEMENT_3D ( 'NONE', #121, #53, #52 ) ;
#6 = EDGE_CURVE ( 'NONE', #206, #198, #194, .T. ) ;
#7 = EDGE_CURVE ( 'NONE', #142, #208, #219, .T. ) ;
#8 = EDGE_CURVE ( 'NONE', #196, #142, #195, .T. ) ;
#9 = EDGE_CURVE ( 'NONE', #208, #142, #193, .T. ) ;
#10 = PRODUCT_RELATED_PRODUCT_CATEGORY ( 'detail', '', ( #246 ) ) ;
#11 = CC_DESIGN_SECURITY_CLASSIFICATION ( #17, ( #23 ) ) ;
#12 = CC_DESIGN_APPROVAL ( #13, ( #17 ) ) ;
#13 = APPROVAL ( #102, 'NON SPECIFICATO' ) ;
#14 = CC_DESIGN_DATE_AND_TIME_ASSIGNMENT ( #212, #101, ( #17 ) ) ;
#15 = CC_DESIGN_PERSON_AND_ORGANIZATION_ASSIGNMENT ( #166, #100, ( #17 ) ) ;
#16 = AXIS2_PLACEMENT_3D ( 'NONE', #119, #104, #81 ) ;
#17 = SECURITY_CLASSIFICATION ( '', '', #99 ) ;
#18 = CC_DESIGN_PERSON_AND_ORGANIZATION_ASSIGNMENT ( #213, #98, ( #23 ) ) ;
#19 = CC_DESIGN_PERSON_AND_ORGANIZATION_ASSIGNMENT ( #235, #97, ( #23 ) ) ;
#20 = CC_DESIGN_APPROVAL ( #22, ( #23 ) ) ;
#21 = AXIS2_PLACEMENT_3D ( 'NONE', #124, #131, #62 ) ;
#22 = APPROVAL ( #95, 'NON SPECIFICATO' ) ;
#23 = PRODUCT_DEFINITION_FORMATION_WITH_SPECIFIED_SOURCE ( 'TUTTO', '', #246, .NOT_KNOWN. ) ;
#24 = EDGE_CURVE ( 'NONE', #201, #208, #190, .T. ) ;
#25 = CC_DESIGN_DATE_AND_TIME_ASSIGNMENT ( #160, #92, ( #30 ) ) ;
#26 = CC_DESIGN_PERSON_AND_ORGANIZATION_ASSIGNMENT ( #162, #91, ( #30 ) ) ;
#27 = EDGE_CURVE ( 'NONE', #145, #203, #192, .T. ) ;
#28 = CC_DESIGN_APPROVAL ( #29, ( #30 ) ) ;
#29 = APPROVAL ( #89, 'NON SPECIFICATO' ) ;
#30 = PRODUCT_DEFINITION ( 'NON CONOSCIUTO', '', #23, #248 ) ;
#31 = EDGE_CURVE ( 'NONE', #198, #206, #189, .T. ) ;
#32 = AXIS2_PLACEMENT_3D ( 'NONE', #69, #111, #55 ) ;
#33 = AXIS2_PLACEMENT_3D ( 'NONE', #117, #132, #72 ) ;
#34 = AXIS2_PLACEMENT_3D ( 'NONE', #110, #83, #61 ) ;
#35 = AXIS2_PLACEMENT_3D ( 'NONE', #67, #58, #56 ) ;
#36 =( GEOMETRIC_REPRESENTATION_CONTEXT ( 3 ) GLOBAL_UNCERTAINTY_ASSIGNED_CONTEXT ( ( #2 ) ) GLOBAL_UNIT_ASSIGNED_CONTEXT ( ( #129, #77, #105 ) ) REPRESENTATION_CONTEXT ( 'NONE', 'WORKASPACE' ) );
#37 = AXIS2_PLACEMENT_3D ( 'NONE', #109, #94, #59 ) ;
#38 = AXIS2_PLACEMENT_3D ( 'NONE', #78, #79, #80 ) ;
#39 = AXIS2_PLACEMENT_3D ( 'NONE', #57, #115, #118 ) ;
#40 = AXIS2_PLACEMENT_3D ( 'NONE', #63, #54, #50 ) ;
#41 = EDGE_CURVE ( 'NONE', #203, #206, #187, .T. ) ;
#42 = CC_DESIGN_PERSON_AND_ORGANIZATION_ASSIGNMENT ( #149, #86, ( #246 ) ) ;
#43 = AXIS2_PLACEMENT_3D ( 'NONE', #75, #126, #93 ) ;
#44 = AXIS2_PLACEMENT_3D ( 'NONE', #128, #107, #133 ) ;
#45 = AXIS2_PLACEMENT_3D ( 'NONE', #116, #66, #114 ) ;
#46 = EDGE_CURVE ( 'NONE', #196, #201, #185, .T. ) ;
#47 = EDGE_CURVE ( 'NONE', #201, #196, #183, .T. ) ;
#48 = EDGE_CURVE ( 'NONE', #145, #198, #182, .T. ) ;
#49 = EDGE_CURVE ( 'NONE', #203, #145, #181, .T. ) ;
#50 = DIRECTION ( 'NONE',  ( 0.0000000000000000000, 0.0000000000000000000, -1.000000000000000000 ) ) ;
#51 = CARTESIAN_POINT ( 'NONE',  ( -50.00000000000000000, 3.612708057484692400E-015, -29.50000000000000400 ) ) ;
#52 = DIRECTION ( 'NONE',  ( 0.0000000000000000000, 0.0000000000000000000, -1.000000000000000000 ) ) ;
#53 = DIRECTION ( 'NONE',  ( 1.000000000000000000, 0.0000000000000000000, 0.0000000000000000000 ) ) ;
#54 = DIRECTION ( 'NONE',  ( 1.000000000000000000, 0.0000000000000000000, 0.0000000000000000000 ) ) ;
#55 = DIRECTION ( 'NONE',  ( 0.0000000000000000000, 0.0000000000000000000, 1.000000000000000000 ) ) ;
#56 = DIRECTION ( 'NONE',  ( 0.0000000000000000000, 0.0000000000000000000, -1.000000000000000000 ) ) ;
#57 = CARTESIAN_POINT ( 'NONE',  ( -50.00000000000000000, 0.0000000000000000000, 0.0000000000000000000 ) ) ;
#58 = DIRECTION ( 'NONE',  ( 1.000000000000000000, 0.0000000000000000000, 0.0000000000000000000 ) ) ;
#59 = DIRECTION ( 'NONE',  ( 0.0000000000000000000, 0.0000000000000000000, 1.000000000000000000 ) ) ;
#60 = CARTESIAN_POINT ( 'NONE',  ( -50.00000000000000000, 0.0000000000000000000, 31.50000000000000000 ) ) ;
#61 = DIRECTION ( 'NONE',  ( 0.0000000000000000000, 0.0000000000000000000, -1.000000000000000000 ) ) ;
#62 = DIRECTION ( 'NONE',  ( 0.0000000000000000000, 0.0000000000000000000, -1.000000000000000000 ) ) ;
#63 = CARTESIAN_POINT ( 'NONE',  ( -50.00000000000000000, 0.0000000000000000000, 0.0000000000000000000 ) ) ;
#64 = DIRECTION ( 'NONE',  ( -1.000000000000000000, -0.0000000000000000000, -0.0000000000000000000 ) ) ;
#65 = PLANE ( 'NONE',  #35 ) ;
#66 = DIRECTION ( 'NONE',  ( 1.000000000000000000, 0.0000000000000000000, 0.0000000000000000000 ) ) ;
#67 = CARTESIAN_POINT ( 'NONE',  ( 50.00000000000000000, 0.0000000000000000000, 0.0000000000000000000 ) ) ;
#68 = DIRECTION ( 'NONE',  ( 0.0000000000000000000, 0.0000000000000000000, -1.000000000000000000 ) ) ;
#69 = CARTESIAN_POINT ( 'NONE',  ( 50.00000000000000000, 0.0000000000000000000, 0.0000000000000000000 ) ) ;
#70 = PLANE ( 'NONE',  #40 ) ;
#71 = DIRECTION ( 'NONE',  ( -1.000000000000000000, -0.0000000000000000000, -0.0000000000000000000 ) ) ;
#72 = DIRECTION ( 'NONE',  ( 0.0000000000000000000, 0.0000000000000000000, -1.000000000000000000 ) ) ;
#73 = APPLICATION_CONTEXT ( 'configuration controlled 3d designs of mechanical parts and assemblies' ) ;
#74 = CARTESIAN_POINT ( 'NONE',  ( 50.00000000000000000, 0.0000000000000000000, 31.50000000000000000 ) ) ;
#75 = CARTESIAN_POINT ( 'NONE',  ( 50.00000000000000000, 0.0000000000000000000, 0.0000000000000000000 ) ) ;
#76 = CARTESIAN_POINT ( 'NONE',  ( 50.00000000000000000, 3.612708057484692400E-015, -29.50000000000000400 ) ) ;
#77 =( NAMED_UNIT ( * ) PLANE_ANGLE_UNIT ( ) SI_UNIT ( $, .RADIAN. ) );
#78 = CARTESIAN_POINT ( 'NONE',  ( 0.0000000000000000000, 0.0000000000000000000, 0.0000000000000000000 ) ) ;
#79 = DIRECTION ( 'NONE',  ( 0.0000000000000000000, 0.0000000000000000000, 1.000000000000000000 ) ) ;
#80 = DIRECTION ( 'NONE',  ( 1.000000000000000000, 0.0000000000000000000, 0.0000000000000000000 ) ) ;
#81 = DIRECTION ( 'NONE',  ( 0.0000000000000000000, 0.0000000000000000000, -1.000000000000000000 ) ) ;
#82 = CARTESIAN_POINT ( 'NONE',  ( 50.00000000000000000, 3.612708057484692400E-015, -29.50000000000000400 ) ) ;
#83 = DIRECTION ( 'NONE',  ( 1.000000000000000000, 0.0000000000000000000, 0.0000000000000000000 ) ) ;
#84 = MECHANICAL_CONTEXT ( 'NONE', #73, 'mechanical' ) ;
#85 = CARTESIAN_POINT ( 'NONE',  ( 50.00000000000000000, 0.0000000000000000000, 31.50000000000000000 ) ) ;
#86 = PERSON_AND_ORGANIZATION_ROLE ( 'design_owner' ) ;
#87 = APPLICATION_CONTEXT ( 'configuration controlled 3d designs of mechanical parts and assemblies' ) ;
#88 = APPLICATION_PROTOCOL_DEFINITION ( 'international standard', 'config_control_design', 1994, #87 ) ;
#89 = APPROVAL_STATUS ( 'not_yet_approved' ) ;
#90 = APPROVAL_ROLE ( '' ) ;
#91 = PERSON_AND_ORGANIZATION_ROLE ( 'creator' ) ;
#92 = DATE_TIME_ROLE ( 'creation_date' ) ;
#93 = DIRECTION ( 'NONE',  ( 0.0000000000000000000, 0.0000000000000000000, 1.000000000000000000 ) ) ;
#94 = DIRECTION ( 'NONE',  ( -1.000000000000000000, -0.0000000000000000000, -0.0000000000000000000 ) ) ;
#95 = APPROVAL_STATUS ( 'not_yet_approved' ) ;
#96 = APPROVAL_ROLE ( '' ) ;
#97 = PERSON_AND_ORGANIZATION_ROLE ( 'creator' ) ;
#98 = PERSON_AND_ORGANIZATION_ROLE ( 'design_supplier' ) ;
#99 = SECURITY_CLASSIFICATION_LEVEL ( 'unclassified' ) ;
#100 = PERSON_AND_ORGANIZATION_ROLE ( 'classification_officer' ) ;
#101 = DATE_TIME_ROLE ( 'classification_date' ) ;
#102 = APPROVAL_STATUS ( 'not_yet_approved' ) ;
#103 = APPROVAL_ROLE ( '' ) ;
#104 = DIRECTION ( 'NONE',  ( 1.000000000000000000, 0.0000000000000000000, 0.0000000000000000000 ) ) ;
#105 =( NAMED_UNIT ( * ) SI_UNIT ( $, .STERADIAN. ) SOLID_ANGLE_UNIT ( ) );
#106 = DIRECTION ( 'NONE',  ( -1.000000000000000000, -0.0000000000000000000, -0.0000000000000000000 ) ) ;
#107 = DIRECTION ( 'NONE',  ( -1.000000000000000000, -0.0000000000000000000, -0.0000000000000000000 ) ) ;
#108 = CARTESIAN_POINT ( 'NONE',  ( -50.00000000000000000, 3.857637417314162700E-015, -31.50000000000000000 ) ) ;
#109 = CARTESIAN_POINT ( 'NONE',  ( 50.00000000000000000, 0.0000000000000000000, 0.0000000000000000000 ) ) ;
#110 = CARTESIAN_POINT ( 'NONE',  ( -50.00000000000000000, 0.0000000000000000000, 0.0000000000000000000 ) ) ;
#111 = DIRECTION ( 'NONE',  ( -1.000000000000000000, -0.0000000000000000000, -0.0000000000000000000 ) ) ;
#112 = DIRECTION ( 'NONE',  ( -1.000000000000000000, -0.0000000000000000000, -0.0000000000000000000 ) ) ;
#113 = CARTESIAN_POINT ( 'NONE',  ( 50.00000000000000000, 3.857637417314162700E-015, -31.50000000000000000 ) ) ;
#114 = DIRECTION ( 'NONE',  ( 0.0000000000000000000, 0.0000000000000000000, -1.000000000000000000 ) ) ;
#115 = DIRECTION ( 'NONE',  ( 1.000000000000000000, 0.0000000000000000000, 0.0000000000000000000 ) ) ;
#116 = CARTESIAN_POINT ( 'NONE',  ( 50.00000000000000000, 0.0000000000000000000, 0.0000000000000000000 ) ) ;
#117 = CARTESIAN_POINT ( 'NONE',  ( -50.00000000000000000, 0.0000000000000000000, 0.0000000000000000000 ) ) ;
#118 = DIRECTION ( 'NONE',  ( 0.0000000000000000000, 0.0000000000000000000, -1.000000000000000000 ) ) ;
#119 = CARTESIAN_POINT ( 'NONE',  ( 50.00000000000000000, 0.0000000000000000000, 0.0000000000000000000 ) ) ;
#120 = CARTESIAN_POINT ( 'NONE',  ( 50.00000000000000000, 0.0000000000000000000, 29.50000000000000400 ) ) ;
#121 = CARTESIAN_POINT ( 'NONE',  ( 50.00000000000000000, 0.0000000000000000000, 0.0000000000000000000 ) ) ;
#122 = DIRECTION ( 'NONE',  ( 1.000000000000000000, 0.0000000000000000000, 0.0000000000000000000 ) ) ;
#123 = CARTESIAN_POINT ( 'NONE',  ( -50.00000000000000000, 0.0000000000000000000, 29.50000000000000400 ) ) ;
#124 = CARTESIAN_POINT ( 'NONE',  ( -50.00000000000000000, 0.0000000000000000000, 0.0000000000000000000 ) ) ;
#125 = CARTESIAN_POINT ( 'NONE',  ( 50.00000000000000000, 0.0000000000000000000, 29.50000000000000400 ) ) ;
#126 = DIRECTION ( 'NONE',  ( -1.000000000000000000, -0.0000000000000000000, -0.0000000000000000000 ) ) ;
#127 = APPLICATION_PROTOCOL_DEFINITION ( 'international standard', 'config_control_design', 1994, #73 ) ;
#128 = CARTESIAN_POINT ( 'NONE',  ( 50.00000000000000000, 0.0000000000000000000, 0.0000000000000000000 ) ) ;
#129 =( LENGTH_UNIT ( ) NAMED_UNIT ( * ) SI_UNIT ( .MILLI., .METRE. ) );
#130 = CARTESIAN_POINT ( 'NONE',  ( 50.00000000000000000, 3.857637417314162700E-015, -31.50000000000000000 ) ) ;
#131 = DIRECTION ( 'NONE',  ( 1.000000000000000000, 0.0000000000000000000, 0.0000000000000000000 ) ) ;
#132 = DIRECTION ( 'NONE',  ( 1.000000000000000000, 0.0000000000000000000, 0.0000000000000000000 ) ) ;
#133 = DIRECTION ( 'NONE',  ( 0.0000000000000000000, 0.0000000000000000000, 1.000000000000000000 ) ) ;
#134 = CARTESIAN_POINT ( 'NONE',  ( 50.00000000000000000, 0.0000000000000000000, 0.0000000000000000000 ) ) ;
#135 = ORIENTED_EDGE ( 'NONE', *, *, #6, .F. ) ;
#136 = EDGE_LOOP ( 'NONE', ( #137, #174 ) ) ;
#137 = ORIENTED_EDGE ( 'NONE', *, *, #49, .T. ) ;
#138 = APPROVAL_DATE_TIME ( #204, #22 ) ;
#139 = ORIENTED_EDGE ( 'NONE', *, *, #47, .F. ) ;
#140 = ORIENTED_EDGE ( 'NONE', *, *, #31, .F. ) ;
#141 = CLOSED_SHELL ( 'NONE', ( #241, #242, #243, #240, #244, #245 ) ) ;
#142 = VERTEX_POINT ( 'NONE', #123 ) ;
#143 = PERSON_AND_ORGANIZATION ( #247, #151 ) ;
#144 = ORIENTED_EDGE ( 'NONE', *, *, #24, .T. ) ;
#145 = VERTEX_POINT ( 'NONE', #113 ) ;
#146 = CALENDAR_DATE ( 2015, 4, 6 ) ;
#147 = APPROVAL_PERSON_ORGANIZATION ( #148, #29, #90 ) ;
#148 = PERSON_AND_ORGANIZATION ( #247, #151 ) ;
#149 = PERSON_AND_ORGANIZATION ( #247, #151 ) ;
#150 = EDGE_LOOP ( 'NONE', ( #237, #139 ) ) ;
#151 = ORGANIZATION ( 'NON SPECIFICATO', 'NON SPECIFICATO', '' ) ;
#152 = SHAPE_DEFINITION_REPRESENTATION ( #249, #1 ) ;
#153 = DATE_AND_TIME ( #155, #156 ) ;
#154 = APPROVAL_DATE_TIME ( #153, #29 ) ;
#155 = CALENDAR_DATE ( 2015, 4, 6 ) ;
#156 = LOCAL_TIME ( 10, 15, 19.00000000000000000, #157 ) ;
#157 = COORDINATED_UNIVERSAL_TIME_OFFSET ( 1, 0, .AHEAD. ) ;
#158 = ORIENTED_EDGE ( 'NONE', *, *, #31, .T. ) ;
#159 = COORDINATED_UNIVERSAL_TIME_OFFSET ( 1, 0, .AHEAD. ) ;
#160 = DATE_AND_TIME ( #146, #161 ) ;
#161 = LOCAL_TIME ( 10, 15, 19.00000000000000000, #159 ) ;
#162 = PERSON_AND_ORGANIZATION ( #247, #151 ) ;
#163 = ORIENTED_EDGE ( 'NONE', *, *, #47, .T. ) ;
#164 = PERSON_AND_ORGANIZATION ( #247, #151 ) ;
#165 = APPROVAL_PERSON_ORGANIZATION ( #164, #22, #96 ) ;
#166 = PERSON_AND_ORGANIZATION ( #247, #151 ) ;
#167 = CYLINDRICAL_SURFACE ( 'NONE', #32, 29.50000000000000400 ) ;
#168 = FACE_OUTER_BOUND ( 'NONE', #136, .T. ) ;
#169 = FACE_OUTER_BOUND ( 'NONE', #220, .T. ) ;
#170 = CYLINDRICAL_SURFACE ( 'NONE', #37, 31.50000000000000000 ) ;
#171 = FACE_BOUND ( 'NONE', #224, .T. ) ;
#172 = CYLINDRICAL_SURFACE ( 'NONE', #44, 31.50000000000000000 ) ;
#173 = EDGE_LOOP ( 'NONE', ( #200, #163, #236, #216 ) ) ;
#174 = ORIENTED_EDGE ( 'NONE', *, *, #27, .T. ) ;
#175 = CYLINDRICAL_SURFACE ( 'NONE', #43, 29.50000000000000400 ) ;
#176 = VECTOR ( 'NONE', #106, 1000.000000000000000 ) ;
#177 = FACE_OUTER_BOUND ( 'NONE', #173, .T. ) ;
#178 = FACE_OUTER_BOUND ( 'NONE', #238, .T. ) ;
#179 = FACE_OUTER_BOUND ( 'NONE', #207, .T. ) ;
#180 = FACE_BOUND ( 'NONE', #150, .T. ) ;
#181 = CIRCLE ( 'NONE', #4, 31.50000000000000000 ) ;
#182 = LINE ( 'NONE', #130, #176 ) ;
#183 = CIRCLE ( 'NONE', #16, 29.50000000000000400 ) ;
#184 = VECTOR ( 'NONE', #112, 1000.000000000000000 ) ;
#185 = CIRCLE ( 'NONE', #5, 29.50000000000000400 ) ;
#186 = FACE_OUTER_BOUND ( 'NONE', #215, .T. ) ;
#187 = LINE ( 'NONE', #85, #184 ) ;
#188 = VECTOR ( 'NONE', #64, 1000.000000000000000 ) ;
#189 = CIRCLE ( 'NONE', #39, 31.50000000000000000 ) ;
#190 = LINE ( 'NONE', #76, #188 ) ;
#191 = VECTOR ( 'NONE', #71, 1000.000000000000000 ) ;
#192 = CIRCLE ( 'NONE', #45, 31.50000000000000000 ) ;
#193 = CIRCLE ( 'NONE', #33, 29.50000000000000400 ) ;
#194 = CIRCLE ( 'NONE', #34, 31.50000000000000000 ) ;
#195 = LINE ( 'NONE', #125, #191 ) ;
#196 = VERTEX_POINT ( 'NONE', #120 ) ;
#197 = APPROVAL_PERSON_ORGANIZATION ( #143, #13, #103 ) ;
#198 = VERTEX_POINT ( 'NONE', #108 ) ;
#199 = COORDINATED_UNIVERSAL_TIME_OFFSET ( 1, 0, .AHEAD. ) ;
#200 = ORIENTED_EDGE ( 'NONE', *, *, #24, .F. ) ;
#201 = VERTEX_POINT ( 'NONE', #82 ) ;
#202 = ORIENTED_EDGE ( 'NONE', *, *, #7, .T. ) ;
#203 = VERTEX_POINT ( 'NONE', #74 ) ;
#204 = DATE_AND_TIME ( #211, #232 ) ;
#205 = ORIENTED_EDGE ( 'NONE', *, *, #7, .F. ) ;
#206 = VERTEX_POINT ( 'NONE', #60 ) ;
#207 = EDGE_LOOP ( 'NONE', ( #223, #233, #158, #230 ) ) ;
#208 = VERTEX_POINT ( 'NONE', #51 ) ;
#209 = ORIENTED_EDGE ( 'NONE', *, *, #8, .F. ) ;
#210 = ORIENTED_EDGE ( 'NONE', *, *, #46, .T. ) ;
#211 = CALENDAR_DATE ( 2015, 4, 6 ) ;
#212 = DATE_AND_TIME ( #221, #231 ) ;
#213 = PERSON_AND_ORGANIZATION ( #247, #151 ) ;
#214 = DATE_AND_TIME ( #227, #217 ) ;
#215 = EDGE_LOOP ( 'NONE', ( #226, #234, #228, #222 ) ) ;
#216 = ORIENTED_EDGE ( 'NONE', *, *, #9, .F. ) ;
#217 = LOCAL_TIME ( 10, 15, 19.00000000000000000, #199 ) ;
#218 = COORDINATED_UNIVERSAL_TIME_OFFSET ( 1, 0, .AHEAD. ) ;
#219 = CIRCLE ( 'NONE', #21, 29.50000000000000400 ) ;
#220 = EDGE_LOOP ( 'NONE', ( #135, #140 ) ) ;
#221 = CALENDAR_DATE ( 2015, 4, 6 ) ;
#222 = ORIENTED_EDGE ( 'NONE', *, *, #6, .T. ) ;
#223 = ORIENTED_EDGE ( 'NONE', *, *, #27, .F. ) ;
#224 = EDGE_LOOP ( 'NONE', ( #202, #229 ) ) ;
#225 = COORDINATED_UNIVERSAL_TIME_OFFSET ( 1, 0, .AHEAD. ) ;
#226 = ORIENTED_EDGE ( 'NONE', *, *, #48, .F. ) ;
#227 = CALENDAR_DATE ( 2015, 4, 6 ) ;
#228 = ORIENTED_EDGE ( 'NONE', *, *, #41, .T. ) ;
#229 = ORIENTED_EDGE ( 'NONE', *, *, #9, .T. ) ;
#230 = ORIENTED_EDGE ( 'NONE', *, *, #41, .F. ) ;
#231 = LOCAL_TIME ( 10, 15, 19.00000000000000000, #218 ) ;
#232 = LOCAL_TIME ( 10, 15, 19.00000000000000000, #225 ) ;
#233 = ORIENTED_EDGE ( 'NONE', *, *, #48, .T. ) ;
#234 = ORIENTED_EDGE ( 'NONE', *, *, #49, .F. ) ;
#235 = PERSON_AND_ORGANIZATION ( #247, #151 ) ;
#236 = ORIENTED_EDGE ( 'NONE', *, *, #8, .T. ) ;
#237 = ORIENTED_EDGE ( 'NONE', *, *, #46, .F. ) ;
#238 = EDGE_LOOP ( 'NONE', ( #210, #144, #205, #209 ) ) ;
#239 = APPROVAL_DATE_TIME ( #214, #13 ) ;
#240 = ADVANCED_FACE ( 'NONE', ( #186 ), #170, .T. ) ;
#241 = ADVANCED_FACE ( 'NONE', ( #179 ), #172, .T. ) ;
#242 = ADVANCED_FACE ( 'NONE', ( #178 ), #175, .F. ) ;
#243 = ADVANCED_FACE ( 'NONE', ( #177 ), #167, .F. ) ;
#244 = ADVANCED_FACE ( 'NONE', ( #180, #168 ), #65, .T. ) ;
#245 = ADVANCED_FACE ( 'NONE', ( #171, #169 ), #70, .F. ) ;
#246 = PRODUCT ( '059.063.059', '059.063.059', '', ( #84 ) ) ;
#247 = PERSON ( 'NON SPECIFICATO', 'NON SPECIFICATO', 'NON SPECIFICATO', ('NON SPECIFICATO'), ('NON SPECIFICATO'), ('NON SPECIFICATO') ) ;
#248 = DESIGN_CONTEXT ( 'detailed design', #87, 'design' ) ;
#249 = PRODUCT_DEFINITION_SHAPE ( 'NONE', 'NONE',  #30 ) ;
ENDSEC;
END-ISO-10303-21;
