ISO-10303-21;
HEADER;
FILE_DESCRIPTION (( 'STEP AP214' ),
    '1' );
FILE_NAME ('1077000010E00A.STEP',
    '2013-02-25T17:29:15',
    ( '' ),
    ( '' ),
    'SwSTEP 2.0',
    'SolidWorks 2012',
    '' );
FILE_SCHEMA (( 'AUTOMOTIVE_DESIGN' ));
ENDSEC;

DATA;
#1 = ADVANCED_FACE ( 'NONE', ( #273 ), #269, .T. ) ;
#2 = ADVANCED_FACE ( 'NONE', ( #272 ), #267, .T. ) ;
#3 = ADVANCED_FACE ( 'NONE', ( #270 ), #265, .T. ) ;
#4 = ADVANCED_FACE ( 'NONE', ( #268, #264 ), #120, .T. ) ;
#5 = ADVANCED_FACE ( 'NONE', ( #334 ), #261, .F. ) ;
#6 = ADVANCED_FACE ( 'NONE', ( #271 ), #257, .T. ) ;
#7 = ADVANCED_FACE ( 'NONE', ( #262 ), #266, .T. ) ;
#8 = ADVANCED_FACE ( 'NONE', ( #258 ), #255, .F. ) ;
#9 = ADVANCED_FACE ( 'NONE', ( #260, #254 ), #99, .T. ) ;
#10 = ADVANCED_FACE ( 'NONE', ( #263 ), #249, .T. ) ;
#11 = ADVANCED_FACE ( 'NONE', ( #259, #256 ), #128, .T. ) ;
#12 = EDGE_CURVE ( 'NONE', #294, #299, #251, .T. ) ;
#13 = EDGE_CURVE ( 'NONE', #299, #294, #253, .T. ) ;
#14 = AXIS2_PLACEMENT_3D ( 'NONE', #90, #89, #87 ) ;
#15 = EDGE_CURVE ( 'NONE', #292, #296, #250, .T. ) ;
#16 = EDGE_CURVE ( 'NONE', #295, #296, #252, .T. ) ;
#17 = EDGE_CURVE ( 'NONE', #291, #293, #248, .T. ) ;
#18 = AXIS2_PLACEMENT_3D ( 'NONE', #105, #101, #100 ) ;
#19 = EDGE_CURVE ( 'NONE', #298, #290, #247, .T. ) ;
#20 = AXIS2_PLACEMENT_3D ( 'NONE', #161, #162, #167 ) ;
#21 = EDGE_CURVE ( 'NONE', #297, #328, #245, .T. ) ;
#22 = AXIS2_PLACEMENT_3D ( 'NONE', #151, #149, #156 ) ;
#23 = AXIS2_PLACEMENT_3D ( 'NONE', #178, #80, #177 ) ;
#24 = AXIS2_PLACEMENT_3D ( 'NONE', #210, #209, #182 ) ;
#25 = EDGE_CURVE ( 'NONE', #299, #288, #244, .T. ) ;
#26 = EDGE_CURVE ( 'NONE', #288, #300, #243, .T. ) ;
#27 = EDGE_CURVE ( 'NONE', #293, #298, #242, .T. ) ;
#28 = PRESENTATION_LAYER_ASSIGNMENT (  '', '', ( #34 ) ) ;
#29 = EDGE_CURVE ( 'NONE', #293, #291, #240, .T. ) ;
#30 = EDGE_CURVE ( 'NONE', #328, #297, #237, .T. ) ;
#31 = EDGE_CURVE ( 'NONE', #291, #290, #235, .T. ) ;
#32 = EDGE_CURVE ( 'NONE', #290, #298, #239, .T. ) ;
#33 = EDGE_CURVE ( 'NONE', #289, #295, #234, .T. ) ;
#34 = STYLED_ITEM ( 'NONE', ( #216 ), #77 ) ;
#35 = AXIS2_PLACEMENT_3D ( 'NONE', #136, #134, #103 ) ;
#36 = AXIS2_PLACEMENT_3D ( 'NONE', #132, #96, #139 ) ;
#37 = AXIS2_PLACEMENT_3D ( 'NONE', #121, #114, #113 ) ;
#38 = AXIS2_PLACEMENT_3D ( 'NONE', #129, #144, #130 ) ;
#39 = AXIS2_PLACEMENT_3D ( 'NONE', #97, #88, #131 ) ;
#40 = AXIS2_PLACEMENT_3D ( 'NONE', #137, #150, #138 ) ;
#41 = PRODUCT_RELATED_PRODUCT_CATEGORY ( 'part', '', ( #72 ) ) ;
#42 = AXIS2_PLACEMENT_3D ( 'NONE', #91, #133, #166 ) ;
#43 = AXIS2_PLACEMENT_3D ( 'NONE', #157, #158, #159 ) ;
#44 = AXIS2_PLACEMENT_3D ( 'NONE', #174, #160, #135 ) ;
#45 = EDGE_CURVE ( 'NONE', #289, #292, #231, .T. ) ;
#46 = PRODUCT_DEFINITION_FORMATION_WITH_SPECIFIED_SOURCE ( 'TUTTO', '', #72, .NOT_KNOWN. ) ;
#47 = PRODUCT_DEFINITION ( 'NON CONOSCIUTO', '', #46, #73 ) ;
#48 = EDGE_CURVE ( 'NONE', #297, #290, #232, .T. ) ;
#49 = EDGE_CURVE ( 'NONE', #294, #300, #227, .T. ) ;
#50 = EDGE_CURVE ( 'NONE', #295, #289, #229, .T. ) ;
#51 = EDGE_CURVE ( 'NONE', #328, #298, #223, .T. ) ;
#52 = EDGE_CURVE ( 'NONE', #296, #292, #222, .T. ) ;
#53 = AXIS2_PLACEMENT_3D ( 'NONE', #104, #111, #107 ) ;
#54 = AXIS2_PLACEMENT_3D ( 'NONE', #122, #119, #123 ) ;
#55 = AXIS2_PLACEMENT_3D ( 'NONE', #92, #94, #93 ) ;
#56 = AXIS2_PLACEMENT_3D ( 'NONE', #196, #179, #176 ) ;
#57 = AXIS2_PLACEMENT_3D ( 'NONE', #109, #112, #102 ) ;
#58 = AXIS2_PLACEMENT_3D ( 'NONE', #126, #127, #125 ) ;
#59 = AXIS2_PLACEMENT_3D ( 'NONE', #118, #116, #124 ) ;
#60 = AXIS2_PLACEMENT_3D ( 'NONE', #202, #152, #155 ) ;
#61 = AXIS2_PLACEMENT_3D ( 'NONE', #164, #153, #163 ) ;
#62 = AXIS2_PLACEMENT_3D ( 'NONE', #173, #212, #169 ) ;
#63 = AXIS2_PLACEMENT_3D ( 'NONE', #115, #110, #141 ) ;
#64 = EDGE_CURVE ( 'NONE', #300, #288, #220, .T. ) ;
#65 =( GEOMETRIC_REPRESENTATION_CONTEXT ( 3 ) GLOBAL_UNCERTAINTY_ASSIGNED_CONTEXT ( ( #78 ) ) GLOBAL_UNIT_ASSIGNED_CONTEXT ( ( #185, #184, #183 ) ) REPRESENTATION_CONTEXT ( 'NONE', 'WORKASPACE' ) );
#66 = MECHANICAL_DESIGN_GEOMETRIC_PRESENTATION_REPRESENTATION (  '', ( #68 ), #65 ) ;
#67 = PRESENTATION_LAYER_ASSIGNMENT (  '', '', ( #68 ) ) ;
#68 = STYLED_ITEM ( 'NONE', ( #215 ), #76 ) ;
#69 =( GEOMETRIC_REPRESENTATION_CONTEXT ( 3 ) GLOBAL_UNCERTAINTY_ASSIGNED_CONTEXT ( ( #75 ) ) GLOBAL_UNIT_ASSIGNED_CONTEXT ( ( #193, #192, #191 ) ) REPRESENTATION_CONTEXT ( 'NONE', 'WORKASPACE' ) );
#70 =( GEOMETRIC_REPRESENTATION_CONTEXT ( 3 ) GLOBAL_UNCERTAINTY_ASSIGNED_CONTEXT ( ( #79 ) ) GLOBAL_UNIT_ASSIGNED_CONTEXT ( ( #83, #82, #81 ) ) REPRESENTATION_CONTEXT ( 'NONE', 'WORKASPACE' ) );
#71 = MECHANICAL_DESIGN_GEOMETRIC_PRESENTATION_REPRESENTATION (  '', ( #34 ), #70 ) ;
#72 = PRODUCT ( '1077000010E00A', '1077000010E00A', '', ( #175 ) ) ;
#73 = PRODUCT_DEFINITION_CONTEXT ( 'detailed design', #172, 'design' ) ;
#74 = PRODUCT_DEFINITION_SHAPE ( 'NONE', 'NONE',  #47 ) ;
#75 = UNCERTAINTY_MEASURE_WITH_UNIT (LENGTH_MEASURE( 1.000000000000000100E-005 ), #193, 'distance_accuracy_value', 'NONE');
#76 = ADVANCED_BREP_SHAPE_REPRESENTATION ( '1077000010E00A', ( #77, #56 ), #69 ) ;
#77 = MANIFOLD_SOLID_BREP ( 'Importato1', #230 ) ;
#78 = UNCERTAINTY_MEASURE_WITH_UNIT (LENGTH_MEASURE( 1.000000000000000100E-005 ), #185, 'distance_accuracy_value', 'NONE');
#79 = UNCERTAINTY_MEASURE_WITH_UNIT (LENGTH_MEASURE( 1.000000000000000100E-005 ), #83, 'distance_accuracy_value', 'NONE');
#80 = DIRECTION ( 'NONE',  ( -0.0000000000000000000, 1.000000000000000000, -0.0000000000000000000 ) ) ;
#81 =( NAMED_UNIT ( * ) SI_UNIT ( $, .STERADIAN. ) SOLID_ANGLE_UNIT ( ) );
#82 =( NAMED_UNIT ( * ) PLANE_ANGLE_UNIT ( ) SI_UNIT ( $, .RADIAN. ) );
#83 =( LENGTH_UNIT ( ) NAMED_UNIT ( * ) SI_UNIT ( .MILLI., .METRE. ) );
#84 = SURFACE_STYLE_USAGE ( .BOTH. , #85 ) ;
#85 = SURFACE_SIDE_STYLE ('',( #217 ) ) ;
#86 = CARTESIAN_POINT ( 'NONE',  ( 0.0000000000000000000, 1.000000000000000000, -5.500000000000000000 ) ) ;
#87 = DIRECTION ( 'NONE',  ( 0.0000000000000000000, 0.0000000000000000000, -1.000000000000000000 ) ) ;
#88 = DIRECTION ( 'NONE',  ( 0.0000000000000000000, 1.000000000000000000, -0.0000000000000000000 ) ) ;
#89 = DIRECTION ( 'NONE',  ( 0.0000000000000000000, -1.000000000000000000, 0.0000000000000000000 ) ) ;
#90 = CARTESIAN_POINT ( 'NONE',  ( 0.0000000000000000000, 0.0000000000000000000, 0.0000000000000000000 ) ) ;
#91 = CARTESIAN_POINT ( 'NONE',  ( -5.565999999999999800, 0.0000000000000000000, -5.565999999999999800 ) ) ;
#92 = CARTESIAN_POINT ( 'NONE',  ( 0.0000000000000000000, 19.00000000000000000, 0.0000000000000000000 ) ) ;
#93 = DIRECTION ( 'NONE',  ( 0.0000000000000000000, 0.0000000000000000000, 1.000000000000000000 ) ) ;
#94 = DIRECTION ( 'NONE',  ( 0.0000000000000000000, -1.000000000000000000, -0.0000000000000000000 ) ) ;
#95 = CARTESIAN_POINT ( 'NONE',  ( 0.0000000000000000000, 0.0000000000000000000, -5.500000000000000000 ) ) ;
#96 = DIRECTION ( 'NONE',  ( 0.0000000000000000000, -1.000000000000000000, 0.0000000000000000000 ) ) ;
#97 = CARTESIAN_POINT ( 'NONE',  ( 4.881557095000000700, 19.00000000000000000, -4.881557095000000700 ) ) ;
#98 = FILL_AREA_STYLE ('',( #117 ) ) ;
#99 = PLANE ( 'NONE',  #39 ) ;
#100 = DIRECTION ( 'NONE',  ( 0.0000000000000000000, 0.0000000000000000000, 1.000000000000000000 ) ) ;
#101 = DIRECTION ( 'NONE',  ( 0.0000000000000000000, -1.000000000000000000, -0.0000000000000000000 ) ) ;
#102 = DIRECTION ( 'NONE',  ( 0.0000000000000000000, 0.0000000000000000000, 1.000000000000000000 ) ) ;
#103 = DIRECTION ( 'NONE',  ( 0.0000000000000000000, 0.0000000000000000000, -1.000000000000000000 ) ) ;
#104 = CARTESIAN_POINT ( 'NONE',  ( 0.0000000000000000000, 1.000000000000000000, 0.0000000000000000000 ) ) ;
#105 = CARTESIAN_POINT ( 'NONE',  ( 0.0000000000000000000, 19.00000000000000000, 0.0000000000000000000 ) ) ;
#106 = CARTESIAN_POINT ( 'NONE',  ( 0.0000000000000000000, 0.0000000000000000000, 4.500000000000000900 ) ) ;
#107 = DIRECTION ( 'NONE',  ( 0.0000000000000000000, 0.0000000000000000000, 1.000000000000000000 ) ) ;
#108 = CARTESIAN_POINT ( 'NONE',  ( 5.510910596163089600E-016, 0.0000000000000000000, -4.500000000000000900 ) ) ;
#109 = CARTESIAN_POINT ( 'NONE',  ( 0.0000000000000000000, 1.000000000000000000, 0.0000000000000000000 ) ) ;
#110 = DIRECTION ( 'NONE',  ( 0.0000000000000000000, -1.000000000000000000, -0.0000000000000000000 ) ) ;
#111 = DIRECTION ( 'NONE',  ( 0.0000000000000000000, 1.000000000000000000, 0.0000000000000000000 ) ) ;
#112 = DIRECTION ( 'NONE',  ( 0.0000000000000000000, 1.000000000000000000, 0.0000000000000000000 ) ) ;
#113 = DIRECTION ( 'NONE',  ( 0.0000000000000000000, 0.0000000000000000000, 1.000000000000000000 ) ) ;
#114 = DIRECTION ( 'NONE',  ( -0.0000000000000000000, 1.000000000000000000, 0.0000000000000000000 ) ) ;
#115 = CARTESIAN_POINT ( 'NONE',  ( 0.0000000000000000000, 0.0000000000000000000, 0.0000000000000000000 ) ) ;
#116 = DIRECTION ( 'NONE',  ( 0.0000000000000000000, 1.000000000000000000, -0.0000000000000000000 ) ) ;
#117 = FILL_AREA_STYLE_COLOUR ( '', #225 ) ;
#118 = CARTESIAN_POINT ( 'NONE',  ( 5.565999999999999800, 1.000000000000000000, -5.565999999999999800 ) ) ;
#119 = DIRECTION ( 'NONE',  ( -0.0000000000000000000, 1.000000000000000000, 0.0000000000000000000 ) ) ;
#120 = PLANE ( 'NONE',  #59 ) ;
#121 = CARTESIAN_POINT ( 'NONE',  ( 0.0000000000000000000, 0.0000000000000000000, 0.0000000000000000000 ) ) ;
#122 = CARTESIAN_POINT ( 'NONE',  ( 0.0000000000000000000, 0.0000000000000000000, 0.0000000000000000000 ) ) ;
#123 = DIRECTION ( 'NONE',  ( 0.0000000000000000000, 0.0000000000000000000, 1.000000000000000000 ) ) ;
#124 = DIRECTION ( 'NONE',  ( -1.000000000000000000, 0.0000000000000000000, 0.0000000000000000000 ) ) ;
#125 = DIRECTION ( 'NONE',  ( 0.0000000000000000000, 0.0000000000000000000, -1.000000000000000000 ) ) ;
#126 = CARTESIAN_POINT ( 'NONE',  ( 0.0000000000000000000, 19.00000000000000000, 0.0000000000000000000 ) ) ;
#127 = DIRECTION ( 'NONE',  ( 0.0000000000000000000, -1.000000000000000000, 0.0000000000000000000 ) ) ;
#128 = PLANE ( 'NONE',  #42 ) ;
#129 = CARTESIAN_POINT ( 'NONE',  ( 0.0000000000000000000, 1.000000000000000000, 0.0000000000000000000 ) ) ;
#130 = DIRECTION ( 'NONE',  ( 0.0000000000000000000, 0.0000000000000000000, -1.000000000000000000 ) ) ;
#131 = DIRECTION ( 'NONE',  ( -1.000000000000000000, 0.0000000000000000000, 0.0000000000000000000 ) ) ;
#132 = CARTESIAN_POINT ( 'NONE',  ( 0.0000000000000000000, 19.00000000000000000, 0.0000000000000000000 ) ) ;
#133 = DIRECTION ( 'NONE',  ( 0.0000000000000000000, -1.000000000000000000, 0.0000000000000000000 ) ) ;
#134 = DIRECTION ( 'NONE',  ( 0.0000000000000000000, -1.000000000000000000, 0.0000000000000000000 ) ) ;
#135 = DIRECTION ( 'NONE',  ( 0.0000000000000000000, 0.0000000000000000000, 1.000000000000000000 ) ) ;
#136 = CARTESIAN_POINT ( 'NONE',  ( 0.0000000000000000000, 1.000000000000000000, 0.0000000000000000000 ) ) ;
#137 = CARTESIAN_POINT ( 'NONE',  ( 0.0000000000000000000, 1.000000000000000000, 0.0000000000000000000 ) ) ;
#138 = DIRECTION ( 'NONE',  ( 0.0000000000000000000, 0.0000000000000000000, -1.000000000000000000 ) ) ;
#139 = DIRECTION ( 'NONE',  ( 0.0000000000000000000, 0.0000000000000000000, -1.000000000000000000 ) ) ;
#140 = DIRECTION ( 'NONE',  ( 0.0000000000000000000, -1.000000000000000000, 0.0000000000000000000 ) ) ;
#141 = DIRECTION ( 'NONE',  ( 0.0000000000000000000, 0.0000000000000000000, 1.000000000000000000 ) ) ;
#142 = CARTESIAN_POINT ( 'NONE',  ( 0.0000000000000000000, 1.000000000000000000, 5.000000000000000000 ) ) ;
#143 = CARTESIAN_POINT ( 'NONE',  ( 6.735557395310442000E-016, 1.000000000000000000, 5.500000000000000000 ) ) ;
#144 = DIRECTION ( 'NONE',  ( 0.0000000000000000000, -1.000000000000000000, 0.0000000000000000000 ) ) ;
#145 = DIRECTION ( 'NONE',  ( 0.0000000000000000000, 1.000000000000000000, 0.0000000000000000000 ) ) ;
#146 = CARTESIAN_POINT ( 'NONE',  ( 0.0000000000000000000, 0.0000000000000000000, 4.500000000000000900 ) ) ;
#147 = DIRECTION ( 'NONE',  ( 0.0000000000000000000, 1.000000000000000000, 0.0000000000000000000 ) ) ;
#148 = CARTESIAN_POINT ( 'NONE',  ( 5.510910596163089600E-016, 0.0000000000000000000, -4.500000000000000900 ) ) ;
#149 = DIRECTION ( 'NONE',  ( -0.0000000000000000000, 1.000000000000000000, -0.0000000000000000000 ) ) ;
#150 = DIRECTION ( 'NONE',  ( -0.0000000000000000000, 1.000000000000000000, -0.0000000000000000000 ) ) ;
#151 = CARTESIAN_POINT ( 'NONE',  ( 0.0000000000000000000, 1.000000000000000000, 0.0000000000000000000 ) ) ;
#152 = DIRECTION ( 'NONE',  ( 0.0000000000000000000, -1.000000000000000000, -0.0000000000000000000 ) ) ;
#153 = DIRECTION ( 'NONE',  ( 0.0000000000000000000, -1.000000000000000000, 0.0000000000000000000 ) ) ;
#154 = CARTESIAN_POINT ( 'NONE',  ( 6.123233995736766300E-016, 1.000000000000000000, -5.000000000000000000 ) ) ;
#155 = DIRECTION ( 'NONE',  ( 0.0000000000000000000, 0.0000000000000000000, 1.000000000000000000 ) ) ;
#156 = DIRECTION ( 'NONE',  ( 0.0000000000000000000, 0.0000000000000000000, -1.000000000000000000 ) ) ;
#157 = CARTESIAN_POINT ( 'NONE',  ( 0.0000000000000000000, 18.99999999999990800, 0.0000000000000000000 ) ) ;
#158 = DIRECTION ( 'NONE',  ( -0.0000000000000000000, 1.000000000000000000, -0.0000000000000000000 ) ) ;
#159 = DIRECTION ( 'NONE',  ( 0.0000000000000000000, 0.0000000000000000000, -1.000000000000000000 ) ) ;
#160 = DIRECTION ( 'NONE',  ( -0.0000000000000000000, -1.000000000000000000, -0.0000000000000000000 ) ) ;
#161 = CARTESIAN_POINT ( 'NONE',  ( 0.0000000000000000000, 18.00000000000001400, 0.0000000000000000000 ) ) ;
#162 = DIRECTION ( 'NONE',  ( 0.0000000000000000000, -1.000000000000000000, 0.0000000000000000000 ) ) ;
#163 = DIRECTION ( 'NONE',  ( 0.0000000000000000000, -2.775557561562891400E-015, -1.000000000000000000 ) ) ;
#164 = CARTESIAN_POINT ( 'NONE',  ( 0.0000000000000000000, 18.00000000000001400, 0.0000000000000000000 ) ) ;
#165 = DIRECTION ( 'NONE',  ( -0.0000000000000000000, 1.000000000000000000, 0.0000000000000000000 ) ) ;
#166 = DIRECTION ( 'NONE',  ( 1.000000000000000000, 0.0000000000000000000, 0.0000000000000000000 ) ) ;
#167 = DIRECTION ( 'NONE',  ( 0.0000000000000000000, -2.775557561562891400E-015, -1.000000000000000000 ) ) ;
#168 = DIRECTION ( 'NONE',  ( -0.0000000000000000000, 1.000000000000000000, 0.0000000000000000000 ) ) ;
#169 = DIRECTION ( 'NONE',  ( 0.0000000000000000000, 0.0000000000000000000, 1.000000000000000000 ) ) ;
#170 = DIRECTION ( 'NONE',  ( 0.0000000000000000000, -0.9848077529631100700, -0.1736481779453795100 ) ) ;
#171 = APPLICATION_PROTOCOL_DEFINITION ( 'draft international standard', 'automotive_design', 1998, #172 ) ;
#172 = APPLICATION_CONTEXT ( 'automotive_design' ) ;
#173 = CARTESIAN_POINT ( 'NONE',  ( 0.0000000000000000000, 1.000000000000000000, 0.0000000000000000000 ) ) ;
#174 = CARTESIAN_POINT ( 'NONE',  ( 0.0000000000000000000, 1.000000000000000000, 0.0000000000000000000 ) ) ;
#175 = PRODUCT_CONTEXT ( 'NONE', #189, 'mechanical' ) ;
#176 = DIRECTION ( 'NONE',  ( 1.000000000000000000, 0.0000000000000000000, 0.0000000000000000000 ) ) ;
#177 = DIRECTION ( 'NONE',  ( 0.0000000000000000000, 0.0000000000000000000, -1.000000000000000000 ) ) ;
#178 = CARTESIAN_POINT ( 'NONE',  ( 0.0000000000000000000, 18.99999999999990800, 0.0000000000000000000 ) ) ;
#179 = DIRECTION ( 'NONE',  ( 0.0000000000000000000, 0.0000000000000000000, 1.000000000000000000 ) ) ;
#180 = DIRECTION ( 'NONE',  ( 2.126576852985790500E-017, -0.9848077529631100700, 0.1736481779453795100 ) ) ;
#181 = CARTESIAN_POINT ( 'NONE',  ( 0.0000000000000000000, 19.00000000000000000, -4.823673019000000100 ) ) ;
#182 = DIRECTION ( 'NONE',  ( 0.0000000000000000000, 0.0000000000000000000, -1.000000000000000000 ) ) ;
#183 =( NAMED_UNIT ( * ) SI_UNIT ( $, .STERADIAN. ) SOLID_ANGLE_UNIT ( ) );
#184 =( NAMED_UNIT ( * ) PLANE_ANGLE_UNIT ( ) SI_UNIT ( $, .RADIAN. ) );
#185 =( LENGTH_UNIT ( ) NAMED_UNIT ( * ) SI_UNIT ( .MILLI., .METRE. ) );
#186 = SURFACE_STYLE_USAGE ( .BOTH. , #187 ) ;
#187 = SURFACE_SIDE_STYLE ('',( #214 ) ) ;
#188 = FILL_AREA_STYLE ('',( #194 ) ) ;
#189 = APPLICATION_CONTEXT ( 'automotive_design' ) ;
#190 = APPLICATION_PROTOCOL_DEFINITION ( 'draft international standard', 'automotive_design', 1998, #189 ) ;
#191 =( NAMED_UNIT ( * ) SI_UNIT ( $, .STERADIAN. ) SOLID_ANGLE_UNIT ( ) );
#192 =( NAMED_UNIT ( * ) PLANE_ANGLE_UNIT ( ) SI_UNIT ( $, .RADIAN. ) );
#193 =( LENGTH_UNIT ( ) NAMED_UNIT ( * ) SI_UNIT ( .MILLI., .METRE. ) );
#194 = FILL_AREA_STYLE_COLOUR ( '', #219 ) ;
#195 = CARTESIAN_POINT ( 'NONE',  ( 0.0000000000000000000, 1.000000000000000000, 5.000000000000000000 ) ) ;
#196 = CARTESIAN_POINT ( 'NONE',  ( 0.0000000000000000000, 0.0000000000000000000, 0.0000000000000000000 ) ) ;
#197 = CARTESIAN_POINT ( 'NONE',  ( 6.735557395310442000E-016, 0.0000000000000000000, 5.500000000000000000 ) ) ;
#198 = CARTESIAN_POINT ( 'NONE',  ( 0.0000000000000000000, 18.99999999999990800, -4.823673019000016100 ) ) ;
#199 = CARTESIAN_POINT ( 'NONE',  ( 5.907295722851799800E-016, 19.00000000000000000, 4.823673019000000100 ) ) ;
#200 = CARTESIAN_POINT ( 'NONE',  ( 0.0000000000000000000, 1.000000000000000000, -5.500000000000000000 ) ) ;
#201 = CARTESIAN_POINT ( 'NONE',  ( 0.0000000000000000000, 18.00000000000001400, 5.000000000000000000 ) ) ;
#202 = CARTESIAN_POINT ( 'NONE',  ( 0.0000000000000000000, 0.0000000000000000000, 0.0000000000000000000 ) ) ;
#203 = CARTESIAN_POINT ( 'NONE',  ( 6.123233995736766300E-016, 1.000000000000000000, -5.000000000000000000 ) ) ;
#204 = CARTESIAN_POINT ( 'NONE',  ( 0.0000000000000000000, 19.00000000000000000, 4.500000000000000900 ) ) ;
#205 = CARTESIAN_POINT ( 'NONE',  ( 6.735557395310442000E-016, 1.000000000000000000, 5.500000000000000000 ) ) ;
#206 = CARTESIAN_POINT ( 'NONE',  ( 5.510910596163089600E-016, 19.00000000000000000, -4.500000000000000900 ) ) ;
#207 = CARTESIAN_POINT ( 'NONE',  ( 6.123233995736766300E-016, 18.00000000000001400, -5.000000000000000000 ) ) ;
#208 = CARTESIAN_POINT ( 'NONE',  ( 6.015264859294292900E-016, 18.99999999999990800, 4.823673019000016100 ) ) ;
#209 = DIRECTION ( 'NONE',  ( 0.0000000000000000000, -1.000000000000000000, 0.0000000000000000000 ) ) ;
#210 = CARTESIAN_POINT ( 'NONE',  ( 0.0000000000000000000, 0.0000000000000000000, 0.0000000000000000000 ) ) ;
#211 = DIRECTION ( 'NONE',  ( 0.0000000000000000000, -1.000000000000000000, 0.0000000000000000000 ) ) ;
#212 = DIRECTION ( 'NONE',  ( -0.0000000000000000000, -1.000000000000000000, -0.0000000000000000000 ) ) ;
#213 = ORIENTED_EDGE ( 'NONE', *, *, #64, .F. ) ;
#214 = SURFACE_STYLE_FILL_AREA ( #188 ) ;
#215 = PRESENTATION_STYLE_ASSIGNMENT (( #186 ) ) ;
#216 = PRESENTATION_STYLE_ASSIGNMENT (( #84 ) ) ;
#217 = SURFACE_STYLE_FILL_AREA ( #98 ) ;
#218 = SHAPE_DEFINITION_REPRESENTATION ( #74, #76 ) ;
#219 = COLOUR_RGB ( '',1.000000000000000000, 1.000000000000000000, 0.5019607843137254800 ) ;
#220 = CIRCLE ( 'NONE', #14, 5.500000000000000000 ) ;
#221 = VECTOR ( 'NONE', #147, 1000.000000000000000 ) ;
#222 = CIRCLE ( 'NONE', #18, 4.500000000000000900 ) ;
#223 = LINE ( 'NONE', #142, #221 ) ;
#224 = VECTOR ( 'NONE', #140, 1000.000000000000000 ) ;
#225 = COLOUR_RGB ( '',1.000000000000000000, 1.000000000000000000, 0.5019607843137254800 ) ;
#226 = VECTOR ( 'NONE', #145, 1000.000000000000000 ) ;
#227 = LINE ( 'NONE', #143, #224 ) ;
#228 = VECTOR ( 'NONE', #165, 1000.000000000000000 ) ;
#229 = CIRCLE ( 'NONE', #63, 4.500000000000000900 ) ;
#230 = CLOSED_SHELL ( 'NONE', ( #6, #3, #8, #2, #10, #9, #1, #5, #4, #11, #7 ) ) ;
#231 = LINE ( 'NONE', #148, #228 ) ;
#232 = LINE ( 'NONE', #154, #226 ) ;
#233 = VECTOR ( 'NONE', #170, 999.9999999999998900 ) ;
#234 = CIRCLE ( 'NONE', #60, 4.500000000000000900 ) ;
#235 = LINE ( 'NONE', #181, #233 ) ;
#236 = ORIENTED_EDGE ( 'NONE', *, *, #30, .F. ) ;
#237 = CIRCLE ( 'NONE', #62, 5.000000000000000000 ) ;
#238 = VECTOR ( 'NONE', #180, 999.9999999999998900 ) ;
#239 = CIRCLE ( 'NONE', #61, 5.000000000000000000 ) ;
#240 = CIRCLE ( 'NONE', #23, 4.823673019000016100 ) ;
#241 = VECTOR ( 'NONE', #211, 1000.000000000000000 ) ;
#242 = LINE ( 'NONE', #199, #238 ) ;
#243 = CIRCLE ( 'NONE', #24, 5.500000000000000000 ) ;
#244 = LINE ( 'NONE', #86, #241 ) ;
#245 = CIRCLE ( 'NONE', #44, 5.000000000000000000 ) ;
#246 = VECTOR ( 'NONE', #168, 1000.000000000000000 ) ;
#247 = CIRCLE ( 'NONE', #20, 5.000000000000000000 ) ;
#248 = CIRCLE ( 'NONE', #43, 4.823673019000016100 ) ;
#249 = CONICAL_SURFACE ( 'NONE', #36, 4.823673019000000100, 0.1745329254821776400 ) ;
#250 = CIRCLE ( 'NONE', #55, 4.500000000000000900 ) ;
#251 = CIRCLE ( 'NONE', #40, 5.500000000000000000 ) ;
#252 = LINE ( 'NONE', #146, #246 ) ;
#253 = CIRCLE ( 'NONE', #22, 5.500000000000000000 ) ;
#254 = FACE_OUTER_BOUND ( 'NONE', #284, .T. ) ;
#255 = CYLINDRICAL_SURFACE ( 'NONE', #37, 4.500000000000000900 ) ;
#256 = FACE_OUTER_BOUND ( 'NONE', #279, .T. ) ;
#257 = CONICAL_SURFACE ( 'NONE', #58, 4.823673019000000100, 0.1745329254821776400 ) ;
#258 = FACE_OUTER_BOUND ( 'NONE', #286, .T. ) ;
#259 = FACE_BOUND ( 'NONE', #275, .T. ) ;
#260 = FACE_BOUND ( 'NONE', #282, .T. ) ;
#261 = CYLINDRICAL_SURFACE ( 'NONE', #54, 4.500000000000000900 ) ;
#262 = FACE_OUTER_BOUND ( 'NONE', #280, .T. ) ;
#263 = FACE_OUTER_BOUND ( 'NONE', #281, .T. ) ;
#264 = FACE_OUTER_BOUND ( 'NONE', #287, .T. ) ;
#265 = CYLINDRICAL_SURFACE ( 'NONE', #57, 5.000000000000000000 ) ;
#266 = CYLINDRICAL_SURFACE ( 'NONE', #38, 5.500000000000000000 ) ;
#267 = CYLINDRICAL_SURFACE ( 'NONE', #35, 5.500000000000000000 ) ;
#268 = FACE_BOUND ( 'NONE', #278, .T. ) ;
#269 = CYLINDRICAL_SURFACE ( 'NONE', #53, 5.000000000000000000 ) ;
#270 = FACE_OUTER_BOUND ( 'NONE', #276, .T. ) ;
#271 = FACE_OUTER_BOUND ( 'NONE', #274, .T. ) ;
#272 = FACE_OUTER_BOUND ( 'NONE', #277, .T. ) ;
#273 = FACE_OUTER_BOUND ( 'NONE', #283, .T. ) ;
#274 = EDGE_LOOP ( 'NONE', ( #314, #338, #311, #344 ) ) ;
#275 = EDGE_LOOP ( 'NONE', ( #301, #302 ) ) ;
#276 = EDGE_LOOP ( 'NONE', ( #313, #343, #325, #335 ) ) ;
#277 = EDGE_LOOP ( 'NONE', ( #339, #340, #312, #309 ) ) ;
#278 = EDGE_LOOP ( 'NONE', ( #304, #308 ) ) ;
#279 = EDGE_LOOP ( 'NONE', ( #306, #303 ) ) ;
#280 = EDGE_LOOP ( 'NONE', ( #321, #305, #331, #213 ) ) ;
#281 = EDGE_LOOP ( 'NONE', ( #310, #318, #315, #326 ) ) ;
#282 = EDGE_LOOP ( 'NONE', ( #342, #307 ) ) ;
#283 = EDGE_LOOP ( 'NONE', ( #337, #236, #323, #316 ) ) ;
#284 = EDGE_LOOP ( 'NONE', ( #332, #317 ) ) ;
#285 = EDGE_LOOP ( 'NONE', ( #327, #336, #333, #341 ) ) ;
#286 = EDGE_LOOP ( 'NONE', ( #320, #322, #330, #329 ) ) ;
#287 = EDGE_LOOP ( 'NONE', ( #319, #324 ) ) ;
#288 = VERTEX_POINT ( 'NONE', #95 ) ;
#289 = VERTEX_POINT ( 'NONE', #108 ) ;
#290 = VERTEX_POINT ( 'NONE', #207 ) ;
#291 = VERTEX_POINT ( 'NONE', #198 ) ;
#292 = VERTEX_POINT ( 'NONE', #206 ) ;
#293 = VERTEX_POINT ( 'NONE', #208 ) ;
#294 = VERTEX_POINT ( 'NONE', #205 ) ;
#295 = VERTEX_POINT ( 'NONE', #106 ) ;
#296 = VERTEX_POINT ( 'NONE', #204 ) ;
#297 = VERTEX_POINT ( 'NONE', #203 ) ;
#298 = VERTEX_POINT ( 'NONE', #201 ) ;
#299 = VERTEX_POINT ( 'NONE', #200 ) ;
#300 = VERTEX_POINT ( 'NONE', #197 ) ;
#301 = ORIENTED_EDGE ( 'NONE', *, *, #50, .F. ) ;
#302 = ORIENTED_EDGE ( 'NONE', *, *, #33, .F. ) ;
#303 = ORIENTED_EDGE ( 'NONE', *, *, #64, .T. ) ;
#304 = ORIENTED_EDGE ( 'NONE', *, *, #30, .T. ) ;
#305 = ORIENTED_EDGE ( 'NONE', *, *, #13, .F. ) ;
#306 = ORIENTED_EDGE ( 'NONE', *, *, #26, .T. ) ;
#307 = ORIENTED_EDGE ( 'NONE', *, *, #15, .T. ) ;
#308 = ORIENTED_EDGE ( 'NONE', *, *, #21, .T. ) ;
#309 = ORIENTED_EDGE ( 'NONE', *, *, #25, .F. ) ;
#310 = ORIENTED_EDGE ( 'NONE', *, *, #27, .F. ) ;
#311 = ORIENTED_EDGE ( 'NONE', *, *, #32, .F. ) ;
#312 = ORIENTED_EDGE ( 'NONE', *, *, #26, .F. ) ;
#313 = ORIENTED_EDGE ( 'NONE', *, *, #21, .F. ) ;
#314 = ORIENTED_EDGE ( 'NONE', *, *, #29, .F. ) ;
#315 = ORIENTED_EDGE ( 'NONE', *, *, #31, .T. ) ;
#316 = ORIENTED_EDGE ( 'NONE', *, *, #19, .T. ) ;
#317 = ORIENTED_EDGE ( 'NONE', *, *, #29, .T. ) ;
#318 = ORIENTED_EDGE ( 'NONE', *, *, #17, .F. ) ;
#319 = ORIENTED_EDGE ( 'NONE', *, *, #13, .T. ) ;
#320 = ORIENTED_EDGE ( 'NONE', *, *, #50, .T. ) ;
#321 = ORIENTED_EDGE ( 'NONE', *, *, #49, .F. ) ;
#322 = ORIENTED_EDGE ( 'NONE', *, *, #45, .T. ) ;
#323 = ORIENTED_EDGE ( 'NONE', *, *, #51, .T. ) ;
#324 = ORIENTED_EDGE ( 'NONE', *, *, #12, .T. ) ;
#325 = ORIENTED_EDGE ( 'NONE', *, *, #32, .T. ) ;
#326 = ORIENTED_EDGE ( 'NONE', *, *, #19, .F. ) ;
#327 = ORIENTED_EDGE ( 'NONE', *, *, #45, .F. ) ;
#328 = VERTEX_POINT ( 'NONE', #195 ) ;
#329 = ORIENTED_EDGE ( 'NONE', *, *, #16, .F. ) ;
#330 = ORIENTED_EDGE ( 'NONE', *, *, #52, .F. ) ;
#331 = ORIENTED_EDGE ( 'NONE', *, *, #25, .T. ) ;
#332 = ORIENTED_EDGE ( 'NONE', *, *, #17, .T. ) ;
#333 = ORIENTED_EDGE ( 'NONE', *, *, #16, .T. ) ;
#334 = FACE_OUTER_BOUND ( 'NONE', #285, .T. ) ;
#335 = ORIENTED_EDGE ( 'NONE', *, *, #51, .F. ) ;
#336 = ORIENTED_EDGE ( 'NONE', *, *, #33, .T. ) ;
#337 = ORIENTED_EDGE ( 'NONE', *, *, #48, .F. ) ;
#338 = ORIENTED_EDGE ( 'NONE', *, *, #27, .T. ) ;
#339 = ORIENTED_EDGE ( 'NONE', *, *, #12, .F. ) ;
#340 = ORIENTED_EDGE ( 'NONE', *, *, #49, .T. ) ;
#341 = ORIENTED_EDGE ( 'NONE', *, *, #15, .F. ) ;
#342 = ORIENTED_EDGE ( 'NONE', *, *, #52, .T. ) ;
#343 = ORIENTED_EDGE ( 'NONE', *, *, #48, .T. ) ;
#344 = ORIENTED_EDGE ( 'NONE', *, *, #31, .F. ) ;
ENDSEC;
END-ISO-10303-21;
