ISO-10303-21;
HEADER;
FILE_DESCRIPTION (( 'STEP AP214' ),
    '1' );
FILE_NAME ('1077000011E00A.STEP',
    '2013-02-25T17:28:52',
    ( '' ),
    ( '' ),
    'SwSTEP 2.0',
    'SolidWorks 2012',
    '' );
FILE_SCHEMA (( 'AUTOMOTIVE_DESIGN' ));
ENDSEC;

DATA;
#1 = ADVANCED_FACE ( 'NONE', ( #270 ), #266, .T. ) ;
#2 = ADVANCED_FACE ( 'NONE', ( #269 ), #264, .T. ) ;
#3 = ADVANCED_FACE ( 'NONE', ( #267 ), #260, .T. ) ;
#4 = ADVANCED_FACE ( 'NONE', ( #265, #268 ), #189, .T. ) ;
#5 = ADVANCED_FACE ( 'NONE', ( #329 ), #258, .F. ) ;
#6 = ADVANCED_FACE ( 'NONE', ( #262 ), #256, .T. ) ;
#7 = ADVANCED_FACE ( 'NONE', ( #259, #255 ), #172, .T. ) ;
#8 = ADVANCED_FACE ( 'NONE', ( #263 ), #252, .F. ) ;
#9 = ADVANCED_FACE ( 'NONE', ( #261 ), #250, .T. ) ;
#10 = ADVANCED_FACE ( 'NONE', ( #253 ), #246, .T. ) ;
#11 = ADVANCED_FACE ( 'NONE', ( #251, #257 ), #120, .T. ) ;
#12 = AXIS2_PLACEMENT_3D ( 'NONE', #148, #169, #164 ) ;
#13 = AXIS2_PLACEMENT_3D ( 'NONE', #168, #167, #152 ) ;
#14 = EDGE_CURVE ( 'NONE', #295, #298, #248, .T. ) ;
#15 = PRESENTATION_LAYER_ASSIGNMENT (  '', '', ( #21 ) ) ;
#16 = EDGE_CURVE ( 'NONE', #286, #292, #254, .T. ) ;
#17 = EDGE_CURVE ( 'NONE', #297, #289, #249, .T. ) ;
#18 = EDGE_CURVE ( 'NONE', #295, #294, #247, .T. ) ;
#19 = EDGE_CURVE ( 'NONE', #290, #291, #244, .T. ) ;
#20 = EDGE_CURVE ( 'NONE', #298, #293, #242, .T. ) ;
#21 = STYLED_ITEM ( 'NONE', ( #215 ), #77 ) ;
#22 = EDGE_CURVE ( 'NONE', #286, #297, #239, .T. ) ;
#23 = EDGE_CURVE ( 'NONE', #292, #289, #240, .T. ) ;
#24 = EDGE_CURVE ( 'NONE', #213, #287, #237, .T. ) ;
#25 = EDGE_CURVE ( 'NONE', #294, #293, #236, .T. ) ;
#26 = EDGE_CURVE ( 'NONE', #289, #292, #235, .T. ) ;
#27 = AXIS2_PLACEMENT_3D ( 'NONE', #161, #160, #159 ) ;
#28 = EDGE_CURVE ( 'NONE', #293, #294, #233, .T. ) ;
#29 = AXIS2_PLACEMENT_3D ( 'NONE', #146, #143, #139 ) ;
#30 = AXIS2_PLACEMENT_3D ( 'NONE', #151, #150, #149 ) ;
#31 = EDGE_CURVE ( 'NONE', #291, #290, #232, .T. ) ;
#32 = EDGE_CURVE ( 'NONE', #296, #288, #231, .T. ) ;
#33 = AXIS2_PLACEMENT_3D ( 'NONE', #157, #156, #155 ) ;
#34 = EDGE_CURVE ( 'NONE', #287, #296, #234, .T. ) ;
#35 = EDGE_CURVE ( 'NONE', #288, #296, #230, .T. ) ;
#36 = EDGE_CURVE ( 'NONE', #287, #213, #229, .T. ) ;
#37 = EDGE_CURVE ( 'NONE', #213, #288, #226, .T. ) ;
#38 = AXIS2_PLACEMENT_3D ( 'NONE', #203, #198, #211 ) ;
#39 = EDGE_CURVE ( 'NONE', #298, #295, #227, .T. ) ;
#40 = AXIS2_PLACEMENT_3D ( 'NONE', #204, #197, #205 ) ;
#41 = AXIS2_PLACEMENT_3D ( 'NONE', #177, #173, #183 ) ;
#42 = AXIS2_PLACEMENT_3D ( 'NONE', #188, #187, #186 ) ;
#43 = AXIS2_PLACEMENT_3D ( 'NONE', #196, #193, #185 ) ;
#44 = AXIS2_PLACEMENT_3D ( 'NONE', #180, #194, #184 ) ;
#45 = AXIS2_PLACEMENT_3D ( 'NONE', #192, #191, #190 ) ;
#46 = AXIS2_PLACEMENT_3D ( 'NONE', #142, #141, #145 ) ;
#47 = EDGE_CURVE ( 'NONE', #297, #286, #221, .T. ) ;
#48 = EDGE_CURVE ( 'NONE', #291, #288, #220, .T. ) ;
#49 = EDGE_CURVE ( 'NONE', #290, #296, #219, .T. ) ;
#50 = AXIS2_PLACEMENT_3D ( 'NONE', #178, #176, #175 ) ;
#51 = AXIS2_PLACEMENT_3D ( 'NONE', #174, #171, #170 ) ;
#52 = AXIS2_PLACEMENT_3D ( 'NONE', #182, #181, #179 ) ;
#53 = AXIS2_PLACEMENT_3D ( 'NONE', #200, #199, #195 ) ;
#54 = AXIS2_PLACEMENT_3D ( 'NONE', #202, #80, #209 ) ;
#55 = AXIS2_PLACEMENT_3D ( 'NONE', #138, #137, #115 ) ;
#56 = AXIS2_PLACEMENT_3D ( 'NONE', #140, #144, #147 ) ;
#57 =( GEOMETRIC_REPRESENTATION_CONTEXT ( 3 ) GLOBAL_UNCERTAINTY_ASSIGNED_CONTEXT ( ( #76 ) ) GLOBAL_UNIT_ASSIGNED_CONTEXT ( ( #117, #116, #114 ) ) REPRESENTATION_CONTEXT ( 'NONE', 'WORKASPACE' ) );
#58 = AXIS2_PLACEMENT_3D ( 'NONE', #129, #128, #127 ) ;
#59 = AXIS2_PLACEMENT_3D ( 'NONE', #134, #133, #132 ) ;
#60 = PRODUCT_RELATED_PRODUCT_CATEGORY ( 'part', '', ( #72 ) ) ;
#61 = PRODUCT_DEFINITION_FORMATION_WITH_SPECIFIED_SOURCE ( 'TUTTO', '', #72, .NOT_KNOWN. ) ;
#62 = PRODUCT_DEFINITION ( 'NON CONOSCIUTO', '', #61, #74 ) ;
#63 = AXIS2_PLACEMENT_3D ( 'NONE', #100, #86, #85 ) ;
#64 =( GEOMETRIC_REPRESENTATION_CONTEXT ( 3 ) GLOBAL_UNCERTAINTY_ASSIGNED_CONTEXT ( ( #75 ) ) GLOBAL_UNIT_ASSIGNED_CONTEXT ( ( #90, #89, #88 ) ) REPRESENTATION_CONTEXT ( 'NONE', 'WORKASPACE' ) );
#65 = AXIS2_PLACEMENT_3D ( 'NONE', #99, #212, #210 ) ;
#66 = MECHANICAL_DESIGN_GEOMETRIC_PRESENTATION_REPRESENTATION (  '', ( #68 ), #64 ) ;
#67 = PRESENTATION_LAYER_ASSIGNMENT (  '', '', ( #68 ) ) ;
#68 = STYLED_ITEM ( 'NONE', ( #224 ), #79 ) ;
#69 = MECHANICAL_DESIGN_GEOMETRIC_PRESENTATION_REPRESENTATION (  '', ( #21 ), #57 ) ;
#70 = AXIS2_PLACEMENT_3D ( 'NONE', #166, #165, #163 ) ;
#71 =( GEOMETRIC_REPRESENTATION_CONTEXT ( 3 ) GLOBAL_UNCERTAINTY_ASSIGNED_CONTEXT ( ( #78 ) ) GLOBAL_UNIT_ASSIGNED_CONTEXT ( ( #98, #97, #96 ) ) REPRESENTATION_CONTEXT ( 'NONE', 'WORKASPACE' ) );
#72 = PRODUCT ( '1077000011E00A', '1077000011E00A', '', ( #84 ) ) ;
#73 = PRODUCT_DEFINITION_SHAPE ( 'NONE', 'NONE',  #62 ) ;
#74 = PRODUCT_DEFINITION_CONTEXT ( 'detailed design', #83, 'design' ) ;
#75 = UNCERTAINTY_MEASURE_WITH_UNIT (LENGTH_MEASURE( 1.000000000000000100E-005 ), #90, 'distance_accuracy_value', 'NONE');
#76 = UNCERTAINTY_MEASURE_WITH_UNIT (LENGTH_MEASURE( 1.000000000000000100E-005 ), #117, 'distance_accuracy_value', 'NONE');
#77 = MANIFOLD_SOLID_BREP ( 'Importato1', #334 ) ;
#78 = UNCERTAINTY_MEASURE_WITH_UNIT (LENGTH_MEASURE( 1.000000000000000100E-005 ), #98, 'distance_accuracy_value', 'NONE');
#79 = ADVANCED_BREP_SHAPE_REPRESENTATION ( '1077000011E00A', ( #77, #63 ), #71 ) ;
#80 = DIRECTION ( 'NONE',  ( 0.0000000000000000000, -1.000000000000000000, -0.0000000000000000000 ) ) ;
#81 = APPLICATION_PROTOCOL_DEFINITION ( 'draft international standard', 'automotive_design', 1998, #83 ) ;
#82 = CARTESIAN_POINT ( 'NONE',  ( 8.572527594031473200E-016, 1.000000000000000000, 7.000000000000000000 ) ) ;
#83 = APPLICATION_CONTEXT ( 'automotive_design' ) ;
#84 = PRODUCT_CONTEXT ( 'NONE', #94, 'mechanical' ) ;
#85 = DIRECTION ( 'NONE',  ( 1.000000000000000000, 0.0000000000000000000, 0.0000000000000000000 ) ) ;
#86 = DIRECTION ( 'NONE',  ( 0.0000000000000000000, 0.0000000000000000000, 1.000000000000000000 ) ) ;
#87 = CARTESIAN_POINT ( 'NONE',  ( 0.0000000000000000000, 1.000000000000000000, -7.000000000000000000 ) ) ;
#88 =( NAMED_UNIT ( * ) SI_UNIT ( $, .STERADIAN. ) SOLID_ANGLE_UNIT ( ) );
#89 =( NAMED_UNIT ( * ) PLANE_ANGLE_UNIT ( ) SI_UNIT ( $, .RADIAN. ) );
#90 =( LENGTH_UNIT ( ) NAMED_UNIT ( * ) SI_UNIT ( .MILLI., .METRE. ) );
#91 = SURFACE_STYLE_USAGE ( .BOTH. , #92 ) ;
#92 = SURFACE_SIDE_STYLE ('',( #272 ) ) ;
#93 = FILL_AREA_STYLE ('',( #101 ) ) ;
#94 = APPLICATION_CONTEXT ( 'automotive_design' ) ;
#95 = APPLICATION_PROTOCOL_DEFINITION ( 'draft international standard', 'automotive_design', 1998, #94 ) ;
#96 =( NAMED_UNIT ( * ) SI_UNIT ( $, .STERADIAN. ) SOLID_ANGLE_UNIT ( ) );
#97 =( NAMED_UNIT ( * ) PLANE_ANGLE_UNIT ( ) SI_UNIT ( $, .RADIAN. ) );
#98 =( LENGTH_UNIT ( ) NAMED_UNIT ( * ) SI_UNIT ( .MILLI., .METRE. ) );
#99 = CARTESIAN_POINT ( 'NONE',  ( 0.0000000000000000000, 1.000000000000000000, 0.0000000000000000000 ) ) ;
#100 = CARTESIAN_POINT ( 'NONE',  ( 0.0000000000000000000, 0.0000000000000000000, 0.0000000000000000000 ) ) ;
#101 = FILL_AREA_STYLE_COLOUR ( '', #223 ) ;
#102 = CARTESIAN_POINT ( 'NONE',  ( 7.041719095097280900E-016, 0.0000000000000000000, -5.750000000000000000 ) ) ;
#103 = CARTESIAN_POINT ( 'NONE',  ( 0.0000000000000000000, 1.000000000000000000, -7.000000000000000000 ) ) ;
#104 = CARTESIAN_POINT ( 'NONE',  ( 0.0000000000000000000, 20.00000000000001800, 6.250000000000000000 ) ) ;
#105 = CARTESIAN_POINT ( 'NONE',  ( 0.0000000000000000000, 0.0000000000000000000, 5.750000000000000000 ) ) ;
#106 = CARTESIAN_POINT ( 'NONE',  ( 0.0000000000000000000, 21.00000000000000000, 5.750000000000000000 ) ) ;
#107 = CARTESIAN_POINT ( 'NONE',  ( 7.041719095097280900E-016, 21.00000000000000000, -5.750000000000000000 ) ) ;
#108 = CARTESIAN_POINT ( 'NONE',  ( 7.654042494670957600E-016, 1.000000000000000000, -6.250000000000000000 ) ) ;
#109 = CARTESIAN_POINT ( 'NONE',  ( 0.0000000000000000000, 1.000000000000000000, 6.250000000000000000 ) ) ;
#110 = CARTESIAN_POINT ( 'NONE',  ( 7.654042494670957600E-016, 20.00000000000001800, -6.250000000000000000 ) ) ;
#111 = CARTESIAN_POINT ( 'NONE',  ( 8.572527594031473200E-016, 1.000000000000000000, 7.000000000000000000 ) ) ;
#112 = DIRECTION ( 'NONE',  ( 0.0000000000000000000, -1.000000000000000000, 0.0000000000000000000 ) ) ;
#113 = CARTESIAN_POINT ( 'NONE',  ( 8.572527594031473200E-016, 0.0000000000000000000, 7.000000000000000000 ) ) ;
#114 =( NAMED_UNIT ( * ) SI_UNIT ( $, .STERADIAN. ) SOLID_ANGLE_UNIT ( ) );
#115 = DIRECTION ( 'NONE',  ( 1.000000000000000000, 0.0000000000000000000, 0.0000000000000000000 ) ) ;
#116 =( NAMED_UNIT ( * ) PLANE_ANGLE_UNIT ( ) SI_UNIT ( $, .RADIAN. ) );
#117 =( LENGTH_UNIT ( ) NAMED_UNIT ( * ) SI_UNIT ( .MILLI., .METRE. ) );
#118 = SURFACE_STYLE_USAGE ( .BOTH. , #121 ) ;
#119 = CARTESIAN_POINT ( 'NONE',  ( 0.0000000000000000000, 0.0000000000000000000, 5.750000000000000000 ) ) ;
#120 = PLANE ( 'NONE',  #55 ) ;
#121 = SURFACE_SIDE_STYLE ('',( #225 ) ) ;
#122 = FILL_AREA_STYLE ('',( #131 ) ) ;
#123 = CARTESIAN_POINT ( 'NONE',  ( 7.546073358228485200E-016, 20.99999999999990800, 6.073673019000017900 ) ) ;
#124 = DIRECTION ( 'NONE',  ( -0.0000000000000000000, 1.000000000000000000, 0.0000000000000000000 ) ) ;
#125 = CARTESIAN_POINT ( 'NONE',  ( 0.0000000000000000000, 20.99999999999990800, -6.073673019000017900 ) ) ;
#126 = CARTESIAN_POINT ( 'NONE',  ( 0.0000000000000000000, 1.000000000000000000, 6.250000000000000000 ) ) ;
#127 = DIRECTION ( 'NONE',  ( 0.0000000000000000000, 0.0000000000000000000, -1.000000000000000000 ) ) ;
#128 = DIRECTION ( 'NONE',  ( -0.0000000000000000000, 1.000000000000000000, -0.0000000000000000000 ) ) ;
#129 = CARTESIAN_POINT ( 'NONE',  ( 0.0000000000000000000, 1.000000000000000000, 0.0000000000000000000 ) ) ;
#130 = CARTESIAN_POINT ( 'NONE',  ( 0.0000000000000000000, 0.0000000000000000000, -7.000000000000000000 ) ) ;
#131 = FILL_AREA_STYLE_COLOUR ( '', #216 ) ;
#132 = DIRECTION ( 'NONE',  ( 0.0000000000000000000, 0.0000000000000000000, 1.000000000000000000 ) ) ;
#133 = DIRECTION ( 'NONE',  ( 0.0000000000000000000, -1.000000000000000000, -0.0000000000000000000 ) ) ;
#134 = CARTESIAN_POINT ( 'NONE',  ( 0.0000000000000000000, 0.0000000000000000000, 0.0000000000000000000 ) ) ;
#135 = DIRECTION ( 'NONE',  ( -0.0000000000000000000, 1.000000000000000000, 0.0000000000000000000 ) ) ;
#136 = CARTESIAN_POINT ( 'NONE',  ( 7.654042494670957600E-016, 1.000000000000000000, -6.250000000000000000 ) ) ;
#137 = DIRECTION ( 'NONE',  ( 0.0000000000000000000, -1.000000000000000000, 0.0000000000000000000 ) ) ;
#138 = CARTESIAN_POINT ( 'NONE',  ( -7.083999999999999600, 0.0000000000000000000, -7.083999999999999600 ) ) ;
#139 = DIRECTION ( 'NONE',  ( 0.0000000000000000000, 0.0000000000000000000, -1.000000000000000000 ) ) ;
#140 = CARTESIAN_POINT ( 'NONE',  ( 0.0000000000000000000, 1.000000000000000000, 0.0000000000000000000 ) ) ;
#141 = DIRECTION ( 'NONE',  ( 0.0000000000000000000, -1.000000000000000000, 0.0000000000000000000 ) ) ;
#142 = CARTESIAN_POINT ( 'NONE',  ( 0.0000000000000000000, 21.00000000000000000, 0.0000000000000000000 ) ) ;
#143 = DIRECTION ( 'NONE',  ( -0.0000000000000000000, 1.000000000000000000, -0.0000000000000000000 ) ) ;
#144 = DIRECTION ( 'NONE',  ( 0.0000000000000000000, -1.000000000000000000, 0.0000000000000000000 ) ) ;
#145 = DIRECTION ( 'NONE',  ( 0.0000000000000000000, 0.0000000000000000000, -1.000000000000000000 ) ) ;
#146 = CARTESIAN_POINT ( 'NONE',  ( 0.0000000000000000000, 20.99999999999990800, 0.0000000000000000000 ) ) ;
#147 = DIRECTION ( 'NONE',  ( 0.0000000000000000000, 0.0000000000000000000, -1.000000000000000000 ) ) ;
#148 = CARTESIAN_POINT ( 'NONE',  ( 0.0000000000000000000, 0.0000000000000000000, 0.0000000000000000000 ) ) ;
#149 = DIRECTION ( 'NONE',  ( 0.0000000000000000000, -2.775557561562891400E-015, -1.000000000000000000 ) ) ;
#150 = DIRECTION ( 'NONE',  ( 0.0000000000000000000, -1.000000000000000000, 0.0000000000000000000 ) ) ;
#151 = CARTESIAN_POINT ( 'NONE',  ( 0.0000000000000000000, 20.00000000000001800, 0.0000000000000000000 ) ) ;
#152 = DIRECTION ( 'NONE',  ( -1.000000000000000000, 0.0000000000000000000, 0.0000000000000000000 ) ) ;
#153 = DIRECTION ( 'NONE',  ( 0.0000000000000000000, -0.9848077529631101800, -0.1736481779453780700 ) ) ;
#154 = CARTESIAN_POINT ( 'NONE',  ( 0.0000000000000000000, 21.00000000000000000, -6.073673019000001000 ) ) ;
#155 = DIRECTION ( 'NONE',  ( 0.0000000000000000000, -2.775557561562891400E-015, -1.000000000000000000 ) ) ;
#156 = DIRECTION ( 'NONE',  ( 0.0000000000000000000, -1.000000000000000000, 0.0000000000000000000 ) ) ;
#157 = CARTESIAN_POINT ( 'NONE',  ( 0.0000000000000000000, 20.00000000000001800, 0.0000000000000000000 ) ) ;
#158 = CARTESIAN_POINT ( 'NONE',  ( 7.438104221785993100E-016, 21.00000000000000000, 6.073673019000001000 ) ) ;
#159 = DIRECTION ( 'NONE',  ( 0.0000000000000000000, 0.0000000000000000000, 1.000000000000000000 ) ) ;
#160 = DIRECTION ( 'NONE',  ( 0.0000000000000000000, -1.000000000000000000, -0.0000000000000000000 ) ) ;
#161 = CARTESIAN_POINT ( 'NONE',  ( 0.0000000000000000000, 1.000000000000000000, 0.0000000000000000000 ) ) ;
#162 = DIRECTION ( 'NONE',  ( 2.126576852985772900E-017, -0.9848077529631101800, 0.1736481779453780700 ) ) ;
#163 = DIRECTION ( 'NONE',  ( 0.0000000000000000000, 0.0000000000000000000, 1.000000000000000000 ) ) ;
#164 = DIRECTION ( 'NONE',  ( 0.0000000000000000000, 0.0000000000000000000, 1.000000000000000000 ) ) ;
#165 = DIRECTION ( 'NONE',  ( 0.0000000000000000000, -1.000000000000000000, -0.0000000000000000000 ) ) ;
#166 = CARTESIAN_POINT ( 'NONE',  ( 0.0000000000000000000, 21.00000000000000000, 0.0000000000000000000 ) ) ;
#167 = DIRECTION ( 'NONE',  ( 0.0000000000000000000, 1.000000000000000000, -0.0000000000000000000 ) ) ;
#168 = CARTESIAN_POINT ( 'NONE',  ( 7.083999999999999600, 1.000000000000000000, -7.083999999999999600 ) ) ;
#169 = DIRECTION ( 'NONE',  ( -0.0000000000000000000, 1.000000000000000000, 0.0000000000000000000 ) ) ;
#170 = DIRECTION ( 'NONE',  ( 0.0000000000000000000, 0.0000000000000000000, -1.000000000000000000 ) ) ;
#171 = DIRECTION ( 'NONE',  ( 0.0000000000000000000, -1.000000000000000000, 0.0000000000000000000 ) ) ;
#172 = PLANE ( 'NONE',  #13 ) ;
#173 = DIRECTION ( 'NONE',  ( -0.0000000000000000000, 1.000000000000000000, 0.0000000000000000000 ) ) ;
#174 = CARTESIAN_POINT ( 'NONE',  ( 0.0000000000000000000, 0.0000000000000000000, 0.0000000000000000000 ) ) ;
#175 = DIRECTION ( 'NONE',  ( 0.0000000000000000000, 0.0000000000000000000, 1.000000000000000000 ) ) ;
#176 = DIRECTION ( 'NONE',  ( 0.0000000000000000000, -1.000000000000000000, -0.0000000000000000000 ) ) ;
#177 = CARTESIAN_POINT ( 'NONE',  ( 0.0000000000000000000, 1.000000000000000000, 0.0000000000000000000 ) ) ;
#178 = CARTESIAN_POINT ( 'NONE',  ( 0.0000000000000000000, 21.00000000000000000, 0.0000000000000000000 ) ) ;
#179 = DIRECTION ( 'NONE',  ( 0.0000000000000000000, 0.0000000000000000000, -1.000000000000000000 ) ) ;
#180 = CARTESIAN_POINT ( 'NONE',  ( 0.0000000000000000000, 0.0000000000000000000, 0.0000000000000000000 ) ) ;
#181 = DIRECTION ( 'NONE',  ( -0.0000000000000000000, 1.000000000000000000, -0.0000000000000000000 ) ) ;
#182 = CARTESIAN_POINT ( 'NONE',  ( 0.0000000000000000000, 20.99999999999990800, 0.0000000000000000000 ) ) ;
#183 = DIRECTION ( 'NONE',  ( 0.0000000000000000000, 0.0000000000000000000, 1.000000000000000000 ) ) ;
#184 = DIRECTION ( 'NONE',  ( 0.0000000000000000000, 0.0000000000000000000, 1.000000000000000000 ) ) ;
#185 = DIRECTION ( 'NONE',  ( -1.000000000000000000, 0.0000000000000000000, 0.0000000000000000000 ) ) ;
#186 = DIRECTION ( 'NONE',  ( 0.0000000000000000000, 0.0000000000000000000, -1.000000000000000000 ) ) ;
#187 = DIRECTION ( 'NONE',  ( 0.0000000000000000000, -1.000000000000000000, 0.0000000000000000000 ) ) ;
#188 = CARTESIAN_POINT ( 'NONE',  ( 0.0000000000000000000, 0.0000000000000000000, 0.0000000000000000000 ) ) ;
#189 = PLANE ( 'NONE',  #43 ) ;
#190 = DIRECTION ( 'NONE',  ( 0.0000000000000000000, 0.0000000000000000000, -1.000000000000000000 ) ) ;
#191 = DIRECTION ( 'NONE',  ( -0.0000000000000000000, 1.000000000000000000, -0.0000000000000000000 ) ) ;
#192 = CARTESIAN_POINT ( 'NONE',  ( 0.0000000000000000000, 1.000000000000000000, 0.0000000000000000000 ) ) ;
#193 = DIRECTION ( 'NONE',  ( 0.0000000000000000000, 1.000000000000000000, -0.0000000000000000000 ) ) ;
#194 = DIRECTION ( 'NONE',  ( -0.0000000000000000000, 1.000000000000000000, 0.0000000000000000000 ) ) ;
#195 = DIRECTION ( 'NONE',  ( 0.0000000000000000000, 0.0000000000000000000, 1.000000000000000000 ) ) ;
#196 = CARTESIAN_POINT ( 'NONE',  ( 6.146557095000000400, 21.00000000000000000, -6.146557095000000400 ) ) ;
#197 = DIRECTION ( 'NONE',  ( -0.0000000000000000000, 1.000000000000000000, 0.0000000000000000000 ) ) ;
#198 = DIRECTION ( 'NONE',  ( 0.0000000000000000000, -1.000000000000000000, 0.0000000000000000000 ) ) ;
#199 = DIRECTION ( 'NONE',  ( 0.0000000000000000000, -1.000000000000000000, -0.0000000000000000000 ) ) ;
#200 = CARTESIAN_POINT ( 'NONE',  ( 0.0000000000000000000, 1.000000000000000000, 0.0000000000000000000 ) ) ;
#201 = CARTESIAN_POINT ( 'NONE',  ( 7.041719095097280900E-016, 0.0000000000000000000, -5.750000000000000000 ) ) ;
#202 = CARTESIAN_POINT ( 'NONE',  ( 0.0000000000000000000, 0.0000000000000000000, 0.0000000000000000000 ) ) ;
#203 = CARTESIAN_POINT ( 'NONE',  ( 0.0000000000000000000, 21.00000000000000000, 0.0000000000000000000 ) ) ;
#204 = CARTESIAN_POINT ( 'NONE',  ( 0.0000000000000000000, 1.000000000000000000, 0.0000000000000000000 ) ) ;
#205 = DIRECTION ( 'NONE',  ( 0.0000000000000000000, 0.0000000000000000000, 1.000000000000000000 ) ) ;
#206 = DIRECTION ( 'NONE',  ( -0.0000000000000000000, 1.000000000000000000, 0.0000000000000000000 ) ) ;
#207 = DIRECTION ( 'NONE',  ( -0.0000000000000000000, 1.000000000000000000, 0.0000000000000000000 ) ) ;
#208 = DIRECTION ( 'NONE',  ( 0.0000000000000000000, -1.000000000000000000, 0.0000000000000000000 ) ) ;
#209 = DIRECTION ( 'NONE',  ( 0.0000000000000000000, 0.0000000000000000000, 1.000000000000000000 ) ) ;
#210 = DIRECTION ( 'NONE',  ( 0.0000000000000000000, 0.0000000000000000000, -1.000000000000000000 ) ) ;
#211 = DIRECTION ( 'NONE',  ( 0.0000000000000000000, 0.0000000000000000000, -1.000000000000000000 ) ) ;
#212 = DIRECTION ( 'NONE',  ( 0.0000000000000000000, -1.000000000000000000, 0.0000000000000000000 ) ) ;
#213 = VERTEX_POINT ( 'NONE', #125 ) ;
#214 = SHAPE_DEFINITION_REPRESENTATION ( #73, #79 ) ;
#215 = PRESENTATION_STYLE_ASSIGNMENT (( #118 ) ) ;
#216 = COLOUR_RGB ( '',1.000000000000000000, 1.000000000000000000, 0.5019607843137254800 ) ;
#217 = VECTOR ( 'NONE', #124, 1000.000000000000000 ) ;
#218 = VECTOR ( 'NONE', #135, 1000.000000000000000 ) ;
#219 = LINE ( 'NONE', #126, #217 ) ;
#220 = LINE ( 'NONE', #136, #218 ) ;
#221 = CIRCLE ( 'NONE', #58, 7.000000000000000000 ) ;
#222 = VECTOR ( 'NONE', #153, 1000.000000000000200 ) ;
#223 = COLOUR_RGB ( '',1.000000000000000000, 1.000000000000000000, 0.5019607843137254800 ) ;
#224 = PRESENTATION_STYLE_ASSIGNMENT (( #91 ) ) ;
#225 = SURFACE_STYLE_FILL_AREA ( #122 ) ;
#226 = LINE ( 'NONE', #154, #222 ) ;
#227 = CIRCLE ( 'NONE', #59, 5.750000000000000000 ) ;
#228 = VECTOR ( 'NONE', #162, 1000.000000000000200 ) ;
#229 = CIRCLE ( 'NONE', #29, 6.073673019000017900 ) ;
#230 = CIRCLE ( 'NONE', #30, 6.250000000000000000 ) ;
#231 = CIRCLE ( 'NONE', #33, 6.250000000000000000 ) ;
#232 = CIRCLE ( 'NONE', #27, 6.250000000000000000 ) ;
#233 = CIRCLE ( 'NONE', #70, 5.750000000000000000 ) ;
#234 = LINE ( 'NONE', #158, #228 ) ;
#235 = CIRCLE ( 'NONE', #51, 7.000000000000000000 ) ;
#236 = CIRCLE ( 'NONE', #50, 5.750000000000000000 ) ;
#237 = CIRCLE ( 'NONE', #52, 6.073673019000017900 ) ;
#238 = VECTOR ( 'NONE', #206, 1000.000000000000000 ) ;
#239 = CIRCLE ( 'NONE', #45, 7.000000000000000000 ) ;
#240 = CIRCLE ( 'NONE', #42, 7.000000000000000000 ) ;
#241 = VECTOR ( 'NONE', #207, 1000.000000000000000 ) ;
#242 = LINE ( 'NONE', #201, #238 ) ;
#243 = VECTOR ( 'NONE', #208, 1000.000000000000000 ) ;
#244 = CIRCLE ( 'NONE', #53, 6.250000000000000000 ) ;
#245 = VECTOR ( 'NONE', #112, 1000.000000000000000 ) ;
#246 = CONICAL_SURFACE ( 'NONE', #46, 6.073673019000001000, 0.1745329254821761900 ) ;
#247 = LINE ( 'NONE', #119, #241 ) ;
#248 = CIRCLE ( 'NONE', #54, 5.750000000000000000 ) ;
#249 = LINE ( 'NONE', #87, #243 ) ;
#250 = CYLINDRICAL_SURFACE ( 'NONE', #56, 7.000000000000000000 ) ;
#251 = FACE_BOUND ( 'NONE', #284, .T. ) ;
#252 = CYLINDRICAL_SURFACE ( 'NONE', #12, 5.750000000000000000 ) ;
#253 = FACE_OUTER_BOUND ( 'NONE', #276, .T. ) ;
#254 = LINE ( 'NONE', #82, #245 ) ;
#255 = FACE_OUTER_BOUND ( 'NONE', #277, .T. ) ;
#256 = CYLINDRICAL_SURFACE ( 'NONE', #41, 6.250000000000000000 ) ;
#257 = FACE_OUTER_BOUND ( 'NONE', #273, .T. ) ;
#258 = CYLINDRICAL_SURFACE ( 'NONE', #44, 5.750000000000000000 ) ;
#259 = FACE_BOUND ( 'NONE', #283, .T. ) ;
#260 = CONICAL_SURFACE ( 'NONE', #38, 6.073673019000001000, 0.1745329254821761900 ) ;
#261 = FACE_OUTER_BOUND ( 'NONE', #275, .T. ) ;
#262 = FACE_OUTER_BOUND ( 'NONE', #280, .T. ) ;
#263 = FACE_OUTER_BOUND ( 'NONE', #282, .T. ) ;
#264 = CYLINDRICAL_SURFACE ( 'NONE', #65, 7.000000000000000000 ) ;
#265 = FACE_BOUND ( 'NONE', #281, .T. ) ;
#266 = CYLINDRICAL_SURFACE ( 'NONE', #40, 6.250000000000000000 ) ;
#267 = FACE_OUTER_BOUND ( 'NONE', #271, .T. ) ;
#268 = FACE_OUTER_BOUND ( 'NONE', #279, .T. ) ;
#269 = FACE_OUTER_BOUND ( 'NONE', #274, .T. ) ;
#270 = FACE_OUTER_BOUND ( 'NONE', #285, .T. ) ;
#271 = EDGE_LOOP ( 'NONE', ( #307, #324, #318, #308 ) ) ;
#272 = SURFACE_STYLE_FILL_AREA ( #93 ) ;
#273 = EDGE_LOOP ( 'NONE', ( #310, #340 ) ) ;
#274 = EDGE_LOOP ( 'NONE', ( #323, #315, #302, #309 ) ) ;
#275 = EDGE_LOOP ( 'NONE', ( #320, #321, #341, #312 ) ) ;
#276 = EDGE_LOOP ( 'NONE', ( #316, #325, #322, #330 ) ) ;
#277 = EDGE_LOOP ( 'NONE', ( #319, #314 ) ) ;
#278 = EDGE_LOOP ( 'NONE', ( #327, #342, #333, #336 ) ) ;
#279 = EDGE_LOOP ( 'NONE', ( #331, #344 ) ) ;
#280 = EDGE_LOOP ( 'NONE', ( #328, #303, #299, #306 ) ) ;
#281 = EDGE_LOOP ( 'NONE', ( #304, #326 ) ) ;
#282 = EDGE_LOOP ( 'NONE', ( #300, #332, #343, #317 ) ) ;
#283 = EDGE_LOOP ( 'NONE', ( #335, #305 ) ) ;
#284 = EDGE_LOOP ( 'NONE', ( #337, #311 ) ) ;
#285 = EDGE_LOOP ( 'NONE', ( #313, #339, #301, #338 ) ) ;
#286 = VERTEX_POINT ( 'NONE', #111 ) ;
#287 = VERTEX_POINT ( 'NONE', #123 ) ;
#288 = VERTEX_POINT ( 'NONE', #110 ) ;
#289 = VERTEX_POINT ( 'NONE', #130 ) ;
#290 = VERTEX_POINT ( 'NONE', #109 ) ;
#291 = VERTEX_POINT ( 'NONE', #108 ) ;
#292 = VERTEX_POINT ( 'NONE', #113 ) ;
#293 = VERTEX_POINT ( 'NONE', #107 ) ;
#294 = VERTEX_POINT ( 'NONE', #106 ) ;
#295 = VERTEX_POINT ( 'NONE', #105 ) ;
#296 = VERTEX_POINT ( 'NONE', #104 ) ;
#297 = VERTEX_POINT ( 'NONE', #103 ) ;
#298 = VERTEX_POINT ( 'NONE', #102 ) ;
#299 = ORIENTED_EDGE ( 'NONE', *, *, #49, .T. ) ;
#300 = ORIENTED_EDGE ( 'NONE', *, *, #14, .T. ) ;
#301 = ORIENTED_EDGE ( 'NONE', *, *, #35, .T. ) ;
#302 = ORIENTED_EDGE ( 'NONE', *, *, #26, .F. ) ;
#303 = ORIENTED_EDGE ( 'NONE', *, *, #19, .F. ) ;
#304 = ORIENTED_EDGE ( 'NONE', *, *, #25, .T. ) ;
#305 = ORIENTED_EDGE ( 'NONE', *, *, #31, .T. ) ;
#306 = ORIENTED_EDGE ( 'NONE', *, *, #32, .T. ) ;
#307 = ORIENTED_EDGE ( 'NONE', *, *, #36, .F. ) ;
#308 = ORIENTED_EDGE ( 'NONE', *, *, #37, .F. ) ;
#309 = ORIENTED_EDGE ( 'NONE', *, *, #17, .F. ) ;
#310 = ORIENTED_EDGE ( 'NONE', *, *, #26, .T. ) ;
#311 = ORIENTED_EDGE ( 'NONE', *, *, #39, .F. ) ;
#312 = ORIENTED_EDGE ( 'NONE', *, *, #23, .F. ) ;
#313 = ORIENTED_EDGE ( 'NONE', *, *, #31, .F. ) ;
#314 = ORIENTED_EDGE ( 'NONE', *, *, #22, .T. ) ;
#315 = ORIENTED_EDGE ( 'NONE', *, *, #16, .T. ) ;
#316 = ORIENTED_EDGE ( 'NONE', *, *, #34, .F. ) ;
#317 = ORIENTED_EDGE ( 'NONE', *, *, #18, .F. ) ;
#318 = ORIENTED_EDGE ( 'NONE', *, *, #35, .F. ) ;
#319 = ORIENTED_EDGE ( 'NONE', *, *, #47, .T. ) ;
#320 = ORIENTED_EDGE ( 'NONE', *, *, #16, .F. ) ;
#321 = ORIENTED_EDGE ( 'NONE', *, *, #47, .F. ) ;
#322 = ORIENTED_EDGE ( 'NONE', *, *, #37, .T. ) ;
#323 = ORIENTED_EDGE ( 'NONE', *, *, #22, .F. ) ;
#324 = ORIENTED_EDGE ( 'NONE', *, *, #34, .T. ) ;
#325 = ORIENTED_EDGE ( 'NONE', *, *, #24, .F. ) ;
#326 = ORIENTED_EDGE ( 'NONE', *, *, #28, .T. ) ;
#327 = ORIENTED_EDGE ( 'NONE', *, *, #20, .F. ) ;
#328 = ORIENTED_EDGE ( 'NONE', *, *, #48, .F. ) ;
#329 = FACE_OUTER_BOUND ( 'NONE', #278, .T. ) ;
#330 = ORIENTED_EDGE ( 'NONE', *, *, #32, .F. ) ;
#331 = ORIENTED_EDGE ( 'NONE', *, *, #24, .T. ) ;
#332 = ORIENTED_EDGE ( 'NONE', *, *, #20, .T. ) ;
#333 = ORIENTED_EDGE ( 'NONE', *, *, #18, .T. ) ;
#334 = CLOSED_SHELL ( 'NONE', ( #3, #1, #8, #2, #10, #4, #6, #5, #7, #11, #9 ) ) ;
#335 = ORIENTED_EDGE ( 'NONE', *, *, #19, .T. ) ;
#336 = ORIENTED_EDGE ( 'NONE', *, *, #28, .F. ) ;
#337 = ORIENTED_EDGE ( 'NONE', *, *, #14, .F. ) ;
#338 = ORIENTED_EDGE ( 'NONE', *, *, #49, .F. ) ;
#339 = ORIENTED_EDGE ( 'NONE', *, *, #48, .T. ) ;
#340 = ORIENTED_EDGE ( 'NONE', *, *, #23, .T. ) ;
#341 = ORIENTED_EDGE ( 'NONE', *, *, #17, .T. ) ;
#342 = ORIENTED_EDGE ( 'NONE', *, *, #39, .T. ) ;
#343 = ORIENTED_EDGE ( 'NONE', *, *, #25, .F. ) ;
#344 = ORIENTED_EDGE ( 'NONE', *, *, #36, .T. ) ;
ENDSEC;
END-ISO-10303-21;
