ISO-10303-21;
HEADER;
FILE_DESCRIPTION (( 'STEP AP214' ),
    '1' );
FILE_NAME ('1077000013E00A.STEP',
    '2013-02-25T17:28:40',
    ( '' ),
    ( '' ),
    'SwSTEP 2.0',
    'SolidWorks 2012',
    '' );
FILE_SCHEMA (( 'AUTOMOTIVE_DESIGN' ));
ENDSEC;

DATA;
#1 = ADVANCED_FACE ( 'NONE', ( #272 ), #268, .T. ) ;
#2 = ADVANCED_FACE ( 'NONE', ( #271 ), #266, .T. ) ;
#3 = ADVANCED_FACE ( 'NONE', ( #269 ), #264, .T. ) ;
#4 = ADVANCED_FACE ( 'NONE', ( #267 ), #262, .F. ) ;
#5 = ADVANCED_FACE ( 'NONE', ( #265, #261 ), #174, .T. ) ;
#6 = ADVANCED_FACE ( 'NONE', ( #333 ), #256, .T. ) ;
#7 = ADVANCED_FACE ( 'NONE', ( #270 ), #263, .T. ) ;
#8 = ADVANCED_FACE ( 'NONE', ( #257, #255 ), #141, .T. ) ;
#9 = ADVANCED_FACE ( 'NONE', ( #260 ), #252, .F. ) ;
#10 = ADVANCED_FACE ( 'NONE', ( #258 ), #248, .T. ) ;
#11 = ADVANCED_FACE ( 'NONE', ( #253, #259 ), #102, .T. ) ;
#12 =( GEOMETRIC_REPRESENTATION_CONTEXT ( 3 ) GLOBAL_UNCERTAINTY_ASSIGNED_CONTEXT ( ( #75 ) ) GLOBAL_UNIT_ASSIGNED_CONTEXT ( ( #114, #113, #112 ) ) REPRESENTATION_CONTEXT ( 'NONE', 'WORKASPACE' ) );
#13 = AXIS2_PLACEMENT_3D ( 'NONE', #212, #211, #209 ) ;
#14 = AXIS2_PLACEMENT_3D ( 'NONE', #186, #185, #184 ) ;
#15 = MECHANICAL_DESIGN_GEOMETRIC_PRESENTATION_REPRESENTATION (  '', ( #17 ), #12 ) ;
#16 =( GEOMETRIC_REPRESENTATION_CONTEXT ( 3 ) GLOBAL_UNCERTAINTY_ASSIGNED_CONTEXT ( ( #76 ) ) GLOBAL_UNIT_ASSIGNED_CONTEXT ( ( #98, #94, #92 ) ) REPRESENTATION_CONTEXT ( 'NONE', 'WORKASPACE' ) );
#17 = STYLED_ITEM ( 'NONE', ( #214 ), #78 ) ;
#18 = AXIS2_PLACEMENT_3D ( 'NONE', #156, #154, #169 ) ;
#19 = AXIS2_PLACEMENT_3D ( 'NONE', #187, #196, #188 ) ;
#20 = AXIS2_PLACEMENT_3D ( 'NONE', #182, #181, #180 ) ;
#21 = AXIS2_PLACEMENT_3D ( 'NONE', #163, #151, #152 ) ;
#22 = PRODUCT_RELATED_PRODUCT_CATEGORY ( 'part', '', ( #72 ) ) ;
#23 = PRODUCT_DEFINITION_FORMATION_WITH_SPECIFIED_SOURCE ( 'TUTTO', '', #72, .NOT_KNOWN. ) ;
#24 = PRODUCT_DEFINITION ( 'NON CONOSCIUTO', '', #23, #74 ) ;
#25 = AXIS2_PLACEMENT_3D ( 'NONE', #202, #194, #210 ) ;
#26 = AXIS2_PLACEMENT_3D ( 'NONE', #170, #171, #173 ) ;
#27 = AXIS2_PLACEMENT_3D ( 'NONE', #207, #199, #206 ) ;
#28 = EDGE_CURVE ( 'NONE', #331, #334, #251, .T. ) ;
#29 = EDGE_CURVE ( 'NONE', #331, #335, #254, .T. ) ;
#30 = EDGE_CURVE ( 'NONE', #338, #330, #250, .T. ) ;
#31 = EDGE_CURVE ( 'NONE', #315, #337, #247, .T. ) ;
#32 = EDGE_CURVE ( 'NONE', #344, #329, #246, .T. ) ;
#33 = AXIS2_PLACEMENT_3D ( 'NONE', #178, #179, #172 ) ;
#34 = AXIS2_PLACEMENT_3D ( 'NONE', #96, #81, #80 ) ;
#35 = EDGE_CURVE ( 'NONE', #319, #318, #245, .T. ) ;
#36 = EDGE_CURVE ( 'NONE', #337, #315, #244, .T. ) ;
#37 = AXIS2_PLACEMENT_3D ( 'NONE', #142, #137, #136 ) ;
#38 = AXIS2_PLACEMENT_3D ( 'NONE', #125, #124, #123 ) ;
#39 = EDGE_CURVE ( 'NONE', #230, #338, #242, .T. ) ;
#40 = AXIS2_PLACEMENT_3D ( 'NONE', #155, #153, #150 ) ;
#41 =( GEOMETRIC_REPRESENTATION_CONTEXT ( 3 ) GLOBAL_UNCERTAINTY_ASSIGNED_CONTEXT ( ( #77 ) ) GLOBAL_UNIT_ASSIGNED_CONTEXT ( ( #85, #84, #83 ) ) REPRESENTATION_CONTEXT ( 'NONE', 'WORKASPACE' ) );
#42 = MECHANICAL_DESIGN_GEOMETRIC_PRESENTATION_REPRESENTATION (  '', ( #56 ), #41 ) ;
#43 = EDGE_CURVE ( 'NONE', #336, #230, #243, .T. ) ;
#44 = EDGE_CURVE ( 'NONE', #335, #331, #239, .T. ) ;
#45 = EDGE_CURVE ( 'NONE', #334, #332, #238, .T. ) ;
#46 = EDGE_CURVE ( 'NONE', #318, #319, #241, .T. ) ;
#47 = EDGE_CURVE ( 'NONE', #332, #334, #236, .T. ) ;
#48 = EDGE_CURVE ( 'NONE', #329, #315, #237, .T. ) ;
#49 = EDGE_CURVE ( 'NONE', #330, #338, #235, .T. ) ;
#50 = EDGE_CURVE ( 'NONE', #329, #344, #231, .T. ) ;
#51 = EDGE_CURVE ( 'NONE', #318, #334, #228, .T. ) ;
#52 = EDGE_CURVE ( 'NONE', #335, #332, #227, .T. ) ;
#53 = EDGE_CURVE ( 'NONE', #319, #332, #234, .T. ) ;
#54 = PRESENTATION_LAYER_ASSIGNMENT (  '', '', ( #56 ) ) ;
#55 = EDGE_CURVE ( 'NONE', #230, #336, #222, .T. ) ;
#56 = STYLED_ITEM ( 'NONE', ( #229 ), #79 ) ;
#57 = EDGE_CURVE ( 'NONE', #344, #337, #224, .T. ) ;
#58 = AXIS2_PLACEMENT_3D ( 'NONE', #122, #129, #99 ) ;
#59 = EDGE_CURVE ( 'NONE', #336, #330, #220, .T. ) ;
#60 = AXIS2_PLACEMENT_3D ( 'NONE', #139, #144, #140 ) ;
#61 = AXIS2_PLACEMENT_3D ( 'NONE', #134, #138, #133 ) ;
#62 = AXIS2_PLACEMENT_3D ( 'NONE', #147, #146, #145 ) ;
#63 = AXIS2_PLACEMENT_3D ( 'NONE', #160, #159, #158 ) ;
#64 = AXIS2_PLACEMENT_3D ( 'NONE', #168, #167, #166 ) ;
#65 = AXIS2_PLACEMENT_3D ( 'NONE', #165, #164, #162 ) ;
#66 = AXIS2_PLACEMENT_3D ( 'NONE', #205, #204, #203 ) ;
#67 = AXIS2_PLACEMENT_3D ( 'NONE', #177, #176, #175 ) ;
#68 = AXIS2_PLACEMENT_3D ( 'NONE', #192, #191, #190 ) ;
#69 = AXIS2_PLACEMENT_3D ( 'NONE', #201, #200, #198 ) ;
#70 = AXIS2_PLACEMENT_3D ( 'NONE', #197, #195, #193 ) ;
#71 = PRESENTATION_LAYER_ASSIGNMENT (  '', '', ( #17 ) ) ;
#72 = PRODUCT ( '1077000013E00A', '1077000013E00A', '', ( #90 ) ) ;
#73 = PRODUCT_DEFINITION_SHAPE ( 'NONE', 'NONE',  #24 ) ;
#74 = PRODUCT_DEFINITION_CONTEXT ( 'detailed design', #111, 'design' ) ;
#75 = UNCERTAINTY_MEASURE_WITH_UNIT (LENGTH_MEASURE( 1.000000000000000100E-005 ), #114, 'distance_accuracy_value', 'NONE');
#76 = UNCERTAINTY_MEASURE_WITH_UNIT (LENGTH_MEASURE( 1.000000000000000100E-005 ), #98, 'distance_accuracy_value', 'NONE');
#77 = UNCERTAINTY_MEASURE_WITH_UNIT (LENGTH_MEASURE( 1.000000000000000100E-005 ), #85, 'distance_accuracy_value', 'NONE');
#78 = MANIFOLD_SOLID_BREP ( 'Importato1', #291 ) ;
#79 = ADVANCED_BREP_SHAPE_REPRESENTATION ( '1077000013E00A', ( #78, #34 ), #16 ) ;
#80 = DIRECTION ( 'NONE',  ( 1.000000000000000000, 0.0000000000000000000, 0.0000000000000000000 ) ) ;
#81 = DIRECTION ( 'NONE',  ( 0.0000000000000000000, 0.0000000000000000000, 1.000000000000000000 ) ) ;
#82 = APPLICATION_PROTOCOL_DEFINITION ( 'draft international standard', 'automotive_design', 1998, #111 ) ;
#83 =( NAMED_UNIT ( * ) SI_UNIT ( $, .STERADIAN. ) SOLID_ANGLE_UNIT ( ) );
#84 =( NAMED_UNIT ( * ) PLANE_ANGLE_UNIT ( ) SI_UNIT ( $, .RADIAN. ) );
#85 =( LENGTH_UNIT ( ) NAMED_UNIT ( * ) SI_UNIT ( .MILLI., .METRE. ) );
#86 = SURFACE_STYLE_USAGE ( .BOTH. , #87 ) ;
#87 = SURFACE_SIDE_STYLE ('',( #226 ) ) ;
#88 = FILL_AREA_STYLE ('',( #97 ) ) ;
#89 = APPLICATION_CONTEXT ( 'automotive_design' ) ;
#90 = PRODUCT_CONTEXT ( 'NONE', #89, 'mechanical' ) ;
#91 = APPLICATION_PROTOCOL_DEFINITION ( 'draft international standard', 'automotive_design', 1998, #89 ) ;
#92 =( NAMED_UNIT ( * ) SI_UNIT ( $, .STERADIAN. ) SOLID_ANGLE_UNIT ( ) );
#93 = CARTESIAN_POINT ( 'NONE',  ( 0.0000000000000000000, 22.00000000000000000, -6.323673019000000100 ) ) ;
#94 =( NAMED_UNIT ( * ) PLANE_ANGLE_UNIT ( ) SI_UNIT ( $, .RADIAN. ) );
#95 = CARTESIAN_POINT ( 'NONE',  ( 9.491012693391987800E-016, 0.5000000000000000000, 7.750000000000000000 ) ) ;
#96 = CARTESIAN_POINT ( 'NONE',  ( 0.0000000000000000000, 0.0000000000000000000, 0.0000000000000000000 ) ) ;
#97 = FILL_AREA_STYLE_COLOUR ( '', #213 ) ;
#98 =( LENGTH_UNIT ( ) NAMED_UNIT ( * ) SI_UNIT ( .MILLI., .METRE. ) );
#99 = DIRECTION ( 'NONE',  ( -1.000000000000000000, 0.0000000000000000000, 0.0000000000000000000 ) ) ;
#100 = CARTESIAN_POINT ( 'NONE',  ( 0.0000000000000000000, 22.00000000000000000, 6.000000000000000000 ) ) ;
#101 = CARTESIAN_POINT ( 'NONE',  ( 7.347880794884119700E-016, 0.0000000000000000000, -6.000000000000000000 ) ) ;
#102 = PLANE ( 'NONE',  #58 ) ;
#103 = CARTESIAN_POINT ( 'NONE',  ( 7.960204194457796500E-016, 20.99999999999990800, -6.500000000000000900 ) ) ;
#104 = CARTESIAN_POINT ( 'NONE',  ( 0.0000000000000000000, 22.00000000000002100, -6.323673018999997500 ) ) ;
#105 = CARTESIAN_POINT ( 'NONE',  ( 0.0000000000000000000, 0.5000000000000000000, -7.750000000000000000 ) ) ;
#106 = CARTESIAN_POINT ( 'NONE',  ( 7.347880794884119700E-016, 22.00000000000000000, -6.000000000000000000 ) ) ;
#107 = CARTESIAN_POINT ( 'NONE',  ( 7.852235058015311200E-016, 22.00000000000002100, 6.323673018999997500 ) ) ;
#108 = CARTESIAN_POINT ( 'NONE',  ( 0.0000000000000000000, 20.99999999999990800, 6.500000000000000900 ) ) ;
#109 = CARTESIAN_POINT ( 'NONE',  ( 9.491012693391987800E-016, 0.0000000000000000000, 7.750000000000000000 ) ) ;
#110 = CARTESIAN_POINT ( 'NONE',  ( 0.0000000000000000000, 0.0000000000000000000, -7.750000000000000000 ) ) ;
#111 = APPLICATION_CONTEXT ( 'automotive_design' ) ;
#112 =( NAMED_UNIT ( * ) SI_UNIT ( $, .STERADIAN. ) SOLID_ANGLE_UNIT ( ) );
#113 =( NAMED_UNIT ( * ) PLANE_ANGLE_UNIT ( ) SI_UNIT ( $, .RADIAN. ) );
#114 =( LENGTH_UNIT ( ) NAMED_UNIT ( * ) SI_UNIT ( .MILLI., .METRE. ) );
#115 = SURFACE_STYLE_USAGE ( .BOTH. , #116 ) ;
#116 = SURFACE_SIDE_STYLE ('',( #219 ) ) ;
#117 = FILL_AREA_STYLE ('',( #121 ) ) ;
#118 = CARTESIAN_POINT ( 'NONE',  ( 0.0000000000000000000, 0.5000000000000000000, 6.500000000000000900 ) ) ;
#119 = CARTESIAN_POINT ( 'NONE',  ( 0.0000000000000000000, 0.0000000000000000000, 6.000000000000000000 ) ) ;
#120 = DIRECTION ( 'NONE',  ( -0.0000000000000000000, 1.000000000000000000, 0.0000000000000000000 ) ) ;
#121 = FILL_AREA_STYLE_COLOUR ( '', #215 ) ;
#122 = CARTESIAN_POINT ( 'NONE',  ( 7.842999999999999100, 0.5000000000000000000, -7.842999999999999100 ) ) ;
#123 = DIRECTION ( 'NONE',  ( 0.0000000000000000000, 0.0000000000000000000, 1.000000000000000000 ) ) ;
#124 = DIRECTION ( 'NONE',  ( 0.0000000000000000000, -1.000000000000000000, -0.0000000000000000000 ) ) ;
#125 = CARTESIAN_POINT ( 'NONE',  ( 0.0000000000000000000, 0.0000000000000000000, 0.0000000000000000000 ) ) ;
#126 = CARTESIAN_POINT ( 'NONE',  ( 9.491012693391987800E-016, 0.5000000000000000000, 7.750000000000000000 ) ) ;
#127 = CARTESIAN_POINT ( 'NONE',  ( 7.960204194457796500E-016, 0.5000000000000000000, -6.500000000000000900 ) ) ;
#128 = CARTESIAN_POINT ( 'NONE',  ( 7.347880794884119700E-016, 0.0000000000000000000, -6.000000000000000000 ) ) ;
#129 = DIRECTION ( 'NONE',  ( 0.0000000000000000000, 1.000000000000000000, -0.0000000000000000000 ) ) ;
#130 = DIRECTION ( 'NONE',  ( 0.0000000000000000000, 1.000000000000000000, 0.0000000000000000000 ) ) ;
#131 = DIRECTION ( 'NONE',  ( 2.126576852985790500E-017, -0.9848077529631100700, 0.1736481779453795100 ) ) ;
#132 = DIRECTION ( 'NONE',  ( 0.0000000000000000000, -1.000000000000000000, 0.0000000000000000000 ) ) ;
#133 = DIRECTION ( 'NONE',  ( 0.0000000000000000000, 0.0000000000000000000, -1.000000000000000000 ) ) ;
#134 = CARTESIAN_POINT ( 'NONE',  ( 0.0000000000000000000, 22.00000000000000000, 0.0000000000000000000 ) ) ;
#135 = CARTESIAN_POINT ( 'NONE',  ( 7.744265921572830900E-016, 22.00000000000000000, 6.323673019000000100 ) ) ;
#136 = DIRECTION ( 'NONE',  ( 0.0000000000000000000, 0.0000000000000000000, -1.000000000000000000 ) ) ;
#137 = DIRECTION ( 'NONE',  ( -0.0000000000000000000, 1.000000000000000000, -0.0000000000000000000 ) ) ;
#138 = DIRECTION ( 'NONE',  ( 0.0000000000000000000, -1.000000000000000000, 0.0000000000000000000 ) ) ;
#139 = CARTESIAN_POINT ( 'NONE',  ( 0.0000000000000000000, 0.0000000000000000000, 0.0000000000000000000 ) ) ;
#140 = DIRECTION ( 'NONE',  ( 0.0000000000000000000, 0.0000000000000000000, 1.000000000000000000 ) ) ;
#141 = PLANE ( 'NONE',  #21 ) ;
#142 = CARTESIAN_POINT ( 'NONE',  ( 0.0000000000000000000, 0.5000000000000000000, 0.0000000000000000000 ) ) ;
#143 = CARTESIAN_POINT ( 'NONE',  ( 0.0000000000000000000, 0.5000000000000000000, 6.500000000000000900 ) ) ;
#144 = DIRECTION ( 'NONE',  ( -0.0000000000000000000, 1.000000000000000000, 0.0000000000000000000 ) ) ;
#145 = DIRECTION ( 'NONE',  ( 0.0000000000000000000, 0.0000000000000000000, 1.000000000000000000 ) ) ;
#146 = DIRECTION ( 'NONE',  ( 0.0000000000000000000, -1.000000000000000000, -0.0000000000000000000 ) ) ;
#147 = CARTESIAN_POINT ( 'NONE',  ( 0.0000000000000000000, 22.00000000000000000, 0.0000000000000000000 ) ) ;
#148 = DIRECTION ( 'NONE',  ( 0.0000000000000000000, 1.000000000000000000, 0.0000000000000000000 ) ) ;
#149 = CARTESIAN_POINT ( 'NONE',  ( 7.960204194457796500E-016, 0.5000000000000000000, -6.500000000000000900 ) ) ;
#150 = DIRECTION ( 'NONE',  ( 0.0000000000000000000, 1.441154887734578000E-014, -1.000000000000000000 ) ) ;
#151 = DIRECTION ( 'NONE',  ( 0.0000000000000000000, -1.000000000000000000, 0.0000000000000000000 ) ) ;
#152 = DIRECTION ( 'NONE',  ( 1.000000000000000000, 0.0000000000000000000, 0.0000000000000000000 ) ) ;
#153 = DIRECTION ( 'NONE',  ( 0.0000000000000000000, -1.000000000000000000, 0.0000000000000000000 ) ) ;
#154 = DIRECTION ( 'NONE',  ( 0.0000000000000000000, 1.000000000000000000, 0.0000000000000000000 ) ) ;
#155 = CARTESIAN_POINT ( 'NONE',  ( 0.0000000000000000000, 20.99999999999990800, 0.0000000000000000000 ) ) ;
#156 = CARTESIAN_POINT ( 'NONE',  ( 0.0000000000000000000, 0.5000000000000000000, 0.0000000000000000000 ) ) ;
#157 = CARTESIAN_POINT ( 'NONE',  ( 0.0000000000000000000, 0.5000000000000000000, -7.750000000000000000 ) ) ;
#158 = DIRECTION ( 'NONE',  ( 0.0000000000000000000, 0.0000000000000000000, 1.000000000000000000 ) ) ;
#159 = DIRECTION ( 'NONE',  ( -0.0000000000000000000, -1.000000000000000000, -0.0000000000000000000 ) ) ;
#160 = CARTESIAN_POINT ( 'NONE',  ( 0.0000000000000000000, 0.5000000000000000000, 0.0000000000000000000 ) ) ;
#161 = DIRECTION ( 'NONE',  ( 0.0000000000000000000, -1.000000000000000000, 0.0000000000000000000 ) ) ;
#162 = DIRECTION ( 'NONE',  ( 0.0000000000000000000, 1.441154887734578000E-014, -1.000000000000000000 ) ) ;
#163 = CARTESIAN_POINT ( 'NONE',  ( -7.842999999999999100, 0.0000000000000000000, -7.842999999999999100 ) ) ;
#164 = DIRECTION ( 'NONE',  ( 0.0000000000000000000, -1.000000000000000000, 0.0000000000000000000 ) ) ;
#165 = CARTESIAN_POINT ( 'NONE',  ( 0.0000000000000000000, 20.99999999999990800, 0.0000000000000000000 ) ) ;
#166 = DIRECTION ( 'NONE',  ( 0.0000000000000000000, 0.0000000000000000000, -1.000000000000000000 ) ) ;
#167 = DIRECTION ( 'NONE',  ( -0.0000000000000000000, 1.000000000000000000, -0.0000000000000000000 ) ) ;
#168 = CARTESIAN_POINT ( 'NONE',  ( 0.0000000000000000000, 22.00000000000002100, 0.0000000000000000000 ) ) ;
#169 = DIRECTION ( 'NONE',  ( 0.0000000000000000000, 0.0000000000000000000, 1.000000000000000000 ) ) ;
#170 = CARTESIAN_POINT ( 'NONE',  ( 0.0000000000000000000, 22.00000000000000000, 0.0000000000000000000 ) ) ;
#171 = DIRECTION ( 'NONE',  ( 0.0000000000000000000, -1.000000000000000000, 0.0000000000000000000 ) ) ;
#172 = DIRECTION ( 'NONE',  ( -1.000000000000000000, 0.0000000000000000000, 0.0000000000000000000 ) ) ;
#173 = DIRECTION ( 'NONE',  ( 0.0000000000000000000, 0.0000000000000000000, -1.000000000000000000 ) ) ;
#174 = PLANE ( 'NONE',  #33 ) ;
#175 = DIRECTION ( 'NONE',  ( 0.0000000000000000000, 0.0000000000000000000, 1.000000000000000000 ) ) ;
#176 = DIRECTION ( 'NONE',  ( 0.0000000000000000000, -1.000000000000000000, -0.0000000000000000000 ) ) ;
#177 = CARTESIAN_POINT ( 'NONE',  ( 0.0000000000000000000, 0.0000000000000000000, 0.0000000000000000000 ) ) ;
#178 = CARTESIAN_POINT ( 'NONE',  ( 6.399557095000000500, 22.00000000000000000, -6.399557095000000500 ) ) ;
#179 = DIRECTION ( 'NONE',  ( 0.0000000000000000000, 1.000000000000000000, -0.0000000000000000000 ) ) ;
#180 = DIRECTION ( 'NONE',  ( 0.0000000000000000000, 0.0000000000000000000, -1.000000000000000000 ) ) ;
#181 = DIRECTION ( 'NONE',  ( 0.0000000000000000000, -1.000000000000000000, 0.0000000000000000000 ) ) ;
#182 = CARTESIAN_POINT ( 'NONE',  ( 0.0000000000000000000, 0.0000000000000000000, 0.0000000000000000000 ) ) ;
#183 = CARTESIAN_POINT ( 'NONE',  ( 0.0000000000000000000, 0.0000000000000000000, 6.000000000000000000 ) ) ;
#184 = DIRECTION ( 'NONE',  ( 0.0000000000000000000, 0.0000000000000000000, 1.000000000000000000 ) ) ;
#185 = DIRECTION ( 'NONE',  ( -0.0000000000000000000, -1.000000000000000000, -0.0000000000000000000 ) ) ;
#186 = CARTESIAN_POINT ( 'NONE',  ( 0.0000000000000000000, 0.5000000000000000000, 0.0000000000000000000 ) ) ;
#187 = CARTESIAN_POINT ( 'NONE',  ( 0.0000000000000000000, 0.0000000000000000000, 0.0000000000000000000 ) ) ;
#188 = DIRECTION ( 'NONE',  ( 0.0000000000000000000, 0.0000000000000000000, 1.000000000000000000 ) ) ;
#189 = DIRECTION ( 'NONE',  ( -0.0000000000000000000, 1.000000000000000000, 0.0000000000000000000 ) ) ;
#190 = DIRECTION ( 'NONE',  ( 0.0000000000000000000, 0.0000000000000000000, -1.000000000000000000 ) ) ;
#191 = DIRECTION ( 'NONE',  ( -0.0000000000000000000, 1.000000000000000000, -0.0000000000000000000 ) ) ;
#192 = CARTESIAN_POINT ( 'NONE',  ( 0.0000000000000000000, 0.5000000000000000000, 0.0000000000000000000 ) ) ;
#193 = DIRECTION ( 'NONE',  ( 0.0000000000000000000, 0.0000000000000000000, -1.000000000000000000 ) ) ;
#194 = DIRECTION ( 'NONE',  ( 0.0000000000000000000, 1.000000000000000000, 0.0000000000000000000 ) ) ;
#195 = DIRECTION ( 'NONE',  ( 0.0000000000000000000, -1.000000000000000000, 0.0000000000000000000 ) ) ;
#196 = DIRECTION ( 'NONE',  ( -0.0000000000000000000, 1.000000000000000000, 0.0000000000000000000 ) ) ;
#197 = CARTESIAN_POINT ( 'NONE',  ( 0.0000000000000000000, 0.0000000000000000000, 0.0000000000000000000 ) ) ;
#198 = DIRECTION ( 'NONE',  ( 0.0000000000000000000, 0.0000000000000000000, 1.000000000000000000 ) ) ;
#199 = DIRECTION ( 'NONE',  ( 0.0000000000000000000, -1.000000000000000000, 0.0000000000000000000 ) ) ;
#200 = DIRECTION ( 'NONE',  ( 0.0000000000000000000, -1.000000000000000000, -0.0000000000000000000 ) ) ;
#201 = CARTESIAN_POINT ( 'NONE',  ( 0.0000000000000000000, 22.00000000000000000, 0.0000000000000000000 ) ) ;
#202 = CARTESIAN_POINT ( 'NONE',  ( 0.0000000000000000000, 0.5000000000000000000, 0.0000000000000000000 ) ) ;
#203 = DIRECTION ( 'NONE',  ( 0.0000000000000000000, 0.0000000000000000000, -1.000000000000000000 ) ) ;
#204 = DIRECTION ( 'NONE',  ( -0.0000000000000000000, 1.000000000000000000, -0.0000000000000000000 ) ) ;
#205 = CARTESIAN_POINT ( 'NONE',  ( 0.0000000000000000000, 22.00000000000002100, 0.0000000000000000000 ) ) ;
#206 = DIRECTION ( 'NONE',  ( 0.0000000000000000000, 0.0000000000000000000, -1.000000000000000000 ) ) ;
#207 = CARTESIAN_POINT ( 'NONE',  ( 0.0000000000000000000, 0.5000000000000000000, 0.0000000000000000000 ) ) ;
#208 = DIRECTION ( 'NONE',  ( 0.0000000000000000000, -0.9848077529631100700, -0.1736481779453795100 ) ) ;
#209 = DIRECTION ( 'NONE',  ( 0.0000000000000000000, 0.0000000000000000000, -1.000000000000000000 ) ) ;
#210 = DIRECTION ( 'NONE',  ( 0.0000000000000000000, 0.0000000000000000000, 1.000000000000000000 ) ) ;
#211 = DIRECTION ( 'NONE',  ( 0.0000000000000000000, -1.000000000000000000, 0.0000000000000000000 ) ) ;
#212 = CARTESIAN_POINT ( 'NONE',  ( 0.0000000000000000000, 0.5000000000000000000, 0.0000000000000000000 ) ) ;
#213 = COLOUR_RGB ( '',1.000000000000000000, 1.000000000000000000, 0.5019607843137254800 ) ;
#214 = PRESENTATION_STYLE_ASSIGNMENT (( #115 ) ) ;
#215 = COLOUR_RGB ( '',1.000000000000000000, 1.000000000000000000, 0.5019607843137254800 ) ;
#216 = SHAPE_DEFINITION_REPRESENTATION ( #73, #79 ) ;
#217 = VECTOR ( 'NONE', #120, 1000.000000000000000 ) ;
#218 = VECTOR ( 'NONE', #132, 1000.000000000000000 ) ;
#219 = SURFACE_STYLE_FILL_AREA ( #117 ) ;
#220 = LINE ( 'NONE', #128, #217 ) ;
#221 = VECTOR ( 'NONE', #130, 1000.000000000000000 ) ;
#222 = CIRCLE ( 'NONE', #38, 6.000000000000000000 ) ;
#223 = VECTOR ( 'NONE', #131, 999.9999999999998900 ) ;
#224 = LINE ( 'NONE', #126, #218 ) ;
#225 = VECTOR ( 'NONE', #148, 1000.000000000000000 ) ;
#226 = SURFACE_STYLE_FILL_AREA ( #88 ) ;
#227 = LINE ( 'NONE', #135, #223 ) ;
#228 = LINE ( 'NONE', #149, #225 ) ;
#229 = PRESENTATION_STYLE_ASSIGNMENT (( #86 ) ) ;
#230 = VERTEX_POINT ( 'NONE', #119 ) ;
#231 = CIRCLE ( 'NONE', #37, 7.750000000000000000 ) ;
#232 = VECTOR ( 'NONE', #161, 1000.000000000000000 ) ;
#233 = ORIENTED_EDGE ( 'NONE', *, *, #59, .T. ) ;
#234 = LINE ( 'NONE', #143, #221 ) ;
#235 = CIRCLE ( 'NONE', #62, 6.000000000000000000 ) ;
#236 = CIRCLE ( 'NONE', #40, 6.500000000000000900 ) ;
#237 = LINE ( 'NONE', #157, #232 ) ;
#238 = CIRCLE ( 'NONE', #65, 6.500000000000000900 ) ;
#239 = CIRCLE ( 'NONE', #64, 6.323673018999997500 ) ;
#240 = VECTOR ( 'NONE', #189, 1000.000000000000000 ) ;
#241 = CIRCLE ( 'NONE', #63, 6.500000000000000900 ) ;
#242 = LINE ( 'NONE', #183, #240 ) ;
#243 = CIRCLE ( 'NONE', #67, 6.000000000000000000 ) ;
#244 = CIRCLE ( 'NONE', #20, 7.750000000000000000 ) ;
#245 = CIRCLE ( 'NONE', #14, 6.500000000000000900 ) ;
#246 = CIRCLE ( 'NONE', #68, 7.750000000000000000 ) ;
#247 = CIRCLE ( 'NONE', #70, 7.750000000000000000 ) ;
#248 = CONICAL_SURFACE ( 'NONE', #61, 6.323673019000000100, 0.1745329254821776400 ) ;
#249 = VECTOR ( 'NONE', #208, 999.9999999999998900 ) ;
#250 = CIRCLE ( 'NONE', #69, 6.000000000000000000 ) ;
#251 = LINE ( 'NONE', #93, #249 ) ;
#252 = CYLINDRICAL_SURFACE ( 'NONE', #60, 6.000000000000000000 ) ;
#253 = FACE_BOUND ( 'NONE', #342, .T. ) ;
#254 = CIRCLE ( 'NONE', #66, 6.323673018999997500 ) ;
#255 = FACE_OUTER_BOUND ( 'NONE', #277, .T. ) ;
#256 = CONICAL_SURFACE ( 'NONE', #26, 6.323673019000000100, 0.1745329254821776400 ) ;
#257 = FACE_BOUND ( 'NONE', #273, .T. ) ;
#258 = FACE_OUTER_BOUND ( 'NONE', #278, .T. ) ;
#259 = FACE_OUTER_BOUND ( 'NONE', #284, .T. ) ;
#260 = FACE_OUTER_BOUND ( 'NONE', #285, .T. ) ;
#261 = FACE_OUTER_BOUND ( 'NONE', #280, .T. ) ;
#262 = CYLINDRICAL_SURFACE ( 'NONE', #19, 6.000000000000000000 ) ;
#263 = CYLINDRICAL_SURFACE ( 'NONE', #18, 6.500000000000000900 ) ;
#264 = CYLINDRICAL_SURFACE ( 'NONE', #25, 6.500000000000000900 ) ;
#265 = FACE_BOUND ( 'NONE', #282, .T. ) ;
#266 = CYLINDRICAL_SURFACE ( 'NONE', #13, 7.750000000000000000 ) ;
#267 = FACE_OUTER_BOUND ( 'NONE', #279, .T. ) ;
#268 = CYLINDRICAL_SURFACE ( 'NONE', #27, 7.750000000000000000 ) ;
#269 = FACE_OUTER_BOUND ( 'NONE', #281, .T. ) ;
#270 = FACE_OUTER_BOUND ( 'NONE', #283, .T. ) ;
#271 = FACE_OUTER_BOUND ( 'NONE', #276, .T. ) ;
#272 = FACE_OUTER_BOUND ( 'NONE', #274, .T. ) ;
#273 = EDGE_LOOP ( 'NONE', ( #300, #297 ) ) ;
#274 = EDGE_LOOP ( 'NONE', ( #323, #339, #311, #295 ) ) ;
#275 = EDGE_LOOP ( 'NONE', ( #322, #308, #317, #327 ) ) ;
#276 = EDGE_LOOP ( 'NONE', ( #316, #313, #299, #298 ) ) ;
#277 = EDGE_LOOP ( 'NONE', ( #296, #321 ) ) ;
#278 = EDGE_LOOP ( 'NONE', ( #314, #290, #287, #292 ) ) ;
#279 = EDGE_LOOP ( 'NONE', ( #343, #293, #288, #305 ) ) ;
#280 = EDGE_LOOP ( 'NONE', ( #289, #286 ) ) ;
#281 = EDGE_LOOP ( 'NONE', ( #307, #301, #309, #302 ) ) ;
#282 = EDGE_LOOP ( 'NONE', ( #328, #325 ) ) ;
#283 = EDGE_LOOP ( 'NONE', ( #310, #306, #294, #341 ) ) ;
#284 = EDGE_LOOP ( 'NONE', ( #340, #304 ) ) ;
#285 = EDGE_LOOP ( 'NONE', ( #324, #233, #312, #320 ) ) ;
#286 = ORIENTED_EDGE ( 'NONE', *, *, #44, .T. ) ;
#287 = ORIENTED_EDGE ( 'NONE', *, *, #28, .T. ) ;
#288 = ORIENTED_EDGE ( 'NONE', *, *, #39, .T. ) ;
#289 = ORIENTED_EDGE ( 'NONE', *, *, #29, .T. ) ;
#290 = ORIENTED_EDGE ( 'NONE', *, *, #29, .F. ) ;
#291 = CLOSED_SHELL ( 'NONE', ( #6, #7, #9, #1, #10, #5, #3, #4, #11, #8, #2 ) ) ;
#292 = ORIENTED_EDGE ( 'NONE', *, *, #47, .F. ) ;
#293 = ORIENTED_EDGE ( 'NONE', *, *, #43, .T. ) ;
#294 = ORIENTED_EDGE ( 'NONE', *, *, #45, .T. ) ;
#295 = ORIENTED_EDGE ( 'NONE', *, *, #48, .F. ) ;
#296 = ORIENTED_EDGE ( 'NONE', *, *, #31, .T. ) ;
#297 = ORIENTED_EDGE ( 'NONE', *, *, #43, .F. ) ;
#298 = ORIENTED_EDGE ( 'NONE', *, *, #36, .F. ) ;
#299 = ORIENTED_EDGE ( 'NONE', *, *, #48, .T. ) ;
#300 = ORIENTED_EDGE ( 'NONE', *, *, #55, .F. ) ;
#301 = ORIENTED_EDGE ( 'NONE', *, *, #35, .F. ) ;
#302 = ORIENTED_EDGE ( 'NONE', *, *, #47, .T. ) ;
#303 = ORIENTED_EDGE ( 'NONE', *, *, #46, .T. ) ;
#304 = ORIENTED_EDGE ( 'NONE', *, *, #32, .T. ) ;
#305 = ORIENTED_EDGE ( 'NONE', *, *, #49, .F. ) ;
#306 = ORIENTED_EDGE ( 'NONE', *, *, #51, .T. ) ;
#307 = ORIENTED_EDGE ( 'NONE', *, *, #51, .F. ) ;
#308 = ORIENTED_EDGE ( 'NONE', *, *, #52, .T. ) ;
#309 = ORIENTED_EDGE ( 'NONE', *, *, #53, .T. ) ;
#310 = ORIENTED_EDGE ( 'NONE', *, *, #46, .F. ) ;
#311 = ORIENTED_EDGE ( 'NONE', *, *, #31, .F. ) ;
#312 = ORIENTED_EDGE ( 'NONE', *, *, #30, .F. ) ;
#313 = ORIENTED_EDGE ( 'NONE', *, *, #50, .F. ) ;
#314 = ORIENTED_EDGE ( 'NONE', *, *, #52, .F. ) ;
#315 = VERTEX_POINT ( 'NONE', #110 ) ;
#316 = ORIENTED_EDGE ( 'NONE', *, *, #57, .F. ) ;
#317 = ORIENTED_EDGE ( 'NONE', *, *, #45, .F. ) ;
#318 = VERTEX_POINT ( 'NONE', #127 ) ;
#319 = VERTEX_POINT ( 'NONE', #118 ) ;
#320 = ORIENTED_EDGE ( 'NONE', *, *, #39, .F. ) ;
#321 = ORIENTED_EDGE ( 'NONE', *, *, #36, .T. ) ;
#322 = ORIENTED_EDGE ( 'NONE', *, *, #44, .F. ) ;
#323 = ORIENTED_EDGE ( 'NONE', *, *, #32, .F. ) ;
#324 = ORIENTED_EDGE ( 'NONE', *, *, #55, .T. ) ;
#325 = ORIENTED_EDGE ( 'NONE', *, *, #49, .T. ) ;
#326 = ORIENTED_EDGE ( 'NONE', *, *, #35, .T. ) ;
#327 = ORIENTED_EDGE ( 'NONE', *, *, #28, .F. ) ;
#328 = ORIENTED_EDGE ( 'NONE', *, *, #30, .T. ) ;
#329 = VERTEX_POINT ( 'NONE', #105 ) ;
#330 = VERTEX_POINT ( 'NONE', #106 ) ;
#331 = VERTEX_POINT ( 'NONE', #104 ) ;
#332 = VERTEX_POINT ( 'NONE', #108 ) ;
#333 = FACE_OUTER_BOUND ( 'NONE', #275, .T. ) ;
#334 = VERTEX_POINT ( 'NONE', #103 ) ;
#335 = VERTEX_POINT ( 'NONE', #107 ) ;
#336 = VERTEX_POINT ( 'NONE', #101 ) ;
#337 = VERTEX_POINT ( 'NONE', #109 ) ;
#338 = VERTEX_POINT ( 'NONE', #100 ) ;
#339 = ORIENTED_EDGE ( 'NONE', *, *, #57, .T. ) ;
#340 = ORIENTED_EDGE ( 'NONE', *, *, #50, .T. ) ;
#341 = ORIENTED_EDGE ( 'NONE', *, *, #53, .F. ) ;
#342 = EDGE_LOOP ( 'NONE', ( #326, #303 ) ) ;
#343 = ORIENTED_EDGE ( 'NONE', *, *, #59, .F. ) ;
#344 = VERTEX_POINT ( 'NONE', #95 ) ;
ENDSEC;
END-ISO-10303-21;
