ISO-10303-21;
HEADER;
FILE_DESCRIPTION (( 'STEP AP214' ),
    '1' );
FILE_NAME ('1077000017E00A.STEP',
    '2013-02-25T17:28:15',
    ( '' ),
    ( '' ),
    'SwSTEP 2.0',
    'SolidWorks 2012',
    '' );
FILE_SCHEMA (( 'AUTOMOTIVE_DESIGN' ));
ENDSEC;

DATA;
#1 = AXIS2_PLACEMENT_3D ( 'NONE', #84, #83, #78 ) ;
#2 = AXIS2_PLACEMENT_3D ( 'NONE', #148, #168, #163 ) ;
#3 = AXIS2_PLACEMENT_3D ( 'NONE', #190, #189, #188 ) ;
#4 = AXIS2_PLACEMENT_3D ( 'NONE', #146, #145, #169 ) ;
#5 = AXIS2_PLACEMENT_3D ( 'NONE', #143, #144, #139 ) ;
#6 = AXIS2_PLACEMENT_3D ( 'NONE', #98, #95, #93 ) ;
#7 = AXIS2_PLACEMENT_3D ( 'NONE', #178, #177, #176 ) ;
#8 = AXIS2_PLACEMENT_3D ( 'NONE', #121, #120, #116 ) ;
#9 = AXIS2_PLACEMENT_3D ( 'NONE', #161, #159, #158 ) ;
#10 = AXIS2_PLACEMENT_3D ( 'NONE', #150, #149, #147 ) ;
#11 = EDGE_CURVE ( 'NONE', #335, #340, #270, .T. ) ;
#12 = AXIS2_PLACEMENT_3D ( 'NONE', #181, #185, #170 ) ;
#13 = EDGE_CURVE ( 'NONE', #326, #329, #342, .T. ) ;
#14 = EDGE_CURVE ( 'NONE', #337, #327, #271, .T. ) ;
#15 = EDGE_CURVE ( 'NONE', #327, #337, #269, .T. ) ;
#16 = EDGE_CURVE ( 'NONE', #341, #339, #267, .T. ) ;
#17 = EDGE_CURVE ( 'NONE', #344, #341, #268, .T. ) ;
#18 = AXIS2_PLACEMENT_3D ( 'NONE', #112, #111, #113 ) ;
#19 = EDGE_CURVE ( 'NONE', #339, #330, #266, .T. ) ;
#20 =( GEOMETRIC_REPRESENTATION_CONTEXT ( 3 ) GLOBAL_UNCERTAINTY_ASSIGNED_CONTEXT ( ( #63 ) ) GLOBAL_UNIT_ASSIGNED_CONTEXT ( ( #153, #152, #151 ) ) REPRESENTATION_CONTEXT ( 'NONE', 'WORKASPACE' ) );
#21 = PRESENTATION_LAYER_ASSIGNMENT (  '', '', ( #28 ) ) ;
#22 = AXIS2_PLACEMENT_3D ( 'NONE', #131, #136, #133 ) ;
#23 = AXIS2_PLACEMENT_3D ( 'NONE', #128, #127, #130 ) ;
#24 = EDGE_CURVE ( 'NONE', #329, #326, #264, .T. ) ;
#25 = MECHANICAL_DESIGN_GEOMETRIC_PRESENTATION_REPRESENTATION (  '', ( #28 ), #20 ) ;
#26 = AXIS2_PLACEMENT_3D ( 'NONE', #115, #114, #117 ) ;
#27 = AXIS2_PLACEMENT_3D ( 'NONE', #195, #194, #193 ) ;
#28 = STYLED_ITEM ( 'NONE', ( #238 ), #65 ) ;
#29 = PRODUCT_RELATED_PRODUCT_CATEGORY ( 'part', '', ( #201 ) ) ;
#30 = PRODUCT_DEFINITION_FORMATION_WITH_SPECIFIED_SOURCE ( 'TUTTO', '', #201, .NOT_KNOWN. ) ;
#31 = PRODUCT_DEFINITION ( 'NON CONOSCIUTO', '', #30, #62 ) ;
#32 = AXIS2_PLACEMENT_3D ( 'NONE', #199, #198, #197 ) ;
#33 = AXIS2_PLACEMENT_3D ( 'NONE', #70, #69, #68 ) ;
#34 =( GEOMETRIC_REPRESENTATION_CONTEXT ( 3 ) GLOBAL_UNCERTAINTY_ASSIGNED_CONTEXT ( ( #64 ) ) GLOBAL_UNIT_ASSIGNED_CONTEXT ( ( #89, #86, #85 ) ) REPRESENTATION_CONTEXT ( 'NONE', 'WORKASPACE' ) );
#35 = AXIS2_PLACEMENT_3D ( 'NONE', #167, #166, #165 ) ;
#36 = AXIS2_PLACEMENT_3D ( 'NONE', #162, #160, #156 ) ;
#37 = AXIS2_PLACEMENT_3D ( 'NONE', #173, #172, #171 ) ;
#38 =( GEOMETRIC_REPRESENTATION_CONTEXT ( 3 ) GLOBAL_UNCERTAINTY_ASSIGNED_CONTEXT ( ( #67 ) ) GLOBAL_UNIT_ASSIGNED_CONTEXT ( ( #73, #72, #71 ) ) REPRESENTATION_CONTEXT ( 'NONE', 'WORKASPACE' ) );
#39 = MECHANICAL_DESIGN_GEOMETRIC_PRESENTATION_REPRESENTATION (  '', ( #41 ), #38 ) ;
#40 = PRESENTATION_LAYER_ASSIGNMENT (  '', '', ( #41 ) ) ;
#41 = STYLED_ITEM ( 'NONE', ( #218 ), #66 ) ;
#42 = AXIS2_PLACEMENT_3D ( 'NONE', #125, #126, #119 ) ;
#43 = AXIS2_PLACEMENT_3D ( 'NONE', #109, #108, #110 ) ;
#44 = AXIS2_PLACEMENT_3D ( 'NONE', #138, #140, #132 ) ;
#45 = EDGE_CURVE ( 'NONE', #337, #335, #263, .T. ) ;
#46 = EDGE_CURVE ( 'NONE', #327, #340, #262, .T. ) ;
#47 = EDGE_CURVE ( 'NONE', #336, #318, #261, .T. ) ;
#48 = EDGE_CURVE ( 'NONE', #328, #222, #259, .T. ) ;
#49 = EDGE_CURVE ( 'NONE', #340, #335, #257, .T. ) ;
#50 = EDGE_CURVE ( 'NONE', #336, #335, #256, .T. ) ;
#51 = EDGE_CURVE ( 'NONE', #326, #328, #254, .T. ) ;
#52 = EDGE_CURVE ( 'NONE', #318, #340, #252, .T. ) ;
#53 = EDGE_CURVE ( 'NONE', #344, #330, #250, .T. ) ;
#54 = EDGE_CURVE ( 'NONE', #329, #222, #255, .T. ) ;
#55 = EDGE_CURVE ( 'NONE', #222, #328, #246, .T. ) ;
#56 = EDGE_CURVE ( 'NONE', #318, #336, #244, .T. ) ;
#57 = EDGE_CURVE ( 'NONE', #341, #344, #243, .T. ) ;
#58 = EDGE_CURVE ( 'NONE', #330, #339, #242, .T. ) ;
#59 = AXIS2_PLACEMENT_3D ( 'NONE', #118, #124, #122 ) ;
#60 = AXIS2_PLACEMENT_3D ( 'NONE', #142, #137, #134 ) ;
#61 = PRODUCT_DEFINITION_SHAPE ( 'NONE', 'NONE',  #31 ) ;
#62 = PRODUCT_DEFINITION_CONTEXT ( 'detailed design', #174, 'design' ) ;
#63 = UNCERTAINTY_MEASURE_WITH_UNIT (LENGTH_MEASURE( 1.000000000000000100E-005 ), #153, 'distance_accuracy_value', 'NONE');
#64 = UNCERTAINTY_MEASURE_WITH_UNIT (LENGTH_MEASURE( 1.000000000000000100E-005 ), #89, 'distance_accuracy_value', 'NONE');
#65 = MANIFOLD_SOLID_BREP ( 'Importato1', #334 ) ;
#66 = ADVANCED_BREP_SHAPE_REPRESENTATION ( '1077000017E00A', ( #65, #33 ), #34 ) ;
#67 = UNCERTAINTY_MEASURE_WITH_UNIT (LENGTH_MEASURE( 1.000000000000000100E-005 ), #73, 'distance_accuracy_value', 'NONE');
#68 = DIRECTION ( 'NONE',  ( 1.000000000000000000, 0.0000000000000000000, 0.0000000000000000000 ) ) ;
#69 = DIRECTION ( 'NONE',  ( 0.0000000000000000000, 0.0000000000000000000, 1.000000000000000000 ) ) ;
#70 = CARTESIAN_POINT ( 'NONE',  ( 0.0000000000000000000, 0.0000000000000000000, 0.0000000000000000000 ) ) ;
#71 =( NAMED_UNIT ( * ) SI_UNIT ( $, .STERADIAN. ) SOLID_ANGLE_UNIT ( ) );
#72 =( NAMED_UNIT ( * ) PLANE_ANGLE_UNIT ( ) SI_UNIT ( $, .RADIAN. ) );
#73 =( LENGTH_UNIT ( ) NAMED_UNIT ( * ) SI_UNIT ( .MILLI., .METRE. ) );
#74 = PRODUCT_CONTEXT ( 'NONE', #81, 'mechanical' ) ;
#75 = DIRECTION ( 'NONE',  ( 2.126576852985772900E-017, -0.9848077529631101800, 0.1736481779453780700 ) ) ;
#76 = CARTESIAN_POINT ( 'NONE',  ( 0.0000000000000000000, 23.00000000000000000, -7.323673019000000100 ) ) ;
#77 = SURFACE_STYLE_USAGE ( .BOTH. , #79 ) ;
#78 = DIRECTION ( 'NONE',  ( 0.0000000000000000000, 0.0000000000000000000, 1.000000000000000000 ) ) ;
#79 = SURFACE_SIDE_STYLE ('',( #217 ) ) ;
#80 = FILL_AREA_STYLE ('',( #96 ) ) ;
#81 = APPLICATION_CONTEXT ( 'automotive_design' ) ;
#82 = APPLICATION_PROTOCOL_DEFINITION ( 'draft international standard', 'automotive_design', 1998, #81 ) ;
#83 = DIRECTION ( 'NONE',  ( -0.0000000000000000000, -1.000000000000000000, -0.0000000000000000000 ) ) ;
#84 = CARTESIAN_POINT ( 'NONE',  ( 0.0000000000000000000, 0.0000000000000000000, 0.0000000000000000000 ) ) ;
#85 =( NAMED_UNIT ( * ) SI_UNIT ( $, .STERADIAN. ) SOLID_ANGLE_UNIT ( ) );
#86 =( NAMED_UNIT ( * ) PLANE_ANGLE_UNIT ( ) SI_UNIT ( $, .RADIAN. ) );
#87 = APPLICATION_PROTOCOL_DEFINITION ( 'draft international standard', 'automotive_design', 1998, #174 ) ;
#88 = CARTESIAN_POINT ( 'NONE',  ( 8.968912720720183400E-016, 23.00000000000000000, 7.323673019000000100 ) ) ;
#89 =( LENGTH_UNIT ( ) NAMED_UNIT ( * ) SI_UNIT ( .MILLI., .METRE. ) );
#90 = CARTESIAN_POINT ( 'NONE',  ( 1.071565949253934100E-015, 1.000000000000000000, 8.750000000000000000 ) ) ;
#91 = CARTESIAN_POINT ( 'NONE',  ( 0.0000000000000000000, 1.000000000000000000, -8.750000000000000000 ) ) ;
#92 = CARTESIAN_POINT ( 'NONE',  ( 0.0000000000000000000, 22.00000000000002100, 7.500000000000000000 ) ) ;
#93 = DIRECTION ( 'NONE',  ( 0.0000000000000000000, 0.0000000000000000000, -1.000000000000000000 ) ) ;
#94 = CARTESIAN_POINT ( 'NONE',  ( 0.0000000000000000000, 0.0000000000000000000, -8.750000000000000000 ) ) ;
#95 = DIRECTION ( 'NONE',  ( 0.0000000000000000000, -1.000000000000000000, 0.0000000000000000000 ) ) ;
#96 = FILL_AREA_STYLE_COLOUR ( '', #216 ) ;
#97 = CARTESIAN_POINT ( 'NONE',  ( 0.0000000000000000000, 22.99999999999990800, -7.323673019000016100 ) ) ;
#98 = CARTESIAN_POINT ( 'NONE',  ( 0.0000000000000000000, 0.0000000000000000000, 0.0000000000000000000 ) ) ;
#99 = CARTESIAN_POINT ( 'NONE',  ( 9.184850993605147900E-016, 22.00000000000002100, -7.500000000000000000 ) ) ;
#100 = CARTESIAN_POINT ( 'NONE',  ( 0.0000000000000000000, 0.0000000000000000000, 7.000000000000000000 ) ) ;
#101 = CARTESIAN_POINT ( 'NONE',  ( 9.076881857162674500E-016, 22.99999999999990800, 7.323673019000016100 ) ) ;
#102 = CARTESIAN_POINT ( 'NONE',  ( 9.184850993605147900E-016, 1.000000000000000000, -7.500000000000000000 ) ) ;
#103 = CARTESIAN_POINT ( 'NONE',  ( 1.071565949253934100E-015, 0.0000000000000000000, 8.750000000000000000 ) ) ;
#104 = CARTESIAN_POINT ( 'NONE',  ( 8.572527594031473200E-016, 23.00000000000000000, -7.000000000000000000 ) ) ;
#105 = CARTESIAN_POINT ( 'NONE',  ( 0.0000000000000000000, 23.00000000000000000, 7.000000000000000000 ) ) ;
#106 = CARTESIAN_POINT ( 'NONE',  ( 8.572527594031473200E-016, 0.0000000000000000000, -7.000000000000000000 ) ) ;
#107 = CARTESIAN_POINT ( 'NONE',  ( 0.0000000000000000000, 1.000000000000000000, 7.500000000000000000 ) ) ;
#108 = DIRECTION ( 'NONE',  ( 0.0000000000000000000, 1.000000000000000000, 0.0000000000000000000 ) ) ;
#109 = CARTESIAN_POINT ( 'NONE',  ( 0.0000000000000000000, 0.0000000000000000000, 0.0000000000000000000 ) ) ;
#110 = DIRECTION ( 'NONE',  ( 0.0000000000000000000, 0.0000000000000000000, 1.000000000000000000 ) ) ;
#111 = DIRECTION ( 'NONE',  ( 0.0000000000000000000, 1.000000000000000000, 0.0000000000000000000 ) ) ;
#112 = CARTESIAN_POINT ( 'NONE',  ( 0.0000000000000000000, 1.000000000000000000, 0.0000000000000000000 ) ) ;
#113 = DIRECTION ( 'NONE',  ( 0.0000000000000000000, 0.0000000000000000000, 1.000000000000000000 ) ) ;
#114 = DIRECTION ( 'NONE',  ( 0.0000000000000000000, 1.000000000000000000, 0.0000000000000000000 ) ) ;
#115 = CARTESIAN_POINT ( 'NONE',  ( 0.0000000000000000000, 0.0000000000000000000, 0.0000000000000000000 ) ) ;
#116 = DIRECTION ( 'NONE',  ( 0.0000000000000000000, 0.0000000000000000000, -1.000000000000000000 ) ) ;
#117 = DIRECTION ( 'NONE',  ( 0.0000000000000000000, 0.0000000000000000000, 1.000000000000000000 ) ) ;
#118 = CARTESIAN_POINT ( 'NONE',  ( 0.0000000000000000000, 23.00000000000000000, 0.0000000000000000000 ) ) ;
#119 = DIRECTION ( 'NONE',  ( -1.000000000000000000, 0.0000000000000000000, 0.0000000000000000000 ) ) ;
#120 = DIRECTION ( 'NONE',  ( -0.0000000000000000000, 1.000000000000000000, -0.0000000000000000000 ) ) ;
#121 = CARTESIAN_POINT ( 'NONE',  ( 0.0000000000000000000, 1.000000000000000000, 0.0000000000000000000 ) ) ;
#122 = DIRECTION ( 'NONE',  ( 0.0000000000000000000, 0.0000000000000000000, -1.000000000000000000 ) ) ;
#123 = PLANE ( 'NONE',  #42 ) ;
#124 = DIRECTION ( 'NONE',  ( 0.0000000000000000000, -1.000000000000000000, 0.0000000000000000000 ) ) ;
#125 = CARTESIAN_POINT ( 'NONE',  ( 7.411557095000000900, 23.00000000000000000, -7.411557095000000900 ) ) ;
#126 = DIRECTION ( 'NONE',  ( 0.0000000000000000000, 1.000000000000000000, -0.0000000000000000000 ) ) ;
#127 = DIRECTION ( 'NONE',  ( 0.0000000000000000000, 1.000000000000000000, 0.0000000000000000000 ) ) ;
#128 = CARTESIAN_POINT ( 'NONE',  ( 0.0000000000000000000, 1.000000000000000000, 0.0000000000000000000 ) ) ;
#129 = DIRECTION ( 'NONE',  ( 0.0000000000000000000, -0.9848077529631101800, -0.1736481779453780700 ) ) ;
#130 = DIRECTION ( 'NONE',  ( 0.0000000000000000000, 0.0000000000000000000, 1.000000000000000000 ) ) ;
#131 = CARTESIAN_POINT ( 'NONE',  ( 0.0000000000000000000, 1.000000000000000000, 0.0000000000000000000 ) ) ;
#132 = DIRECTION ( 'NONE',  ( 1.000000000000000000, 0.0000000000000000000, 0.0000000000000000000 ) ) ;
#133 = DIRECTION ( 'NONE',  ( 0.0000000000000000000, 0.0000000000000000000, -1.000000000000000000 ) ) ;
#134 = DIRECTION ( 'NONE',  ( 0.0000000000000000000, 0.0000000000000000000, -1.000000000000000000 ) ) ;
#135 = PLANE ( 'NONE',  #44 ) ;
#136 = DIRECTION ( 'NONE',  ( 0.0000000000000000000, -1.000000000000000000, 0.0000000000000000000 ) ) ;
#137 = DIRECTION ( 'NONE',  ( -0.0000000000000000000, 1.000000000000000000, -0.0000000000000000000 ) ) ;
#138 = CARTESIAN_POINT ( 'NONE',  ( -8.855000000000002200, 0.0000000000000000000, -8.855000000000002200 ) ) ;
#139 = DIRECTION ( 'NONE',  ( -1.000000000000000000, 0.0000000000000000000, 0.0000000000000000000 ) ) ;
#140 = DIRECTION ( 'NONE',  ( 0.0000000000000000000, -1.000000000000000000, 0.0000000000000000000 ) ) ;
#141 = PLANE ( 'NONE',  #5 ) ;
#142 = CARTESIAN_POINT ( 'NONE',  ( 0.0000000000000000000, 22.99999999999990800, 0.0000000000000000000 ) ) ;
#143 = CARTESIAN_POINT ( 'NONE',  ( 8.855000000000002200, 1.000000000000000000, -8.855000000000002200 ) ) ;
#144 = DIRECTION ( 'NONE',  ( 0.0000000000000000000, 1.000000000000000000, -0.0000000000000000000 ) ) ;
#145 = DIRECTION ( 'NONE',  ( 0.0000000000000000000, -1.000000000000000000, 0.0000000000000000000 ) ) ;
#146 = CARTESIAN_POINT ( 'NONE',  ( 0.0000000000000000000, 1.000000000000000000, 0.0000000000000000000 ) ) ;
#147 = DIRECTION ( 'NONE',  ( 0.0000000000000000000, 0.0000000000000000000, -1.000000000000000000 ) ) ;
#148 = CARTESIAN_POINT ( 'NONE',  ( 0.0000000000000000000, 23.00000000000000000, 0.0000000000000000000 ) ) ;
#149 = DIRECTION ( 'NONE',  ( -0.0000000000000000000, 1.000000000000000000, -0.0000000000000000000 ) ) ;
#150 = CARTESIAN_POINT ( 'NONE',  ( 0.0000000000000000000, 22.99999999999990800, 0.0000000000000000000 ) ) ;
#151 =( NAMED_UNIT ( * ) SI_UNIT ( $, .STERADIAN. ) SOLID_ANGLE_UNIT ( ) );
#152 =( NAMED_UNIT ( * ) PLANE_ANGLE_UNIT ( ) SI_UNIT ( $, .RADIAN. ) );
#153 =( LENGTH_UNIT ( ) NAMED_UNIT ( * ) SI_UNIT ( .MILLI., .METRE. ) );
#154 = SURFACE_STYLE_USAGE ( .BOTH. , #155 ) ;
#155 = SURFACE_SIDE_STYLE ('',( #239 ) ) ;
#156 = DIRECTION ( 'NONE',  ( 0.0000000000000000000, 0.0000000000000000000, -1.000000000000000000 ) ) ;
#157 = DIRECTION ( 'NONE',  ( 0.0000000000000000000, -1.000000000000000000, 0.0000000000000000000 ) ) ;
#158 = DIRECTION ( 'NONE',  ( 0.0000000000000000000, 0.0000000000000000000, 1.000000000000000000 ) ) ;
#159 = DIRECTION ( 'NONE',  ( -0.0000000000000000000, -1.000000000000000000, -0.0000000000000000000 ) ) ;
#160 = DIRECTION ( 'NONE',  ( 0.0000000000000000000, -1.000000000000000000, 0.0000000000000000000 ) ) ;
#161 = CARTESIAN_POINT ( 'NONE',  ( 0.0000000000000000000, 0.0000000000000000000, 0.0000000000000000000 ) ) ;
#162 = CARTESIAN_POINT ( 'NONE',  ( 0.0000000000000000000, 0.0000000000000000000, 0.0000000000000000000 ) ) ;
#163 = DIRECTION ( 'NONE',  ( 0.0000000000000000000, 0.0000000000000000000, -1.000000000000000000 ) ) ;
#164 = FILL_AREA_STYLE ('',( #175 ) ) ;
#165 = DIRECTION ( 'NONE',  ( 0.0000000000000000000, 0.0000000000000000000, -1.000000000000000000 ) ) ;
#166 = DIRECTION ( 'NONE',  ( -0.0000000000000000000, 1.000000000000000000, -0.0000000000000000000 ) ) ;
#167 = CARTESIAN_POINT ( 'NONE',  ( 0.0000000000000000000, 1.000000000000000000, 0.0000000000000000000 ) ) ;
#168 = DIRECTION ( 'NONE',  ( 0.0000000000000000000, -1.000000000000000000, 0.0000000000000000000 ) ) ;
#169 = DIRECTION ( 'NONE',  ( 0.0000000000000000000, 0.0000000000000000000, -1.000000000000000000 ) ) ;
#170 = DIRECTION ( 'NONE',  ( 0.0000000000000000000, -2.775557561562891400E-015, -1.000000000000000000 ) ) ;
#171 = DIRECTION ( 'NONE',  ( 0.0000000000000000000, 0.0000000000000000000, 1.000000000000000000 ) ) ;
#172 = DIRECTION ( 'NONE',  ( -0.0000000000000000000, -1.000000000000000000, -0.0000000000000000000 ) ) ;
#173 = CARTESIAN_POINT ( 'NONE',  ( 0.0000000000000000000, 1.000000000000000000, 0.0000000000000000000 ) ) ;
#174 = APPLICATION_CONTEXT ( 'automotive_design' ) ;
#175 = FILL_AREA_STYLE_COLOUR ( '', #248 ) ;
#176 = DIRECTION ( 'NONE',  ( 0.0000000000000000000, 0.0000000000000000000, 1.000000000000000000 ) ) ;
#177 = DIRECTION ( 'NONE',  ( -0.0000000000000000000, -1.000000000000000000, -0.0000000000000000000 ) ) ;
#178 = CARTESIAN_POINT ( 'NONE',  ( 0.0000000000000000000, 23.00000000000000000, 0.0000000000000000000 ) ) ;
#179 = DIRECTION ( 'NONE',  ( 0.0000000000000000000, 1.000000000000000000, 0.0000000000000000000 ) ) ;
#180 = DIRECTION ( 'NONE',  ( 0.0000000000000000000, -1.000000000000000000, 0.0000000000000000000 ) ) ;
#181 = CARTESIAN_POINT ( 'NONE',  ( 0.0000000000000000000, 22.00000000000002100, 0.0000000000000000000 ) ) ;
#182 = CARTESIAN_POINT ( 'NONE',  ( 1.071565949253934100E-015, 1.000000000000000000, 8.750000000000000000 ) ) ;
#183 = DIRECTION ( 'NONE',  ( 0.0000000000000000000, 1.000000000000000000, 0.0000000000000000000 ) ) ;
#184 = CARTESIAN_POINT ( 'NONE',  ( 0.0000000000000000000, 1.000000000000000000, 7.500000000000000000 ) ) ;
#185 = DIRECTION ( 'NONE',  ( 0.0000000000000000000, -1.000000000000000000, 0.0000000000000000000 ) ) ;
#186 = DIRECTION ( 'NONE',  ( 0.0000000000000000000, 1.000000000000000000, 0.0000000000000000000 ) ) ;
#187 = CARTESIAN_POINT ( 'NONE',  ( 8.572527594031473200E-016, 0.0000000000000000000, -7.000000000000000000 ) ) ;
#188 = DIRECTION ( 'NONE',  ( 0.0000000000000000000, -2.775557561562891400E-015, -1.000000000000000000 ) ) ;
#189 = DIRECTION ( 'NONE',  ( 0.0000000000000000000, -1.000000000000000000, 0.0000000000000000000 ) ) ;
#190 = CARTESIAN_POINT ( 'NONE',  ( 0.0000000000000000000, 22.00000000000002100, 0.0000000000000000000 ) ) ;
#191 = CARTESIAN_POINT ( 'NONE',  ( 9.184850993605147900E-016, 1.000000000000000000, -7.500000000000000000 ) ) ;
#192 = CARTESIAN_POINT ( 'NONE',  ( 0.0000000000000000000, 0.0000000000000000000, 7.000000000000000000 ) ) ;
#193 = DIRECTION ( 'NONE',  ( 0.0000000000000000000, 0.0000000000000000000, 1.000000000000000000 ) ) ;
#194 = DIRECTION ( 'NONE',  ( -0.0000000000000000000, -1.000000000000000000, -0.0000000000000000000 ) ) ;
#195 = CARTESIAN_POINT ( 'NONE',  ( 0.0000000000000000000, 23.00000000000000000, 0.0000000000000000000 ) ) ;
#196 = CARTESIAN_POINT ( 'NONE',  ( 0.0000000000000000000, 1.000000000000000000, -8.750000000000000000 ) ) ;
#197 = DIRECTION ( 'NONE',  ( 0.0000000000000000000, 0.0000000000000000000, 1.000000000000000000 ) ) ;
#198 = DIRECTION ( 'NONE',  ( -0.0000000000000000000, -1.000000000000000000, -0.0000000000000000000 ) ) ;
#199 = CARTESIAN_POINT ( 'NONE',  ( 0.0000000000000000000, 1.000000000000000000, 0.0000000000000000000 ) ) ;
#200 = DIRECTION ( 'NONE',  ( 0.0000000000000000000, 1.000000000000000000, 0.0000000000000000000 ) ) ;
#201 = PRODUCT ( '1077000017E00A', '1077000017E00A', '', ( #74 ) ) ;
#202 = ADVANCED_FACE ( 'NONE', ( #241 ), #227, .T. ) ;
#203 = ADVANCED_FACE ( 'NONE', ( #232 ), #231, .T. ) ;
#204 = ADVANCED_FACE ( 'NONE', ( #228, #226 ), #141, .T. ) ;
#205 = ADVANCED_FACE ( 'NONE', ( #240, #224 ), #135, .T. ) ;
#206 = ADVANCED_FACE ( 'NONE', ( #225 ), #220, .T. ) ;
#207 = ADVANCED_FACE ( 'NONE', ( #230 ), #215, .T. ) ;
#208 = ADVANCED_FACE ( 'NONE', ( #221, #213 ), #123, .T. ) ;
#209 = ADVANCED_FACE ( 'NONE', ( #223 ), #236, .T. ) ;
#210 = ADVANCED_FACE ( 'NONE', ( #229 ), #219, .F. ) ;
#211 = ADVANCED_FACE ( 'NONE', ( #237 ), #234, .T. ) ;
#212 = ADVANCED_FACE ( 'NONE', ( #277 ), #235, .F. ) ;
#213 = FACE_OUTER_BOUND ( 'NONE', #333, .T. ) ;
#214 = EDGE_LOOP ( 'NONE', ( #313, #317 ) ) ;
#215 = CYLINDRICAL_SURFACE ( 'NONE', #23, 7.500000000000000000 ) ;
#216 = COLOUR_RGB ( '',1.000000000000000000, 1.000000000000000000, 0.5019607843137254800 ) ;
#217 = SURFACE_STYLE_FILL_AREA ( #80 ) ;
#218 = PRESENTATION_STYLE_ASSIGNMENT (( #77 ) ) ;
#219 = CYLINDRICAL_SURFACE ( 'NONE', #26, 7.000000000000000000 ) ;
#220 = CYLINDRICAL_SURFACE ( 'NONE', #22, 8.750000000000000000 ) ;
#221 = FACE_BOUND ( 'NONE', #323, .T. ) ;
#222 = VERTEX_POINT ( 'NONE', #105 ) ;
#223 = FACE_OUTER_BOUND ( 'NONE', #321, .T. ) ;
#224 = FACE_OUTER_BOUND ( 'NONE', #322, .T. ) ;
#225 = FACE_OUTER_BOUND ( 'NONE', #343, .T. ) ;
#226 = FACE_OUTER_BOUND ( 'NONE', #325, .T. ) ;
#227 = CONICAL_SURFACE ( 'NONE', #2, 7.323673019000000100, 0.1745329254821761900 ) ;
#228 = FACE_BOUND ( 'NONE', #332, .T. ) ;
#229 = FACE_OUTER_BOUND ( 'NONE', #314, .T. ) ;
#230 = FACE_OUTER_BOUND ( 'NONE', #324, .T. ) ;
#231 = CYLINDRICAL_SURFACE ( 'NONE', #4, 8.750000000000000000 ) ;
#232 = FACE_OUTER_BOUND ( 'NONE', #315, .T. ) ;
#233 = SHAPE_DEFINITION_REPRESENTATION ( #61, #66 ) ;
#234 = CYLINDRICAL_SURFACE ( 'NONE', #18, 7.500000000000000000 ) ;
#235 = CYLINDRICAL_SURFACE ( 'NONE', #43, 7.000000000000000000 ) ;
#236 = CONICAL_SURFACE ( 'NONE', #59, 7.323673019000000100, 0.1745329254821761900 ) ;
#237 = FACE_OUTER_BOUND ( 'NONE', #320, .T. ) ;
#238 = PRESENTATION_STYLE_ASSIGNMENT (( #154 ) ) ;
#239 = SURFACE_STYLE_FILL_AREA ( #164 ) ;
#240 = FACE_BOUND ( 'NONE', #214, .T. ) ;
#241 = FACE_OUTER_BOUND ( 'NONE', #319, .T. ) ;
#242 = CIRCLE ( 'NONE', #36, 8.750000000000000000 ) ;
#243 = CIRCLE ( 'NONE', #35, 8.750000000000000000 ) ;
#244 = CIRCLE ( 'NONE', #37, 7.500000000000000000 ) ;
#245 = VECTOR ( 'NONE', #179, 1000.000000000000000 ) ;
#246 = CIRCLE ( 'NONE', #7, 7.000000000000000000 ) ;
#247 = VECTOR ( 'NONE', #180, 1000.000000000000000 ) ;
#248 = COLOUR_RGB ( '',1.000000000000000000, 1.000000000000000000, 0.5019607843137254800 ) ;
#249 = VECTOR ( 'NONE', #183, 1000.000000000000000 ) ;
#250 = LINE ( 'NONE', #182, #247 ) ;
#251 = VECTOR ( 'NONE', #186, 1000.000000000000000 ) ;
#252 = LINE ( 'NONE', #184, #249 ) ;
#253 = VECTOR ( 'NONE', #200, 1000.000000000000000 ) ;
#254 = LINE ( 'NONE', #187, #251 ) ;
#255 = LINE ( 'NONE', #192, #245 ) ;
#256 = LINE ( 'NONE', #191, #253 ) ;
#257 = CIRCLE ( 'NONE', #3, 7.500000000000000000 ) ;
#258 = VECTOR ( 'NONE', #75, 1000.000000000000200 ) ;
#259 = CIRCLE ( 'NONE', #27, 7.000000000000000000 ) ;
#260 = VECTOR ( 'NONE', #129, 1000.000000000000200 ) ;
#261 = CIRCLE ( 'NONE', #32, 7.500000000000000000 ) ;
#262 = LINE ( 'NONE', #88, #258 ) ;
#263 = LINE ( 'NONE', #76, #260 ) ;
#264 = CIRCLE ( 'NONE', #1, 7.000000000000000000 ) ;
#265 = VECTOR ( 'NONE', #157, 1000.000000000000000 ) ;
#266 = CIRCLE ( 'NONE', #6, 8.750000000000000000 ) ;
#267 = LINE ( 'NONE', #196, #265 ) ;
#268 = CIRCLE ( 'NONE', #8, 8.750000000000000000 ) ;
#269 = CIRCLE ( 'NONE', #60, 7.323673019000016100 ) ;
#270 = CIRCLE ( 'NONE', #12, 7.500000000000000000 ) ;
#271 = CIRCLE ( 'NONE', #10, 7.323673019000016100 ) ;
#272 = ORIENTED_EDGE ( 'NONE', *, *, #11, .F. ) ;
#273 = ORIENTED_EDGE ( 'NONE', *, *, #15, .F. ) ;
#274 = ORIENTED_EDGE ( 'NONE', *, *, #16, .F. ) ;
#275 = ORIENTED_EDGE ( 'NONE', *, *, #19, .T. ) ;
#276 = ORIENTED_EDGE ( 'NONE', *, *, #46, .T. ) ;
#277 = FACE_OUTER_BOUND ( 'NONE', #331, .T. ) ;
#278 = ORIENTED_EDGE ( 'NONE', *, *, #49, .F. ) ;
#279 = ORIENTED_EDGE ( 'NONE', *, *, #14, .F. ) ;
#280 = ORIENTED_EDGE ( 'NONE', *, *, #45, .T. ) ;
#281 = ORIENTED_EDGE ( 'NONE', *, *, #15, .T. ) ;
#282 = ORIENTED_EDGE ( 'NONE', *, *, #46, .F. ) ;
#283 = ORIENTED_EDGE ( 'NONE', *, *, #48, .T. ) ;
#284 = ORIENTED_EDGE ( 'NONE', *, *, #14, .T. ) ;
#285 = ORIENTED_EDGE ( 'NONE', *, *, #49, .T. ) ;
#286 = ORIENTED_EDGE ( 'NONE', *, *, #55, .T. ) ;
#287 = ORIENTED_EDGE ( 'NONE', *, *, #56, .F. ) ;
#288 = ORIENTED_EDGE ( 'NONE', *, *, #52, .T. ) ;
#289 = ORIENTED_EDGE ( 'NONE', *, *, #48, .F. ) ;
#290 = ORIENTED_EDGE ( 'NONE', *, *, #50, .F. ) ;
#291 = ORIENTED_EDGE ( 'NONE', *, *, #13, .T. ) ;
#292 = ORIENTED_EDGE ( 'NONE', *, *, #54, .T. ) ;
#293 = ORIENTED_EDGE ( 'NONE', *, *, #17, .T. ) ;
#294 = ORIENTED_EDGE ( 'NONE', *, *, #51, .F. ) ;
#295 = ORIENTED_EDGE ( 'NONE', *, *, #47, .T. ) ;
#296 = ORIENTED_EDGE ( 'NONE', *, *, #57, .T. ) ;
#297 = ORIENTED_EDGE ( 'NONE', *, *, #56, .T. ) ;
#298 = ORIENTED_EDGE ( 'NONE', *, *, #50, .T. ) ;
#299 = ORIENTED_EDGE ( 'NONE', *, *, #11, .T. ) ;
#300 = ORIENTED_EDGE ( 'NONE', *, *, #52, .F. ) ;
#301 = ORIENTED_EDGE ( 'NONE', *, *, #24, .T. ) ;
#302 = ORIENTED_EDGE ( 'NONE', *, *, #51, .T. ) ;
#303 = ORIENTED_EDGE ( 'NONE', *, *, #55, .F. ) ;
#304 = ORIENTED_EDGE ( 'NONE', *, *, #54, .F. ) ;
#305 = ORIENTED_EDGE ( 'NONE', *, *, #17, .F. ) ;
#306 = ORIENTED_EDGE ( 'NONE', *, *, #53, .T. ) ;
#307 = ORIENTED_EDGE ( 'NONE', *, *, #19, .F. ) ;
#308 = ORIENTED_EDGE ( 'NONE', *, *, #47, .F. ) ;
#309 = ORIENTED_EDGE ( 'NONE', *, *, #58, .T. ) ;
#310 = ORIENTED_EDGE ( 'NONE', *, *, #45, .F. ) ;
#311 = ORIENTED_EDGE ( 'NONE', *, *, #57, .F. ) ;
#312 = ORIENTED_EDGE ( 'NONE', *, *, #53, .F. ) ;
#313 = ORIENTED_EDGE ( 'NONE', *, *, #24, .F. ) ;
#314 = EDGE_LOOP ( 'NONE', ( #301, #302, #303, #304 ) ) ;
#315 = EDGE_LOOP ( 'NONE', ( #312, #311, #316, #338 ) ) ;
#316 = ORIENTED_EDGE ( 'NONE', *, *, #16, .T. ) ;
#317 = ORIENTED_EDGE ( 'NONE', *, *, #13, .F. ) ;
#318 = VERTEX_POINT ( 'NONE', #107 ) ;
#319 = EDGE_LOOP ( 'NONE', ( #282, #279, #280, #278 ) ) ;
#320 = EDGE_LOOP ( 'NONE', ( #290, #287, #288, #285 ) ) ;
#321 = EDGE_LOOP ( 'NONE', ( #273, #276, #272, #310 ) ) ;
#322 = EDGE_LOOP ( 'NONE', ( #275, #309 ) ) ;
#323 = EDGE_LOOP ( 'NONE', ( #286, #283 ) ) ;
#324 = EDGE_LOOP ( 'NONE', ( #308, #298, #299, #300 ) ) ;
#325 = EDGE_LOOP ( 'NONE', ( #296, #293 ) ) ;
#326 = VERTEX_POINT ( 'NONE', #106 ) ;
#327 = VERTEX_POINT ( 'NONE', #101 ) ;
#328 = VERTEX_POINT ( 'NONE', #104 ) ;
#329 = VERTEX_POINT ( 'NONE', #100 ) ;
#330 = VERTEX_POINT ( 'NONE', #103 ) ;
#331 = EDGE_LOOP ( 'NONE', ( #294, #291, #292, #289 ) ) ;
#332 = EDGE_LOOP ( 'NONE', ( #297, #295 ) ) ;
#333 = EDGE_LOOP ( 'NONE', ( #284, #281 ) ) ;
#334 = CLOSED_SHELL ( 'NONE', ( #209, #207, #210, #206, #202, #208, #211, #212, #204, #205, #203 ) ) ;
#335 = VERTEX_POINT ( 'NONE', #99 ) ;
#336 = VERTEX_POINT ( 'NONE', #102 ) ;
#337 = VERTEX_POINT ( 'NONE', #97 ) ;
#338 = ORIENTED_EDGE ( 'NONE', *, *, #58, .F. ) ;
#339 = VERTEX_POINT ( 'NONE', #94 ) ;
#340 = VERTEX_POINT ( 'NONE', #92 ) ;
#341 = VERTEX_POINT ( 'NONE', #91 ) ;
#342 = CIRCLE ( 'NONE', #9, 7.000000000000000000 ) ;
#343 = EDGE_LOOP ( 'NONE', ( #305, #306, #307, #274 ) ) ;
#344 = VERTEX_POINT ( 'NONE', #90 ) ;
ENDSEC;
END-ISO-10303-21;
