ISO-10303-21;
HEADER;
FILE_DESCRIPTION (( 'STEP AP214' ),
    '1' );
FILE_NAME ('1077000018E00A.STEP',
    '2013-02-25T17:27:59',
    ( '' ),
    ( '' ),
    'SwSTEP 2.0',
    'SolidWorks 2012',
    '' );
FILE_SCHEMA (( 'AUTOMOTIVE_DESIGN' ));
ENDSEC;

DATA;
#1 = PRODUCT_RELATED_PRODUCT_CATEGORY ( 'part', '', ( #201 ) ) ;
#2 = PRODUCT_DEFINITION_FORMATION_WITH_SPECIFIED_SOURCE ( 'TUTTO', '', #201, .NOT_KNOWN. ) ;
#3 = PRODUCT_DEFINITION ( 'NON CONOSCIUTO', '', #2, #62 ) ;
#4 = AXIS2_PLACEMENT_3D ( 'NONE', #192, #82, #114 ) ;
#5 =( GEOMETRIC_REPRESENTATION_CONTEXT ( 3 ) GLOBAL_UNCERTAINTY_ASSIGNED_CONTEXT ( ( #63 ) ) GLOBAL_UNIT_ASSIGNED_CONTEXT ( ( #96, #170, #69 ) ) REPRESENTATION_CONTEXT ( 'NONE', 'WORKASPACE' ) );
#6 = MECHANICAL_DESIGN_GEOMETRIC_PRESENTATION_REPRESENTATION (  '', ( #8 ), #5 ) ;
#7 = PRESENTATION_LAYER_ASSIGNMENT (  '', '', ( #8 ) ) ;
#8 = STYLED_ITEM ( 'NONE', ( #287 ), #64 ) ;
#9 =( GEOMETRIC_REPRESENTATION_CONTEXT ( 3 ) GLOBAL_UNCERTAINTY_ASSIGNED_CONTEXT ( ( #65 ) ) GLOBAL_UNIT_ASSIGNED_CONTEXT ( ( #190, #189, #188 ) ) REPRESENTATION_CONTEXT ( 'NONE', 'WORKASPACE' ) );
#10 = AXIS2_PLACEMENT_3D ( 'NONE', #200, #198, #195 ) ;
#11 = AXIS2_PLACEMENT_3D ( 'NONE', #182, #71, #119 ) ;
#12 = AXIS2_PLACEMENT_3D ( 'NONE', #104, #78, #175 ) ;
#13 = AXIS2_PLACEMENT_3D ( 'NONE', #193, #199, #196 ) ;
#14 = AXIS2_PLACEMENT_3D ( 'NONE', #107, #174, #117 ) ;
#15 = AXIS2_PLACEMENT_3D ( 'NONE', #177, #77, #181 ) ;
#16 = AXIS2_PLACEMENT_3D ( 'NONE', #75, #187, #145 ) ;
#17 = AXIS2_PLACEMENT_3D ( 'NONE', #180, #176, #83 ) ;
#18 = AXIS2_PLACEMENT_3D ( 'NONE', #100, #178, #73 ) ;
#19 = AXIS2_PLACEMENT_3D ( 'NONE', #97, #172, #151 ) ;
#20 = AXIS2_PLACEMENT_3D ( 'NONE', #99, #149, #88 ) ;
#21 =( GEOMETRIC_REPRESENTATION_CONTEXT ( 3 ) GLOBAL_UNCERTAINTY_ASSIGNED_CONTEXT ( ( #66 ) ) GLOBAL_UNIT_ASSIGNED_CONTEXT ( ( #165, #164, #163 ) ) REPRESENTATION_CONTEXT ( 'NONE', 'WORKASPACE' ) );
#22 = MECHANICAL_DESIGN_GEOMETRIC_PRESENTATION_REPRESENTATION (  '', ( #24 ), #21 ) ;
#23 = PRESENTATION_LAYER_ASSIGNMENT (  '', '', ( #24 ) ) ;
#24 = STYLED_ITEM ( 'NONE', ( #311 ), #67 ) ;
#25 = AXIS2_PLACEMENT_3D ( 'NONE', #169, #121, #68 ) ;
#26 = AXIS2_PLACEMENT_3D ( 'NONE', #191, #168, #105 ) ;
#27 = AXIS2_PLACEMENT_3D ( 'NONE', #140, #141, #143 ) ;
#28 = AXIS2_PLACEMENT_3D ( 'NONE', #135, #113, #137 ) ;
#29 = AXIS2_PLACEMENT_3D ( 'NONE', #118, #120, #124 ) ;
#30 = AXIS2_PLACEMENT_3D ( 'NONE', #110, #93, #111 ) ;
#31 = AXIS2_PLACEMENT_3D ( 'NONE', #102, #103, #106 ) ;
#32 = AXIS2_PLACEMENT_3D ( 'NONE', #90, #94, #95 ) ;
#33 = AXIS2_PLACEMENT_3D ( 'NONE', #79, #81, #91 ) ;
#34 = AXIS2_PLACEMENT_3D ( 'NONE', #147, #150, #152 ) ;
#35 = AXIS2_PLACEMENT_3D ( 'NONE', #134, #136, #138 ) ;
#36 = AXIS2_PLACEMENT_3D ( 'NONE', #131, #132, #133 ) ;
#37 = AXIS2_PLACEMENT_3D ( 'NONE', #128, #129, #130 ) ;
#38 = AXIS2_PLACEMENT_3D ( 'NONE', #123, #122, #127 ) ;
#39 = EDGE_CURVE ( 'NONE', #210, #261, #274, .T. ) ;
#40 = EDGE_CURVE ( 'NONE', #211, #263, #341, .T. ) ;
#41 = EDGE_CURVE ( 'NONE', #266, #250, #338, .T. ) ;
#42 = EDGE_CURVE ( 'NONE', #256, #252, #342, .T. ) ;
#43 = EDGE_CURVE ( 'NONE', #207, #253, #339, .T. ) ;
#44 = EDGE_CURVE ( 'NONE', #262, #255, #343, .T. ) ;
#45 = EDGE_CURVE ( 'NONE', #230, #255, #337, .T. ) ;
#46 = EDGE_CURVE ( 'NONE', #257, #230, #340, .T. ) ;
#47 = EDGE_CURVE ( 'NONE', #262, #257, #344, .T. ) ;
#48 = EDGE_CURVE ( 'NONE', #253, #261, #335, .T. ) ;
#49 = EDGE_CURVE ( 'NONE', #261, #210, #332, .T. ) ;
#50 = EDGE_CURVE ( 'NONE', #207, #210, #330, .T. ) ;
#51 = EDGE_CURVE ( 'NONE', #253, #207, #333, .T. ) ;
#52 = EDGE_CURVE ( 'NONE', #263, #252, #327, .T. ) ;
#53 = EDGE_CURVE ( 'NONE', #263, #211, #329, .T. ) ;
#54 = EDGE_CURVE ( 'NONE', #266, #252, #324, .T. ) ;
#55 = EDGE_CURVE ( 'NONE', #252, #256, #326, .T. ) ;
#56 = EDGE_CURVE ( 'NONE', #250, #256, #321, .T. ) ;
#57 = EDGE_CURVE ( 'NONE', #255, #230, #323, .T. ) ;
#58 = EDGE_CURVE ( 'NONE', #250, #266, #318, .T. ) ;
#59 = EDGE_CURVE ( 'NONE', #211, #256, #317, .T. ) ;
#60 = EDGE_CURVE ( 'NONE', #257, #262, #316, .T. ) ;
#61 = PRODUCT_DEFINITION_SHAPE ( 'NONE', 'NONE',  #3 ) ;
#62 = PRODUCT_DEFINITION_CONTEXT ( 'detailed design', #115, 'design' ) ;
#63 = UNCERTAINTY_MEASURE_WITH_UNIT (LENGTH_MEASURE( 1.000000000000000100E-005 ), #96, 'distance_accuracy_value', 'NONE');
#64 = ADVANCED_BREP_SHAPE_REPRESENTATION ( '1077000018E00A', ( #67, #4 ), #9 ) ;
#65 = UNCERTAINTY_MEASURE_WITH_UNIT (LENGTH_MEASURE( 1.000000000000000100E-005 ), #190, 'distance_accuracy_value', 'NONE');
#66 = UNCERTAINTY_MEASURE_WITH_UNIT (LENGTH_MEASURE( 1.000000000000000100E-005 ), #165, 'distance_accuracy_value', 'NONE');
#67 = MANIFOLD_SOLID_BREP ( 'Importato1', #260 ) ;
#68 = DIRECTION ( 'NONE',  ( 0.0000000000000000000, 0.0000000000000000000, -1.000000000000000000 ) ) ;
#69 =( NAMED_UNIT ( * ) SI_UNIT ( $, .STERADIAN. ) SOLID_ANGLE_UNIT ( ) );
#70 = CARTESIAN_POINT ( 'NONE',  ( 9.184850993605147900E-016, 23.00000000000000000, -7.500000000000000000 ) ) ;
#71 = DIRECTION ( 'NONE',  ( -0.0000000000000000000, 1.000000000000000000, 0.0000000000000000000 ) ) ;
#72 = FILL_AREA_STYLE_COLOUR ( '', #320 ) ;
#73 = DIRECTION ( 'NONE',  ( 0.0000000000000000000, 0.0000000000000000000, 1.000000000000000000 ) ) ;
#74 = PLANE ( 'NONE',  #16 ) ;
#75 = CARTESIAN_POINT ( 'NONE',  ( 8.855000000000002200, 1.000000000000000000, -8.855000000000002200 ) ) ;
#76 = CARTESIAN_POINT ( 'NONE',  ( 0.0000000000000000000, 22.00000000000002100, 8.000000000000000000 ) ) ;
#77 = DIRECTION ( 'NONE',  ( 0.0000000000000000000, -1.000000000000000000, 0.0000000000000000000 ) ) ;
#78 = DIRECTION ( 'NONE',  ( 0.0000000000000000000, 1.000000000000000000, 0.0000000000000000000 ) ) ;
#79 = CARTESIAN_POINT ( 'NONE',  ( 0.0000000000000000000, 0.0000000000000000000, 0.0000000000000000000 ) ) ;
#80 = CARTESIAN_POINT ( 'NONE',  ( 0.0000000000000000000, 1.000000000000000000, -8.750000000000000000 ) ) ;
#81 = DIRECTION ( 'NONE',  ( 0.0000000000000000000, -1.000000000000000000, 0.0000000000000000000 ) ) ;
#82 = DIRECTION ( 'NONE',  ( 0.0000000000000000000, 0.0000000000000000000, 1.000000000000000000 ) ) ;
#83 = DIRECTION ( 'NONE',  ( 0.0000000000000000000, 0.0000000000000000000, 1.000000000000000000 ) ) ;
#84 = APPLICATION_PROTOCOL_DEFINITION ( 'draft international standard', 'automotive_design', 1998, #115 ) ;
#85 = DIRECTION ( 'NONE',  ( 0.0000000000000000000, 1.000000000000000000, 0.0000000000000000000 ) ) ;
#86 = CARTESIAN_POINT ( 'NONE',  ( 9.184850993605147900E-016, 0.0000000000000000000, -7.500000000000000000 ) ) ;
#87 = DIRECTION ( 'NONE',  ( 0.0000000000000000000, 1.000000000000000000, 0.0000000000000000000 ) ) ;
#88 = DIRECTION ( 'NONE',  ( 0.0000000000000000000, 0.0000000000000000000, -1.000000000000000000 ) ) ;
#89 = CARTESIAN_POINT ( 'NONE',  ( 0.0000000000000000000, 0.0000000000000000000, 7.500000000000000000 ) ) ;
#90 = CARTESIAN_POINT ( 'NONE',  ( 0.0000000000000000000, 1.000000000000000000, 0.0000000000000000000 ) ) ;
#91 = DIRECTION ( 'NONE',  ( 0.0000000000000000000, 0.0000000000000000000, -1.000000000000000000 ) ) ;
#92 = PRODUCT_CONTEXT ( 'NONE', #185, 'mechanical' ) ;
#93 = DIRECTION ( 'NONE',  ( -0.0000000000000000000, -1.000000000000000000, -0.0000000000000000000 ) ) ;
#94 = DIRECTION ( 'NONE',  ( -0.0000000000000000000, 1.000000000000000000, -0.0000000000000000000 ) ) ;
#95 = DIRECTION ( 'NONE',  ( 0.0000000000000000000, 0.0000000000000000000, -1.000000000000000000 ) ) ;
#96 =( LENGTH_UNIT ( ) NAMED_UNIT ( * ) SI_UNIT ( .MILLI., .METRE. ) );
#97 = CARTESIAN_POINT ( 'NONE',  ( 0.0000000000000000000, 1.000000000000000000, 0.0000000000000000000 ) ) ;
#98 = CARTESIAN_POINT ( 'NONE',  ( 0.0000000000000000000, 1.000000000000000000, 8.000000000000000000 ) ) ;
#99 = CARTESIAN_POINT ( 'NONE',  ( 0.0000000000000000000, 23.00000000000000000, 0.0000000000000000000 ) ) ;
#100 = CARTESIAN_POINT ( 'NONE',  ( 0.0000000000000000000, 0.0000000000000000000, 0.0000000000000000000 ) ) ;
#101 = DIRECTION ( 'NONE',  ( -0.0000000000000000000, 1.000000000000000000, 0.0000000000000000000 ) ) ;
#102 = CARTESIAN_POINT ( 'NONE',  ( 0.0000000000000000000, 23.00000000000000000, 0.0000000000000000000 ) ) ;
#103 = DIRECTION ( 'NONE',  ( -0.0000000000000000000, -1.000000000000000000, -0.0000000000000000000 ) ) ;
#104 = CARTESIAN_POINT ( 'NONE',  ( 0.0000000000000000000, 0.0000000000000000000, 0.0000000000000000000 ) ) ;
#105 = DIRECTION ( 'NONE',  ( 0.0000000000000000000, 0.0000000000000000000, -1.000000000000000000 ) ) ;
#106 = DIRECTION ( 'NONE',  ( 0.0000000000000000000, 0.0000000000000000000, 1.000000000000000000 ) ) ;
#107 = CARTESIAN_POINT ( 'NONE',  ( -8.855000000000002200, 0.0000000000000000000, -8.855000000000002200 ) ) ;
#108 = CARTESIAN_POINT ( 'NONE',  ( 9.797174393178825700E-016, 1.000000000000000000, -8.000000000000000000 ) ) ;
#109 = DIRECTION ( 'NONE',  ( 0.0000000000000000000, -0.9848077529631101800, -0.1736481779453780700 ) ) ;
#110 = CARTESIAN_POINT ( 'NONE',  ( 0.0000000000000000000, 0.0000000000000000000, 0.0000000000000000000 ) ) ;
#111 = DIRECTION ( 'NONE',  ( 0.0000000000000000000, 0.0000000000000000000, 1.000000000000000000 ) ) ;
#112 = CARTESIAN_POINT ( 'NONE',  ( 0.0000000000000000000, 23.00000000000000000, -7.823673019000001000 ) ) ;
#113 = DIRECTION ( 'NONE',  ( 0.0000000000000000000, -1.000000000000000000, 0.0000000000000000000 ) ) ;
#114 = DIRECTION ( 'NONE',  ( 1.000000000000000000, 0.0000000000000000000, 0.0000000000000000000 ) ) ;
#115 = APPLICATION_CONTEXT ( 'automotive_design' ) ;
#116 = DIRECTION ( 'NONE',  ( 2.126576852985772900E-017, -0.9848077529631101800, 0.1736481779453780700 ) ) ;
#117 = DIRECTION ( 'NONE',  ( 1.000000000000000000, 0.0000000000000000000, 0.0000000000000000000 ) ) ;
#118 = CARTESIAN_POINT ( 'NONE',  ( 0.0000000000000000000, 1.000000000000000000, 0.0000000000000000000 ) ) ;
#119 = DIRECTION ( 'NONE',  ( 0.0000000000000000000, 0.0000000000000000000, 1.000000000000000000 ) ) ;
#120 = DIRECTION ( 'NONE',  ( 0.0000000000000000000, -1.000000000000000000, -0.0000000000000000000 ) ) ;
#121 = DIRECTION ( 'NONE',  ( -0.0000000000000000000, 1.000000000000000000, -0.0000000000000000000 ) ) ;
#122 = DIRECTION ( 'NONE',  ( -0.0000000000000000000, -1.000000000000000000, -0.0000000000000000000 ) ) ;
#123 = CARTESIAN_POINT ( 'NONE',  ( 0.0000000000000000000, 23.00000000000000000, 0.0000000000000000000 ) ) ;
#124 = DIRECTION ( 'NONE',  ( 0.0000000000000000000, 0.0000000000000000000, 1.000000000000000000 ) ) ;
#125 = DIRECTION ( 'NONE',  ( 0.0000000000000000000, -1.000000000000000000, 0.0000000000000000000 ) ) ;
#126 = CARTESIAN_POINT ( 'NONE',  ( 9.581236120293861100E-016, 23.00000000000000000, 7.823673019000001000 ) ) ;
#127 = DIRECTION ( 'NONE',  ( 0.0000000000000000000, 0.0000000000000000000, 1.000000000000000000 ) ) ;
#128 = CARTESIAN_POINT ( 'NONE',  ( 0.0000000000000000000, 1.000000000000000000, 0.0000000000000000000 ) ) ;
#129 = DIRECTION ( 'NONE',  ( 0.0000000000000000000, -1.000000000000000000, -0.0000000000000000000 ) ) ;
#130 = DIRECTION ( 'NONE',  ( 0.0000000000000000000, 0.0000000000000000000, 1.000000000000000000 ) ) ;
#131 = CARTESIAN_POINT ( 'NONE',  ( 0.0000000000000000000, 22.99999999999990800, 0.0000000000000000000 ) ) ;
#132 = DIRECTION ( 'NONE',  ( -0.0000000000000000000, 1.000000000000000000, -0.0000000000000000000 ) ) ;
#133 = DIRECTION ( 'NONE',  ( 0.0000000000000000000, 0.0000000000000000000, -1.000000000000000000 ) ) ;
#134 = CARTESIAN_POINT ( 'NONE',  ( 0.0000000000000000000, 22.00000000000002100, 0.0000000000000000000 ) ) ;
#135 = CARTESIAN_POINT ( 'NONE',  ( 0.0000000000000000000, 22.00000000000002100, 0.0000000000000000000 ) ) ;
#136 = DIRECTION ( 'NONE',  ( 0.0000000000000000000, -1.000000000000000000, 0.0000000000000000000 ) ) ;
#137 = DIRECTION ( 'NONE',  ( 0.0000000000000000000, -2.602085213965210600E-015, -1.000000000000000000 ) ) ;
#138 = DIRECTION ( 'NONE',  ( 0.0000000000000000000, -2.602085213965210600E-015, -1.000000000000000000 ) ) ;
#139 = DIRECTION ( 'NONE',  ( -0.0000000000000000000, 1.000000000000000000, 0.0000000000000000000 ) ) ;
#140 = CARTESIAN_POINT ( 'NONE',  ( 0.0000000000000000000, 0.0000000000000000000, 0.0000000000000000000 ) ) ;
#141 = DIRECTION ( 'NONE',  ( 0.0000000000000000000, -1.000000000000000000, 0.0000000000000000000 ) ) ;
#142 = CARTESIAN_POINT ( 'NONE',  ( 1.071565949253934100E-015, 1.000000000000000000, 8.750000000000000000 ) ) ;
#143 = DIRECTION ( 'NONE',  ( 0.0000000000000000000, 0.0000000000000000000, -1.000000000000000000 ) ) ;
#144 = CARTESIAN_POINT ( 'NONE',  ( 9.184850993605147900E-016, 0.0000000000000000000, -7.500000000000000000 ) ) ;
#145 = DIRECTION ( 'NONE',  ( -1.000000000000000000, 0.0000000000000000000, 0.0000000000000000000 ) ) ;
#146 = CARTESIAN_POINT ( 'NONE',  ( 1.071565949253934100E-015, 1.000000000000000000, 8.750000000000000000 ) ) ;
#147 = CARTESIAN_POINT ( 'NONE',  ( 0.0000000000000000000, 0.0000000000000000000, 0.0000000000000000000 ) ) ;
#148 = PLANE ( 'NONE',  #14 ) ;
#149 = DIRECTION ( 'NONE',  ( 0.0000000000000000000, -1.000000000000000000, 0.0000000000000000000 ) ) ;
#150 = DIRECTION ( 'NONE',  ( -0.0000000000000000000, -1.000000000000000000, -0.0000000000000000000 ) ) ;
#151 = DIRECTION ( 'NONE',  ( 0.0000000000000000000, 0.0000000000000000000, -1.000000000000000000 ) ) ;
#152 = DIRECTION ( 'NONE',  ( 0.0000000000000000000, 0.0000000000000000000, 1.000000000000000000 ) ) ;
#153 = CARTESIAN_POINT ( 'NONE',  ( 0.0000000000000000000, 1.000000000000000000, -8.750000000000000000 ) ) ;
#154 = CARTESIAN_POINT ( 'NONE',  ( 9.797174393178825700E-016, 1.000000000000000000, -8.000000000000000000 ) ) ;
#155 = CARTESIAN_POINT ( 'NONE',  ( 0.0000000000000000000, 23.00000000000000000, 7.500000000000000000 ) ) ;
#156 = CARTESIAN_POINT ( 'NONE',  ( 9.797174393178825700E-016, 22.00000000000002100, -8.000000000000000000 ) ) ;
#157 = CARTESIAN_POINT ( 'NONE',  ( 1.071565949253934100E-015, 0.0000000000000000000, 8.750000000000000000 ) ) ;
#158 = DIRECTION ( 'NONE',  ( 0.0000000000000000000, -1.000000000000000000, 0.0000000000000000000 ) ) ;
#159 = CARTESIAN_POINT ( 'NONE',  ( 9.689205256736352300E-016, 22.99999999999990800, 7.823673019000017000 ) ) ;
#160 = CARTESIAN_POINT ( 'NONE',  ( 0.0000000000000000000, 1.000000000000000000, 8.000000000000000000 ) ) ;
#161 = CARTESIAN_POINT ( 'NONE',  ( 0.0000000000000000000, 0.0000000000000000000, -8.750000000000000000 ) ) ;
#162 = CARTESIAN_POINT ( 'NONE',  ( 0.0000000000000000000, 0.0000000000000000000, 7.500000000000000000 ) ) ;
#163 =( NAMED_UNIT ( * ) SI_UNIT ( $, .STERADIAN. ) SOLID_ANGLE_UNIT ( ) );
#164 =( NAMED_UNIT ( * ) PLANE_ANGLE_UNIT ( ) SI_UNIT ( $, .RADIAN. ) );
#165 =( LENGTH_UNIT ( ) NAMED_UNIT ( * ) SI_UNIT ( .MILLI., .METRE. ) );
#166 = SURFACE_STYLE_USAGE ( .BOTH. , #167 ) ;
#167 = SURFACE_SIDE_STYLE ('',( #312 ) ) ;
#168 = DIRECTION ( 'NONE',  ( -0.0000000000000000000, 1.000000000000000000, -0.0000000000000000000 ) ) ;
#169 = CARTESIAN_POINT ( 'NONE',  ( 0.0000000000000000000, 1.000000000000000000, 0.0000000000000000000 ) ) ;
#170 =( NAMED_UNIT ( * ) PLANE_ANGLE_UNIT ( ) SI_UNIT ( $, .RADIAN. ) );
#171 = CARTESIAN_POINT ( 'NONE',  ( 0.0000000000000000000, 22.99999999999990800, -7.823673019000017000 ) ) ;
#172 = DIRECTION ( 'NONE',  ( 0.0000000000000000000, -1.000000000000000000, 0.0000000000000000000 ) ) ;
#173 = SURFACE_SIDE_STYLE ('',( #289 ) ) ;
#174 = DIRECTION ( 'NONE',  ( 0.0000000000000000000, -1.000000000000000000, 0.0000000000000000000 ) ) ;
#175 = DIRECTION ( 'NONE',  ( 0.0000000000000000000, 0.0000000000000000000, 1.000000000000000000 ) ) ;
#176 = DIRECTION ( 'NONE',  ( -0.0000000000000000000, 1.000000000000000000, 0.0000000000000000000 ) ) ;
#177 = CARTESIAN_POINT ( 'NONE',  ( 0.0000000000000000000, 1.000000000000000000, 0.0000000000000000000 ) ) ;
#178 = DIRECTION ( 'NONE',  ( 0.0000000000000000000, 1.000000000000000000, 0.0000000000000000000 ) ) ;
#179 = FILL_AREA_STYLE ('',( #72 ) ) ;
#180 = CARTESIAN_POINT ( 'NONE',  ( 0.0000000000000000000, 1.000000000000000000, 0.0000000000000000000 ) ) ;
#181 = DIRECTION ( 'NONE',  ( 0.0000000000000000000, 0.0000000000000000000, -1.000000000000000000 ) ) ;
#182 = CARTESIAN_POINT ( 'NONE',  ( 0.0000000000000000000, 1.000000000000000000, 0.0000000000000000000 ) ) ;
#183 = FILL_AREA_STYLE ('',( #184 ) ) ;
#184 = FILL_AREA_STYLE_COLOUR ( '', #290 ) ;
#185 = APPLICATION_CONTEXT ( 'automotive_design' ) ;
#186 = APPLICATION_PROTOCOL_DEFINITION ( 'draft international standard', 'automotive_design', 1998, #185 ) ;
#187 = DIRECTION ( 'NONE',  ( 0.0000000000000000000, 1.000000000000000000, -0.0000000000000000000 ) ) ;
#188 =( NAMED_UNIT ( * ) SI_UNIT ( $, .STERADIAN. ) SOLID_ANGLE_UNIT ( ) );
#189 =( NAMED_UNIT ( * ) PLANE_ANGLE_UNIT ( ) SI_UNIT ( $, .RADIAN. ) );
#190 =( LENGTH_UNIT ( ) NAMED_UNIT ( * ) SI_UNIT ( .MILLI., .METRE. ) );
#191 = CARTESIAN_POINT ( 'NONE',  ( 0.0000000000000000000, 22.99999999999990800, 0.0000000000000000000 ) ) ;
#192 = CARTESIAN_POINT ( 'NONE',  ( 0.0000000000000000000, 0.0000000000000000000, 0.0000000000000000000 ) ) ;
#193 = CARTESIAN_POINT ( 'NONE',  ( 0.0000000000000000000, 23.00000000000000000, 0.0000000000000000000 ) ) ;
#194 = PLANE ( 'NONE',  #10 ) ;
#195 = DIRECTION ( 'NONE',  ( -1.000000000000000000, 0.0000000000000000000, 0.0000000000000000000 ) ) ;
#196 = DIRECTION ( 'NONE',  ( 0.0000000000000000000, 0.0000000000000000000, -1.000000000000000000 ) ) ;
#197 = SURFACE_STYLE_USAGE ( .BOTH. , #173 ) ;
#198 = DIRECTION ( 'NONE',  ( 0.0000000000000000000, 1.000000000000000000, -0.0000000000000000000 ) ) ;
#199 = DIRECTION ( 'NONE',  ( 0.0000000000000000000, -1.000000000000000000, 0.0000000000000000000 ) ) ;
#200 = CARTESIAN_POINT ( 'NONE',  ( 7.917557094999999400, 23.00000000000000000, -7.917557094999999400 ) ) ;
#201 = PRODUCT ( '1077000018E00A', '1077000018E00A', '', ( #92 ) ) ;
#202 = EDGE_LOOP ( 'NONE', ( #271, #258, #273, #254 ) ) ;
#203 = EDGE_LOOP ( 'NONE', ( #243, #264 ) ) ;
#204 = ORIENTED_EDGE ( 'NONE', *, *, #56, .T. ) ;
#205 = EDGE_LOOP ( 'NONE', ( #251, #204, #242, #218 ) ) ;
#206 = EDGE_LOOP ( 'NONE', ( #239, #240 ) ) ;
#207 = VERTEX_POINT ( 'NONE', #144 ) ;
#208 = EDGE_LOOP ( 'NONE', ( #212, #215, #214, #235 ) ) ;
#209 = ORIENTED_EDGE ( 'NONE', *, *, #43, .T. ) ;
#210 = VERTEX_POINT ( 'NONE', #70 ) ;
#211 = VERTEX_POINT ( 'NONE', #160 ) ;
#212 = ORIENTED_EDGE ( 'NONE', *, *, #44, .F. ) ;
#213 = ORIENTED_EDGE ( 'NONE', *, *, #48, .F. ) ;
#214 = ORIENTED_EDGE ( 'NONE', *, *, #46, .T. ) ;
#215 = ORIENTED_EDGE ( 'NONE', *, *, #60, .F. ) ;
#216 = ORIENTED_EDGE ( 'NONE', *, *, #44, .T. ) ;
#217 = ORIENTED_EDGE ( 'NONE', *, *, #45, .F. ) ;
#218 = ORIENTED_EDGE ( 'NONE', *, *, #54, .F. ) ;
#219 = ORIENTED_EDGE ( 'NONE', *, *, #52, .T. ) ;
#220 = EDGE_LOOP ( 'NONE', ( #237, #216, #217, #222 ) ) ;
#221 = ORIENTED_EDGE ( 'NONE', *, *, #53, .F. ) ;
#222 = ORIENTED_EDGE ( 'NONE', *, *, #46, .F. ) ;
#223 = ORIENTED_EDGE ( 'NONE', *, *, #45, .T. ) ;
#224 = ORIENTED_EDGE ( 'NONE', *, *, #55, .T. ) ;
#225 = ORIENTED_EDGE ( 'NONE', *, *, #51, .T. ) ;
#226 = ORIENTED_EDGE ( 'NONE', *, *, #59, .F. ) ;
#227 = ORIENTED_EDGE ( 'NONE', *, *, #60, .T. ) ;
#228 = ORIENTED_EDGE ( 'NONE', *, *, #43, .F. ) ;
#229 = ORIENTED_EDGE ( 'NONE', *, *, #50, .F. ) ;
#230 = VERTEX_POINT ( 'NONE', #161 ) ;
#231 = ORIENTED_EDGE ( 'NONE', *, *, #47, .T. ) ;
#232 = ORIENTED_EDGE ( 'NONE', *, *, #57, .T. ) ;
#233 = ORIENTED_EDGE ( 'NONE', *, *, #51, .F. ) ;
#234 = EDGE_LOOP ( 'NONE', ( #246, #247, #248, #249 ) ) ;
#235 = ORIENTED_EDGE ( 'NONE', *, *, #57, .F. ) ;
#236 = ORIENTED_EDGE ( 'NONE', *, *, #40, .T. ) ;
#237 = ORIENTED_EDGE ( 'NONE', *, *, #47, .F. ) ;
#238 = ORIENTED_EDGE ( 'NONE', *, *, #49, .F. ) ;
#239 = ORIENTED_EDGE ( 'NONE', *, *, #49, .T. ) ;
#240 = ORIENTED_EDGE ( 'NONE', *, *, #39, .T. ) ;
#241 = ORIENTED_EDGE ( 'NONE', *, *, #53, .T. ) ;
#242 = ORIENTED_EDGE ( 'NONE', *, *, #55, .F. ) ;
#243 = ORIENTED_EDGE ( 'NONE', *, *, #41, .T. ) ;
#244 = ORIENTED_EDGE ( 'NONE', *, *, #50, .T. ) ;
#245 = ORIENTED_EDGE ( 'NONE', *, *, #39, .F. ) ;
#246 = ORIENTED_EDGE ( 'NONE', *, *, #52, .F. ) ;
#247 = ORIENTED_EDGE ( 'NONE', *, *, #40, .F. ) ;
#248 = ORIENTED_EDGE ( 'NONE', *, *, #59, .T. ) ;
#249 = ORIENTED_EDGE ( 'NONE', *, *, #42, .T. ) ;
#250 = VERTEX_POINT ( 'NONE', #159 ) ;
#251 = ORIENTED_EDGE ( 'NONE', *, *, #58, .F. ) ;
#252 = VERTEX_POINT ( 'NONE', #156 ) ;
#253 = VERTEX_POINT ( 'NONE', #162 ) ;
#254 = ORIENTED_EDGE ( 'NONE', *, *, #42, .F. ) ;
#255 = VERTEX_POINT ( 'NONE', #157 ) ;
#256 = VERTEX_POINT ( 'NONE', #76 ) ;
#257 = VERTEX_POINT ( 'NONE', #153 ) ;
#258 = ORIENTED_EDGE ( 'NONE', *, *, #41, .F. ) ;
#259 = EDGE_LOOP ( 'NONE', ( #236, #241 ) ) ;
#260 = CLOSED_SHELL ( 'NONE', ( #277, #279, #278, #276, #286, #285, #284, #283, #280, #282, #281 ) ) ;
#261 = VERTEX_POINT ( 'NONE', #155 ) ;
#262 = VERTEX_POINT ( 'NONE', #142 ) ;
#263 = VERTEX_POINT ( 'NONE', #154 ) ;
#264 = ORIENTED_EDGE ( 'NONE', *, *, #58, .T. ) ;
#265 = EDGE_LOOP ( 'NONE', ( #233, #228 ) ) ;
#266 = VERTEX_POINT ( 'NONE', #171 ) ;
#267 = EDGE_LOOP ( 'NONE', ( #225, #244, #238, #213 ) ) ;
#268 = EDGE_LOOP ( 'NONE', ( #221, #219, #224, #226 ) ) ;
#269 = EDGE_LOOP ( 'NONE', ( #229, #209, #275, #245 ) ) ;
#270 = EDGE_LOOP ( 'NONE', ( #223, #232 ) ) ;
#271 = ORIENTED_EDGE ( 'NONE', *, *, #56, .F. ) ;
#272 = EDGE_LOOP ( 'NONE', ( #227, #231 ) ) ;
#273 = ORIENTED_EDGE ( 'NONE', *, *, #54, .T. ) ;
#274 = CIRCLE ( 'NONE', #38, 7.500000000000000000 ) ;
#275 = ORIENTED_EDGE ( 'NONE', *, *, #48, .T. ) ;
#276 = ADVANCED_FACE ( 'NONE', ( #313 ), #308, .T. ) ;
#277 = ADVANCED_FACE ( 'NONE', ( #314 ), #303, .T. ) ;
#278 = ADVANCED_FACE ( 'NONE', ( #307 ), #310, .F. ) ;
#279 = ADVANCED_FACE ( 'NONE', ( #304 ), #301, .T. ) ;
#280 = ADVANCED_FACE ( 'NONE', ( #306, #300 ), #74, .T. ) ;
#281 = ADVANCED_FACE ( 'NONE', ( #309 ), #298, .T. ) ;
#282 = ADVANCED_FACE ( 'NONE', ( #305, #297 ), #148, .T. ) ;
#283 = ADVANCED_FACE ( 'NONE', ( #299 ), #294, .F. ) ;
#284 = ADVANCED_FACE ( 'NONE', ( #302 ), #293, .T. ) ;
#285 = ADVANCED_FACE ( 'NONE', ( #295, #292 ), #194, .T. ) ;
#286 = ADVANCED_FACE ( 'NONE', ( #296 ), #288, .T. ) ;
#287 = PRESENTATION_STYLE_ASSIGNMENT (( #197 ) ) ;
#288 = CONICAL_SURFACE ( 'NONE', #13, 7.823673019000001000, 0.1745329254821761900 ) ;
#289 = SURFACE_STYLE_FILL_AREA ( #183 ) ;
#290 = COLOUR_RGB ( '',1.000000000000000000, 1.000000000000000000, 0.5019607843137254800 ) ;
#291 = SHAPE_DEFINITION_REPRESENTATION ( #61, #64 ) ;
#292 = FACE_OUTER_BOUND ( 'NONE', #203, .T. ) ;
#293 = CYLINDRICAL_SURFACE ( 'NONE', #11, 8.000000000000000000 ) ;
#294 = CYLINDRICAL_SURFACE ( 'NONE', #12, 7.500000000000000000 ) ;
#295 = FACE_BOUND ( 'NONE', #206, .T. ) ;
#296 = FACE_OUTER_BOUND ( 'NONE', #202, .T. ) ;
#297 = FACE_OUTER_BOUND ( 'NONE', #270, .T. ) ;
#298 = CYLINDRICAL_SURFACE ( 'NONE', #15, 8.750000000000000000 ) ;
#299 = FACE_OUTER_BOUND ( 'NONE', #269, .T. ) ;
#300 = FACE_OUTER_BOUND ( 'NONE', #272, .T. ) ;
#301 = CYLINDRICAL_SURFACE ( 'NONE', #17, 8.000000000000000000 ) ;
#302 = FACE_OUTER_BOUND ( 'NONE', #234, .T. ) ;
#303 = CONICAL_SURFACE ( 'NONE', #20, 7.823673019000001000, 0.1745329254821761900 ) ;
#304 = FACE_OUTER_BOUND ( 'NONE', #268, .T. ) ;
#305 = FACE_BOUND ( 'NONE', #265, .T. ) ;
#306 = FACE_BOUND ( 'NONE', #259, .T. ) ;
#307 = FACE_OUTER_BOUND ( 'NONE', #267, .T. ) ;
#308 = CYLINDRICAL_SURFACE ( 'NONE', #19, 8.750000000000000000 ) ;
#309 = FACE_OUTER_BOUND ( 'NONE', #208, .T. ) ;
#310 = CYLINDRICAL_SURFACE ( 'NONE', #18, 7.500000000000000000 ) ;
#311 = PRESENTATION_STYLE_ASSIGNMENT (( #166 ) ) ;
#312 = SURFACE_STYLE_FILL_AREA ( #179 ) ;
#313 = FACE_OUTER_BOUND ( 'NONE', #220, .T. ) ;
#314 = FACE_OUTER_BOUND ( 'NONE', #205, .T. ) ;
#315 = VECTOR ( 'NONE', #139, 1000.000000000000000 ) ;
#316 = CIRCLE ( 'NONE', #25, 8.750000000000000000 ) ;
#317 = LINE ( 'NONE', #98, #315 ) ;
#318 = CIRCLE ( 'NONE', #26, 7.823673019000017000 ) ;
#319 = VECTOR ( 'NONE', #116, 1000.000000000000200 ) ;
#320 = COLOUR_RGB ( '',1.000000000000000000, 1.000000000000000000, 0.5019607843137254800 ) ;
#321 = LINE ( 'NONE', #126, #319 ) ;
#322 = VECTOR ( 'NONE', #109, 1000.000000000000200 ) ;
#323 = CIRCLE ( 'NONE', #27, 8.750000000000000000 ) ;
#324 = LINE ( 'NONE', #112, #322 ) ;
#325 = VECTOR ( 'NONE', #101, 1000.000000000000000 ) ;
#326 = CIRCLE ( 'NONE', #28, 8.000000000000000000 ) ;
#327 = LINE ( 'NONE', #108, #325 ) ;
#328 = VECTOR ( 'NONE', #87, 1000.000000000000000 ) ;
#329 = CIRCLE ( 'NONE', #29, 8.000000000000000000 ) ;
#330 = LINE ( 'NONE', #86, #328 ) ;
#331 = VECTOR ( 'NONE', #85, 1000.000000000000000 ) ;
#332 = CIRCLE ( 'NONE', #31, 7.500000000000000000 ) ;
#333 = CIRCLE ( 'NONE', #30, 7.500000000000000000 ) ;
#334 = VECTOR ( 'NONE', #158, 1000.000000000000000 ) ;
#335 = LINE ( 'NONE', #89, #331 ) ;
#336 = VECTOR ( 'NONE', #125, 1000.000000000000000 ) ;
#337 = CIRCLE ( 'NONE', #33, 8.750000000000000000 ) ;
#338 = CIRCLE ( 'NONE', #36, 7.823673019000017000 ) ;
#339 = CIRCLE ( 'NONE', #34, 7.500000000000000000 ) ;
#340 = LINE ( 'NONE', #80, #334 ) ;
#341 = CIRCLE ( 'NONE', #37, 8.000000000000000000 ) ;
#342 = CIRCLE ( 'NONE', #35, 8.000000000000000000 ) ;
#343 = LINE ( 'NONE', #146, #336 ) ;
#344 = CIRCLE ( 'NONE', #32, 8.750000000000000000 ) ;
ENDSEC;
END-ISO-10303-21;
