ISO-10303-21;
HEADER;
FILE_DESCRIPTION (( 'STEP AP214' ),
    '1' );
FILE_NAME ('1077000011D00A.STEP',
    '2013-02-25T17:29:02',
    ( '' ),
    ( '' ),
    'SwSTEP 2.0',
    'SolidWorks 2012',
    '' );
FILE_SCHEMA (( 'AUTOMOTIVE_DESIGN' ));
ENDSEC;

DATA;
#1 = ADVANCED_FACE ( 'NONE', ( #287 ), #281, .T. ) ;
#2 = ADVANCED_FACE ( 'NONE', ( #286, #285 ), #87, .T. ) ;
#3 = ADVANCED_FACE ( 'NONE', ( #360 ), #279, .T. ) ;
#4 = ADVANCED_FACE ( 'NONE', ( #283, #278 ), #120, .T. ) ;
#5 = ADVANCED_FACE ( 'NONE', ( #284 ), #273, .T. ) ;
#6 = ADVANCED_FACE ( 'NONE', ( #282, #280 ), #130, .T. ) ;
#7 = ADVANCED_FACE ( 'NONE', ( #277 ), #271, .F. ) ;
#8 = ADVANCED_FACE ( 'NONE', ( #275 ), #269, .T. ) ;
#9 = ADVANCED_FACE ( 'NONE', ( #272 ), #267, .F. ) ;
#10 = ADVANCED_FACE ( 'NONE', ( #270 ), #265, .T. ) ;
#11 = ADVANCED_FACE ( 'NONE', ( #268 ), #263, .T. ) ;
#12 = EDGE_CURVE ( 'NONE', #309, #308, #264, .T. ) ;
#13 = AXIS2_PLACEMENT_3D ( 'NONE', #164, #152, #162 ) ;
#14 = AXIS2_PLACEMENT_3D ( 'NONE', #99, #115, #84 ) ;
#15 = AXIS2_PLACEMENT_3D ( 'NONE', #106, #129, #102 ) ;
#16 = AXIS2_PLACEMENT_3D ( 'NONE', #89, #127, #103 ) ;
#17 = AXIS2_PLACEMENT_3D ( 'NONE', #131, #132, #137 ) ;
#18 = AXIS2_PLACEMENT_3D ( 'NONE', #90, #139, #96 ) ;
#19 = AXIS2_PLACEMENT_3D ( 'NONE', #223, #220, #108 ) ;
#20 = AXIS2_PLACEMENT_3D ( 'NONE', #93, #214, #224 ) ;
#21 = AXIS2_PLACEMENT_3D ( 'NONE', #221, #219, #218 ) ;
#22 = AXIS2_PLACEMENT_3D ( 'NONE', #202, #212, #201 ) ;
#23 = EDGE_CURVE ( 'NONE', #310, #303, #266, .T. ) ;
#24 = EDGE_CURVE ( 'NONE', #313, #312, #276, .T. ) ;
#25 = EDGE_CURVE ( 'NONE', #303, #336, #274, .T. ) ;
#26 = EDGE_CURVE ( 'NONE', #308, #315, #261, .T. ) ;
#27 = EDGE_CURVE ( 'NONE', #309, #307, #259, .T. ) ;
#28 = AXIS2_PLACEMENT_3D ( 'NONE', #97, #98, #109 ) ;
#29 = AXIS2_PLACEMENT_3D ( 'NONE', #126, #125, #92 ) ;
#30 = PRODUCT_RELATED_PRODUCT_CATEGORY ( 'part', '', ( #76 ) ) ;
#31 = PRODUCT_DEFINITION_FORMATION_WITH_SPECIFIED_SOURCE ( 'TUTTO', '', #76, .NOT_KNOWN. ) ;
#32 = PRODUCT_DEFINITION ( 'NON CONOSCIUTO', '', #31, #77 ) ;
#33 = AXIS2_PLACEMENT_3D ( 'NONE', #175, #160, #159 ) ;
#34 =( GEOMETRIC_REPRESENTATION_CONTEXT ( 3 ) GLOBAL_UNCERTAINTY_ASSIGNED_CONTEXT ( ( #80 ) ) GLOBAL_UNIT_ASSIGNED_CONTEXT ( ( #165, #163, #161 ) ) REPRESENTATION_CONTEXT ( 'NONE', 'WORKASPACE' ) );
#35 = EDGE_CURVE ( 'NONE', #312, #316, #258, .T. ) ;
#36 = MECHANICAL_DESIGN_GEOMETRIC_PRESENTATION_REPRESENTATION (  '', ( #43 ), #34 ) ;
#37 = EDGE_CURVE ( 'NONE', #310, #314, #256, .T. ) ;
#38 = EDGE_CURVE ( 'NONE', #336, #303, #254, .T. ) ;
#39 = AXIS2_PLACEMENT_3D ( 'NONE', #135, #133, #110 ) ;
#40 = AXIS2_PLACEMENT_3D ( 'NONE', #151, #149, #150 ) ;
#41 = PRESENTATION_LAYER_ASSIGNMENT (  '', '', ( #43 ) ) ;
#42 = EDGE_CURVE ( 'NONE', #313, #311, #251, .T. ) ;
#43 = STYLED_ITEM ( 'NONE', ( #248 ), #82 ) ;
#44 =( GEOMETRIC_REPRESENTATION_CONTEXT ( 3 ) GLOBAL_UNCERTAINTY_ASSIGNED_CONTEXT ( ( #81 ) ) GLOBAL_UNIT_ASSIGNED_CONTEXT ( ( #173, #172, #171 ) ) REPRESENTATION_CONTEXT ( 'NONE', 'WORKASPACE' ) );
#45 =( GEOMETRIC_REPRESENTATION_CONTEXT ( 3 ) GLOBAL_UNCERTAINTY_ASSIGNED_CONTEXT ( ( #79 ) ) GLOBAL_UNIT_ASSIGNED_CONTEXT ( ( #200, #199, #198 ) ) REPRESENTATION_CONTEXT ( 'NONE', 'WORKASPACE' ) );
#46 = EDGE_CURVE ( 'NONE', #302, #304, #253, .T. ) ;
#47 = EDGE_CURVE ( 'NONE', #302, #305, #250, .T. ) ;
#48 = MECHANICAL_DESIGN_GEOMETRIC_PRESENTATION_REPRESENTATION (  '', ( #53 ), #45 ) ;
#49 = AXIS2_PLACEMENT_3D ( 'NONE', #124, #95, #113 ) ;
#50 = AXIS2_PLACEMENT_3D ( 'NONE', #148, #145, #147 ) ;
#51 = PRESENTATION_LAYER_ASSIGNMENT (  '', '', ( #53 ) ) ;
#52 = EDGE_CURVE ( 'NONE', #311, #313, #249, .T. ) ;
#53 = STYLED_ITEM ( 'NONE', ( #227 ), #83 ) ;
#54 = EDGE_CURVE ( 'NONE', #304, #302, #245, .T. ) ;
#55 = EDGE_CURVE ( 'NONE', #314, #310, #244, .T. ) ;
#56 = EDGE_CURVE ( 'NONE', #314, #336, #243, .T. ) ;
#57 = EDGE_CURVE ( 'NONE', #311, #316, #247, .T. ) ;
#58 = EDGE_CURVE ( 'NONE', #316, #312, #240, .T. ) ;
#59 = EDGE_CURVE ( 'NONE', #305, #315, #237, .T. ) ;
#60 = EDGE_CURVE ( 'NONE', #306, #307, #236, .T. ) ;
#61 = AXIS2_PLACEMENT_3D ( 'NONE', #94, #112, #100 ) ;
#62 = AXIS2_PLACEMENT_3D ( 'NONE', #118, #117, #119 ) ;
#63 = AXIS2_PLACEMENT_3D ( 'NONE', #107, #142, #128 ) ;
#64 = AXIS2_PLACEMENT_3D ( 'NONE', #114, #138, #111 ) ;
#65 = AXIS2_PLACEMENT_3D ( 'NONE', #104, #121, #134 ) ;
#66 = AXIS2_PLACEMENT_3D ( 'NONE', #213, #211, #209 ) ;
#67 = AXIS2_PLACEMENT_3D ( 'NONE', #184, #183, #176 ) ;
#68 = AXIS2_PLACEMENT_3D ( 'NONE', #216, #215, #210 ) ;
#69 = AXIS2_PLACEMENT_3D ( 'NONE', #154, #153, #155 ) ;
#70 = EDGE_CURVE ( 'NONE', #307, #305, #242, .T. ) ;
#71 = AXIS2_PLACEMENT_3D ( 'NONE', #123, #116, #122 ) ;
#72 = EDGE_CURVE ( 'NONE', #308, #309, #234, .T. ) ;
#73 = AXIS2_PLACEMENT_3D ( 'NONE', #193, #192, #182 ) ;
#74 = EDGE_CURVE ( 'NONE', #315, #306, #233, .T. ) ;
#75 = EDGE_CURVE ( 'NONE', #304, #306, #231, .T. ) ;
#76 = PRODUCT ( '1077000011D00A', '1077000011D00A', '', ( #158 ) ) ;
#77 = PRODUCT_DEFINITION_CONTEXT ( 'detailed design', #157, 'design' ) ;
#78 = PRODUCT_DEFINITION_SHAPE ( 'NONE', 'NONE',  #32 ) ;
#79 = UNCERTAINTY_MEASURE_WITH_UNIT (LENGTH_MEASURE( 1.000000000000000100E-005 ), #200, 'distance_accuracy_value', 'NONE');
#80 = UNCERTAINTY_MEASURE_WITH_UNIT (LENGTH_MEASURE( 1.000000000000000100E-005 ), #165, 'distance_accuracy_value', 'NONE');
#81 = UNCERTAINTY_MEASURE_WITH_UNIT (LENGTH_MEASURE( 1.000000000000000100E-005 ), #173, 'distance_accuracy_value', 'NONE');
#82 = ADVANCED_BREP_SHAPE_REPRESENTATION ( '1077000011D00A', ( #83, #33 ), #44 ) ;
#83 = MANIFOLD_SOLID_BREP ( 'Importato1', #355 ) ;
#84 = DIRECTION ( 'NONE',  ( 0.0000000000000000000, 0.0000000000000000000, -1.000000000000000000 ) ) ;
#85 = DIRECTION ( 'NONE',  ( -0.0000000000000000000, 1.000000000000000000, 0.0000000000000000000 ) ) ;
#86 = CARTESIAN_POINT ( 'NONE',  ( -1.173673019000000000, 13.00000000000000200, 1.437334905963960600E-016 ) ) ;
#87 = PLANE ( 'NONE',  #49 ) ;
#88 = DIRECTION ( 'NONE',  ( 0.1736481779453782100, -0.9848077529631102900, 0.0000000000000000000 ) ) ;
#89 = CARTESIAN_POINT ( 'NONE',  ( 0.0000000000000000000, 0.0000000000000000000, 0.0000000000000000000 ) ) ;
#90 = CARTESIAN_POINT ( 'NONE',  ( 0.0000000000000000000, 13.00000000000000200, 0.0000000000000000000 ) ) ;
#91 = DIRECTION ( 'NONE',  ( -0.0000000000000000000, 1.000000000000000000, 0.0000000000000000000 ) ) ;
#92 = DIRECTION ( 'NONE',  ( -1.000000000000000000, 0.0000000000000000000, 0.0000000000000000000 ) ) ;
#93 = CARTESIAN_POINT ( 'NONE',  ( 0.0000000000000000000, 0.5000000000000000000, 0.0000000000000000000 ) ) ;
#94 = CARTESIAN_POINT ( 'NONE',  ( 0.0000000000000000000, 13.00000000000000200, 0.0000000000000000000 ) ) ;
#95 = DIRECTION ( 'NONE',  ( 0.0000000000000000000, 1.000000000000000000, -0.0000000000000000000 ) ) ;
#96 = DIRECTION ( 'NONE',  ( 0.0000000000000000000, 0.0000000000000000000, 1.000000000000000000 ) ) ;
#97 = CARTESIAN_POINT ( 'NONE',  ( -7.435520727886411900E-029, 12.99999999999990100, 0.0000000000000000000 ) ) ;
#98 = DIRECTION ( 'NONE',  ( 7.390148056120590100E-016, 1.000000000000000000, -0.0000000000000000000 ) ) ;
#99 = CARTESIAN_POINT ( 'NONE',  ( 0.0000000000000000000, 0.0000000000000000000, 0.0000000000000000000 ) ) ;
#100 = DIRECTION ( 'NONE',  ( 1.000000000000000000, 0.0000000000000000000, 0.0000000000000000000 ) ) ;
#101 = DIRECTION ( 'NONE',  ( -0.1736481779453796500, -0.9848077529631100700, 2.126576852985783400E-017 ) ) ;
#102 = DIRECTION ( 'NONE',  ( 0.0000000000000000000, 0.0000000000000000000, -1.000000000000000000 ) ) ;
#103 = DIRECTION ( 'NONE',  ( 0.0000000000000000000, 0.0000000000000000000, 1.000000000000000000 ) ) ;
#104 = CARTESIAN_POINT ( 'NONE',  ( 0.0000000000000000000, 0.5000000000000000000, 0.0000000000000000000 ) ) ;
#105 = FILL_AREA_STYLE_COLOUR ( '', #229 ) ;
#106 = CARTESIAN_POINT ( 'NONE',  ( 0.0000000000000000000, 0.5000000000000000000, 0.0000000000000000000 ) ) ;
#107 = CARTESIAN_POINT ( 'NONE',  ( 0.0000000000000000000, 0.5000000000000000000, 0.0000000000000000000 ) ) ;
#108 = DIRECTION ( 'NONE',  ( 0.0000000000000000000, 0.0000000000000000000, -1.000000000000000000 ) ) ;
#109 = DIRECTION ( 'NONE',  ( 1.000000000000000000, -1.478029611224095900E-015, 0.0000000000000000000 ) ) ;
#110 = DIRECTION ( 'NONE',  ( 1.000000000000000000, -1.478029611224095900E-015, 0.0000000000000000000 ) ) ;
#111 = DIRECTION ( 'NONE',  ( 0.0000000000000000000, 0.0000000000000000000, -1.000000000000000000 ) ) ;
#112 = DIRECTION ( 'NONE',  ( -7.390148056120590100E-016, -1.000000000000000000, 0.0000000000000000000 ) ) ;
#113 = DIRECTION ( 'NONE',  ( -1.000000000000000000, 0.0000000000000000000, 0.0000000000000000000 ) ) ;
#114 = CARTESIAN_POINT ( 'NONE',  ( 0.0000000000000000000, 0.5000000000000000000, 0.0000000000000000000 ) ) ;
#115 = DIRECTION ( 'NONE',  ( 0.0000000000000000000, -1.000000000000000000, 0.0000000000000000000 ) ) ;
#116 = DIRECTION ( 'NONE',  ( -7.390148056120590100E-016, -1.000000000000000000, 0.0000000000000000000 ) ) ;
#117 = DIRECTION ( 'NONE',  ( 0.0000000000000000000, -1.000000000000000000, 0.0000000000000000000 ) ) ;
#118 = CARTESIAN_POINT ( 'NONE',  ( -1.922799999999999800, 0.0000000000000000000, -1.922799999999999800 ) ) ;
#119 = DIRECTION ( 'NONE',  ( 1.000000000000000000, 0.0000000000000000000, 0.0000000000000000000 ) ) ;
#120 = PLANE ( 'NONE',  #62 ) ;
#121 = DIRECTION ( 'NONE',  ( -0.0000000000000000000, 1.000000000000000000, 0.0000000000000000000 ) ) ;
#122 = DIRECTION ( 'NONE',  ( 1.000000000000000000, 0.0000000000000000000, 0.0000000000000000000 ) ) ;
#123 = CARTESIAN_POINT ( 'NONE',  ( 0.0000000000000000000, 13.00000000000000200, 0.0000000000000000000 ) ) ;
#124 = CARTESIAN_POINT ( 'NONE',  ( 1.187757095000000000, 13.00000000000000200, -1.187757095000000000 ) ) ;
#125 = DIRECTION ( 'NONE',  ( 0.0000000000000000000, 1.000000000000000000, -0.0000000000000000000 ) ) ;
#126 = CARTESIAN_POINT ( 'NONE',  ( 1.922799999999999800, 0.5000000000000000000, -1.922799999999999800 ) ) ;
#127 = DIRECTION ( 'NONE',  ( -0.0000000000000000000, 1.000000000000000000, 0.0000000000000000000 ) ) ;
#128 = DIRECTION ( 'NONE',  ( 0.0000000000000000000, 0.0000000000000000000, 1.000000000000000000 ) ) ;
#129 = DIRECTION ( 'NONE',  ( 0.0000000000000000000, -1.000000000000000000, 0.0000000000000000000 ) ) ;
#130 = PLANE ( 'NONE',  #29 ) ;
#131 = CARTESIAN_POINT ( 'NONE',  ( 0.0000000000000000000, 0.0000000000000000000, 0.0000000000000000000 ) ) ;
#132 = DIRECTION ( 'NONE',  ( -0.0000000000000000000, 1.000000000000000000, 0.0000000000000000000 ) ) ;
#133 = DIRECTION ( 'NONE',  ( 7.390148056120590100E-016, 1.000000000000000000, -0.0000000000000000000 ) ) ;
#134 = DIRECTION ( 'NONE',  ( 0.0000000000000000000, 0.0000000000000000000, 1.000000000000000000 ) ) ;
#135 = CARTESIAN_POINT ( 'NONE',  ( -7.435520727886411900E-029, 12.99999999999990100, 0.0000000000000000000 ) ) ;
#136 = CARTESIAN_POINT ( 'NONE',  ( 0.0000000000000000000, 0.5000000000000000000, 1.350000000000000100 ) ) ;
#137 = DIRECTION ( 'NONE',  ( 0.0000000000000000000, 0.0000000000000000000, 1.000000000000000000 ) ) ;
#138 = DIRECTION ( 'NONE',  ( 0.0000000000000000000, -1.000000000000000000, 0.0000000000000000000 ) ) ;
#139 = DIRECTION ( 'NONE',  ( 0.0000000000000000000, -1.000000000000000000, -0.0000000000000000000 ) ) ;
#140 = CARTESIAN_POINT ( 'NONE',  ( 2.326828918379971400E-016, 0.5000000000000000000, 1.899999999999999900 ) ) ;
#141 = CARTESIAN_POINT ( 'NONE',  ( 0.0000000000000000000, 0.0000000000000000000, 0.8500000000000000900 ) ) ;
#142 = DIRECTION ( 'NONE',  ( -0.0000000000000000000, 1.000000000000000000, 0.0000000000000000000 ) ) ;
#143 = DIRECTION ( 'NONE',  ( 0.0000000000000000000, -1.000000000000000000, 0.0000000000000000000 ) ) ;
#144 = DIRECTION ( 'NONE',  ( -0.0000000000000000000, 1.000000000000000000, 0.0000000000000000000 ) ) ;
#145 = DIRECTION ( 'NONE',  ( 0.0000000000000000000, -1.000000000000000000, 0.0000000000000000000 ) ) ;
#146 = CARTESIAN_POINT ( 'NONE',  ( 1.653273178848926900E-016, 0.5000000000000000000, -1.350000000000000100 ) ) ;
#147 = DIRECTION ( 'NONE',  ( 0.0000000000000000000, -7.709882115452477400E-015, -1.000000000000000000 ) ) ;
#148 = CARTESIAN_POINT ( 'NONE',  ( 0.0000000000000000000, 12.00000000000001100, 0.0000000000000000000 ) ) ;
#149 = DIRECTION ( 'NONE',  ( 0.0000000000000000000, -1.000000000000000000, 0.0000000000000000000 ) ) ;
#150 = DIRECTION ( 'NONE',  ( 0.0000000000000000000, -7.709882115452477400E-015, -1.000000000000000000 ) ) ;
#151 = CARTESIAN_POINT ( 'NONE',  ( 0.0000000000000000000, 12.00000000000001100, 0.0000000000000000000 ) ) ;
#152 = DIRECTION ( 'NONE',  ( 0.0000000000000000000, -1.000000000000000000, -0.0000000000000000000 ) ) ;
#153 = DIRECTION ( 'NONE',  ( 0.0000000000000000000, -1.000000000000000000, 0.0000000000000000000 ) ) ;
#154 = CARTESIAN_POINT ( 'NONE',  ( 0.0000000000000000000, 12.00000000000001100, 0.0000000000000000000 ) ) ;
#155 = DIRECTION ( 'NONE',  ( 0.0000000000000000000, -7.709882115452477400E-015, -1.000000000000000000 ) ) ;
#156 = APPLICATION_PROTOCOL_DEFINITION ( 'draft international standard', 'automotive_design', 1998, #157 ) ;
#157 = APPLICATION_CONTEXT ( 'automotive_design' ) ;
#158 = PRODUCT_CONTEXT ( 'NONE', #169, 'mechanical' ) ;
#159 = DIRECTION ( 'NONE',  ( 1.000000000000000000, 0.0000000000000000000, 0.0000000000000000000 ) ) ;
#160 = DIRECTION ( 'NONE',  ( 0.0000000000000000000, 0.0000000000000000000, 1.000000000000000000 ) ) ;
#161 =( NAMED_UNIT ( * ) SI_UNIT ( $, .STERADIAN. ) SOLID_ANGLE_UNIT ( ) );
#162 = DIRECTION ( 'NONE',  ( 0.0000000000000000000, 0.0000000000000000000, 1.000000000000000000 ) ) ;
#163 =( NAMED_UNIT ( * ) PLANE_ANGLE_UNIT ( ) SI_UNIT ( $, .RADIAN. ) );
#164 = CARTESIAN_POINT ( 'NONE',  ( 0.0000000000000000000, 13.00000000000000200, 0.0000000000000000000 ) ) ;
#165 =( LENGTH_UNIT ( ) NAMED_UNIT ( * ) SI_UNIT ( .MILLI., .METRE. ) );
#166 = SURFACE_STYLE_USAGE ( .BOTH. , #167 ) ;
#167 = SURFACE_SIDE_STYLE ('',( #232 ) ) ;
#168 = FILL_AREA_STYLE ('',( #178 ) ) ;
#169 = APPLICATION_CONTEXT ( 'automotive_design' ) ;
#170 = APPLICATION_PROTOCOL_DEFINITION ( 'draft international standard', 'automotive_design', 1998, #169 ) ;
#171 =( NAMED_UNIT ( * ) SI_UNIT ( $, .STERADIAN. ) SOLID_ANGLE_UNIT ( ) );
#172 =( NAMED_UNIT ( * ) PLANE_ANGLE_UNIT ( ) SI_UNIT ( $, .RADIAN. ) );
#173 =( LENGTH_UNIT ( ) NAMED_UNIT ( * ) SI_UNIT ( .MILLI., .METRE. ) );
#174 = CARTESIAN_POINT ( 'NONE',  ( 0.0000000000000000000, 0.0000000000000000000, -1.899999999999999900 ) ) ;
#175 = CARTESIAN_POINT ( 'NONE',  ( 0.0000000000000000000, 0.0000000000000000000, 0.0000000000000000000 ) ) ;
#176 = DIRECTION ( 'NONE',  ( 0.0000000000000000000, 0.0000000000000000000, -1.000000000000000000 ) ) ;
#177 = DIRECTION ( 'NONE',  ( -0.0000000000000000000, 1.000000000000000000, 0.0000000000000000000 ) ) ;
#178 = FILL_AREA_STYLE_COLOUR ( '', #228 ) ;
#179 = CARTESIAN_POINT ( 'NONE',  ( 1.040949779275250300E-016, 13.00000000000000200, -0.8500000000000000900 ) ) ;
#180 = CARTESIAN_POINT ( 'NONE',  ( -1.349999999999999000, 12.00000000000001100, 1.653273178848924600E-016 ) ) ;
#181 = CARTESIAN_POINT ( 'NONE',  ( 0.0000000000000000000, 0.5000000000000000000, -1.899999999999999900 ) ) ;
#182 = DIRECTION ( 'NONE',  ( 0.0000000000000000000, 0.0000000000000000000, 1.000000000000000000 ) ) ;
#183 = DIRECTION ( 'NONE',  ( -0.0000000000000000000, 1.000000000000000000, -0.0000000000000000000 ) ) ;
#184 = CARTESIAN_POINT ( 'NONE',  ( 0.0000000000000000000, 0.5000000000000000000, 0.0000000000000000000 ) ) ;
#185 = CARTESIAN_POINT ( 'NONE',  ( 0.0000000000000000000, 0.0000000000000000000, 0.8500000000000000900 ) ) ;
#186 = CARTESIAN_POINT ( 'NONE',  ( 0.0000000000000000000, 13.00000000000000200, 0.8500000000000000900 ) ) ;
#187 = CARTESIAN_POINT ( 'NONE',  ( 1.040949779275250300E-016, 0.0000000000000000000, -0.8500000000000000900 ) ) ;
#188 = CARTESIAN_POINT ( 'NONE',  ( 2.326828918379971400E-016, 0.5000000000000000000, 1.899999999999999900 ) ) ;
#189 = CARTESIAN_POINT ( 'NONE',  ( 0.0000000000000000000, 0.5000000000000000000, -1.899999999999999900 ) ) ;
#190 = CARTESIAN_POINT ( 'NONE',  ( -1.173673019000017700, 12.99999999999990200, 1.545304042406454700E-016 ) ) ;
#191 = CARTESIAN_POINT ( 'NONE',  ( 1.653273178848926900E-016, 12.00000000000001100, -1.350000000000000100 ) ) ;
#192 = DIRECTION ( 'NONE',  ( 0.0000000000000000000, -1.000000000000000000, -0.0000000000000000000 ) ) ;
#193 = CARTESIAN_POINT ( 'NONE',  ( 0.0000000000000000000, 0.5000000000000000000, 0.0000000000000000000 ) ) ;
#194 = DIRECTION ( 'NONE',  ( 0.0000000000000000000, -1.000000000000000000, 0.0000000000000000000 ) ) ;
#195 = CARTESIAN_POINT ( 'NONE',  ( 1.653273178848926900E-016, 0.5000000000000000000, -1.350000000000000100 ) ) ;
#196 = CARTESIAN_POINT ( 'NONE',  ( 1.349999999999997400, 12.00000000000001100, 0.0000000000000000000 ) ) ;
#197 = CARTESIAN_POINT ( 'NONE',  ( 2.326828918379971400E-016, 0.0000000000000000000, 1.899999999999999900 ) ) ;
#198 =( NAMED_UNIT ( * ) SI_UNIT ( $, .STERADIAN. ) SOLID_ANGLE_UNIT ( ) );
#199 =( NAMED_UNIT ( * ) PLANE_ANGLE_UNIT ( ) SI_UNIT ( $, .RADIAN. ) );
#200 =( LENGTH_UNIT ( ) NAMED_UNIT ( * ) SI_UNIT ( .MILLI., .METRE. ) );
#201 = DIRECTION ( 'NONE',  ( 0.0000000000000000000, 0.0000000000000000000, 1.000000000000000000 ) ) ;
#202 = CARTESIAN_POINT ( 'NONE',  ( 0.0000000000000000000, 0.0000000000000000000, 0.0000000000000000000 ) ) ;
#203 = CARTESIAN_POINT ( 'NONE',  ( 1.040949779275250300E-016, 0.0000000000000000000, -0.8500000000000000900 ) ) ;
#204 = SURFACE_STYLE_USAGE ( .BOTH. , #205 ) ;
#205 = SURFACE_SIDE_STYLE ('',( #235 ) ) ;
#206 = FILL_AREA_STYLE ('',( #105 ) ) ;
#207 = CARTESIAN_POINT ( 'NONE',  ( 1.173673019000017700, 12.99999999999989900, 0.0000000000000000000 ) ) ;
#208 = CARTESIAN_POINT ( 'NONE',  ( 0.0000000000000000000, 12.00000000000001100, 1.350000000000000100 ) ) ;
#209 = DIRECTION ( 'NONE',  ( 0.0000000000000000000, -7.709882115452477400E-015, -1.000000000000000000 ) ) ;
#210 = DIRECTION ( 'NONE',  ( 0.0000000000000000000, 0.0000000000000000000, 1.000000000000000000 ) ) ;
#211 = DIRECTION ( 'NONE',  ( 0.0000000000000000000, -1.000000000000000000, 0.0000000000000000000 ) ) ;
#212 = DIRECTION ( 'NONE',  ( 0.0000000000000000000, -1.000000000000000000, -0.0000000000000000000 ) ) ;
#213 = CARTESIAN_POINT ( 'NONE',  ( 0.0000000000000000000, 12.00000000000001100, 0.0000000000000000000 ) ) ;
#214 = DIRECTION ( 'NONE',  ( -0.0000000000000000000, 1.000000000000000000, -0.0000000000000000000 ) ) ;
#215 = DIRECTION ( 'NONE',  ( 0.0000000000000000000, -1.000000000000000000, -0.0000000000000000000 ) ) ;
#216 = CARTESIAN_POINT ( 'NONE',  ( 0.0000000000000000000, 0.5000000000000000000, 0.0000000000000000000 ) ) ;
#217 = CARTESIAN_POINT ( 'NONE',  ( 0.0000000000000000000, 0.5000000000000000000, 1.350000000000000100 ) ) ;
#218 = DIRECTION ( 'NONE',  ( 0.0000000000000000000, 0.0000000000000000000, 1.000000000000000000 ) ) ;
#219 = DIRECTION ( 'NONE',  ( 0.0000000000000000000, -1.000000000000000000, -0.0000000000000000000 ) ) ;
#220 = DIRECTION ( 'NONE',  ( 0.0000000000000000000, -1.000000000000000000, 0.0000000000000000000 ) ) ;
#221 = CARTESIAN_POINT ( 'NONE',  ( 0.0000000000000000000, 0.0000000000000000000, 0.0000000000000000000 ) ) ;
#222 = CARTESIAN_POINT ( 'NONE',  ( 1.173673019000000000, 13.00000000000000200, 0.0000000000000000000 ) ) ;
#223 = CARTESIAN_POINT ( 'NONE',  ( 0.0000000000000000000, 0.0000000000000000000, 0.0000000000000000000 ) ) ;
#224 = DIRECTION ( 'NONE',  ( 0.0000000000000000000, 0.0000000000000000000, -1.000000000000000000 ) ) ;
#225 = SHAPE_DEFINITION_REPRESENTATION ( #78, #82 ) ;
#226 = ORIENTED_EDGE ( 'NONE', *, *, #74, .F. ) ;
#227 = PRESENTATION_STYLE_ASSIGNMENT (( #204 ) ) ;
#228 = COLOUR_RGB ( '',1.000000000000000000, 1.000000000000000000, 0.5019607843137254800 ) ;
#229 = COLOUR_RGB ( '',1.000000000000000000, 1.000000000000000000, 0.5019607843137254800 ) ;
#230 = VECTOR ( 'NONE', #144, 1000.000000000000000 ) ;
#231 = LINE ( 'NONE', #146, #230 ) ;
#232 = SURFACE_STYLE_FILL_AREA ( #168 ) ;
#233 = CIRCLE ( 'NONE', #66, 1.349999999999999900 ) ;
#234 = CIRCLE ( 'NONE', #39, 1.173673019000017700 ) ;
#235 = SURFACE_STYLE_FILL_AREA ( #206 ) ;
#236 = CIRCLE ( 'NONE', #40, 1.349999999999999900 ) ;
#237 = CIRCLE ( 'NONE', #69, 1.349999999999999900 ) ;
#238 = ORIENTED_EDGE ( 'NONE', *, *, #55, .F. ) ;
#239 = VECTOR ( 'NONE', #177, 1000.000000000000000 ) ;
#240 = CIRCLE ( 'NONE', #13, 0.8500000000000000900 ) ;
#241 = VECTOR ( 'NONE', #194, 1000.000000000000000 ) ;
#242 = CIRCLE ( 'NONE', #50, 1.349999999999999900 ) ;
#243 = LINE ( 'NONE', #189, #241 ) ;
#244 = CIRCLE ( 'NONE', #67, 1.899999999999999900 ) ;
#245 = CIRCLE ( 'NONE', #73, 1.350000000000000100 ) ;
#246 = VECTOR ( 'NONE', #91, 1000.000000000000000 ) ;
#247 = LINE ( 'NONE', #203, #239 ) ;
#248 = PRESENTATION_STYLE_ASSIGNMENT (( #166 ) ) ;
#249 = CIRCLE ( 'NONE', #22, 0.8500000000000000900 ) ;
#250 = LINE ( 'NONE', #217, #246 ) ;
#251 = CIRCLE ( 'NONE', #21, 0.8500000000000000900 ) ;
#252 = ORIENTED_EDGE ( 'NONE', *, *, #56, .T. ) ;
#253 = CIRCLE ( 'NONE', #68, 1.350000000000000100 ) ;
#254 = CIRCLE ( 'NONE', #19, 1.899999999999999900 ) ;
#255 = VECTOR ( 'NONE', #88, 999.9999999999998900 ) ;
#256 = CIRCLE ( 'NONE', #20, 1.899999999999999900 ) ;
#257 = VECTOR ( 'NONE', #101, 999.9999999999998900 ) ;
#258 = CIRCLE ( 'NONE', #18, 0.8500000000000000900 ) ;
#259 = LINE ( 'NONE', #222, #255 ) ;
#260 = VECTOR ( 'NONE', #85, 1000.000000000000000 ) ;
#261 = LINE ( 'NONE', #86, #257 ) ;
#262 = VECTOR ( 'NONE', #143, 1000.000000000000000 ) ;
#263 = CYLINDRICAL_SURFACE ( 'NONE', #63, 1.350000000000000100 ) ;
#264 = CIRCLE ( 'NONE', #28, 1.173673019000017700 ) ;
#265 = CYLINDRICAL_SURFACE ( 'NONE', #65, 1.350000000000000100 ) ;
#266 = LINE ( 'NONE', #140, #262 ) ;
#267 = CYLINDRICAL_SURFACE ( 'NONE', #17, 0.8500000000000000900 ) ;
#268 = FACE_OUTER_BOUND ( 'NONE', #301, .T. ) ;
#269 = CYLINDRICAL_SURFACE ( 'NONE', #15, 1.899999999999999900 ) ;
#270 = FACE_OUTER_BOUND ( 'NONE', #291, .T. ) ;
#271 = CYLINDRICAL_SURFACE ( 'NONE', #16, 0.8500000000000000900 ) ;
#272 = FACE_OUTER_BOUND ( 'NONE', #292, .T. ) ;
#273 = CONICAL_SURFACE ( 'NONE', #71, 1.173673019000000000, 0.1745329254821770500 ) ;
#274 = CIRCLE ( 'NONE', #14, 1.899999999999999900 ) ;
#275 = FACE_OUTER_BOUND ( 'NONE', #288, .T. ) ;
#276 = LINE ( 'NONE', #141, #260 ) ;
#277 = FACE_OUTER_BOUND ( 'NONE', #297, .T. ) ;
#278 = FACE_OUTER_BOUND ( 'NONE', #298, .T. ) ;
#279 = CYLINDRICAL_SURFACE ( 'NONE', #64, 1.899999999999999900 ) ;
#280 = FACE_OUTER_BOUND ( 'NONE', #299, .T. ) ;
#281 = CONICAL_SURFACE ( 'NONE', #61, 1.173673019000000000, 0.1745329254821770500 ) ;
#282 = FACE_BOUND ( 'NONE', #294, .T. ) ;
#283 = FACE_BOUND ( 'NONE', #289, .T. ) ;
#284 = FACE_OUTER_BOUND ( 'NONE', #293, .T. ) ;
#285 = FACE_OUTER_BOUND ( 'NONE', #300, .T. ) ;
#286 = FACE_BOUND ( 'NONE', #296, .T. ) ;
#287 = FACE_OUTER_BOUND ( 'NONE', #290, .T. ) ;
#288 = EDGE_LOOP ( 'NONE', ( #347, #352, #345, #335 ) ) ;
#289 = EDGE_LOOP ( 'NONE', ( #364, #357 ) ) ;
#290 = EDGE_LOOP ( 'NONE', ( #348, #343, #340, #317, #341 ) ) ;
#291 = EDGE_LOOP ( 'NONE', ( #324, #322, #321, #334, #318 ) ) ;
#292 = EDGE_LOOP ( 'NONE', ( #319, #346, #359, #337 ) ) ;
#293 = EDGE_LOOP ( 'NONE', ( #327, #328, #353, #351, #226 ) ) ;
#294 = EDGE_LOOP ( 'NONE', ( #325, #342 ) ) ;
#295 = EDGE_LOOP ( 'NONE', ( #362, #238, #252, #350 ) ) ;
#296 = EDGE_LOOP ( 'NONE', ( #363, #329 ) ) ;
#297 = EDGE_LOOP ( 'NONE', ( #330, #332, #333, #338 ) ) ;
#298 = EDGE_LOOP ( 'NONE', ( #323, #356 ) ) ;
#299 = EDGE_LOOP ( 'NONE', ( #320, #331 ) ) ;
#300 = EDGE_LOOP ( 'NONE', ( #339, #361 ) ) ;
#301 = EDGE_LOOP ( 'NONE', ( #326, #358, #344, #354, #349 ) ) ;
#302 = VERTEX_POINT ( 'NONE', #136 ) ;
#303 = VERTEX_POINT ( 'NONE', #197 ) ;
#304 = VERTEX_POINT ( 'NONE', #195 ) ;
#305 = VERTEX_POINT ( 'NONE', #208 ) ;
#306 = VERTEX_POINT ( 'NONE', #191 ) ;
#307 = VERTEX_POINT ( 'NONE', #196 ) ;
#308 = VERTEX_POINT ( 'NONE', #190 ) ;
#309 = VERTEX_POINT ( 'NONE', #207 ) ;
#310 = VERTEX_POINT ( 'NONE', #188 ) ;
#311 = VERTEX_POINT ( 'NONE', #187 ) ;
#312 = VERTEX_POINT ( 'NONE', #186 ) ;
#313 = VERTEX_POINT ( 'NONE', #185 ) ;
#314 = VERTEX_POINT ( 'NONE', #181 ) ;
#315 = VERTEX_POINT ( 'NONE', #180 ) ;
#316 = VERTEX_POINT ( 'NONE', #179 ) ;
#317 = ORIENTED_EDGE ( 'NONE', *, *, #70, .F. ) ;
#318 = ORIENTED_EDGE ( 'NONE', *, *, #47, .F. ) ;
#319 = ORIENTED_EDGE ( 'NONE', *, *, #42, .T. ) ;
#320 = ORIENTED_EDGE ( 'NONE', *, *, #55, .T. ) ;
#321 = ORIENTED_EDGE ( 'NONE', *, *, #60, .T. ) ;
#322 = ORIENTED_EDGE ( 'NONE', *, *, #75, .T. ) ;
#323 = ORIENTED_EDGE ( 'NONE', *, *, #38, .T. ) ;
#324 = ORIENTED_EDGE ( 'NONE', *, *, #54, .F. ) ;
#325 = ORIENTED_EDGE ( 'NONE', *, *, #46, .T. ) ;
#326 = ORIENTED_EDGE ( 'NONE', *, *, #75, .F. ) ;
#327 = ORIENTED_EDGE ( 'NONE', *, *, #26, .F. ) ;
#328 = ORIENTED_EDGE ( 'NONE', *, *, #12, .F. ) ;
#329 = ORIENTED_EDGE ( 'NONE', *, *, #58, .T. ) ;
#330 = ORIENTED_EDGE ( 'NONE', *, *, #57, .F. ) ;
#331 = ORIENTED_EDGE ( 'NONE', *, *, #37, .T. ) ;
#332 = ORIENTED_EDGE ( 'NONE', *, *, #52, .T. ) ;
#333 = ORIENTED_EDGE ( 'NONE', *, *, #24, .T. ) ;
#334 = ORIENTED_EDGE ( 'NONE', *, *, #70, .T. ) ;
#335 = ORIENTED_EDGE ( 'NONE', *, *, #56, .F. ) ;
#336 = VERTEX_POINT ( 'NONE', #174 ) ;
#337 = ORIENTED_EDGE ( 'NONE', *, *, #24, .F. ) ;
#338 = ORIENTED_EDGE ( 'NONE', *, *, #58, .F. ) ;
#339 = ORIENTED_EDGE ( 'NONE', *, *, #12, .T. ) ;
#340 = ORIENTED_EDGE ( 'NONE', *, *, #59, .F. ) ;
#341 = ORIENTED_EDGE ( 'NONE', *, *, #27, .F. ) ;
#342 = ORIENTED_EDGE ( 'NONE', *, *, #54, .T. ) ;
#343 = ORIENTED_EDGE ( 'NONE', *, *, #26, .T. ) ;
#344 = ORIENTED_EDGE ( 'NONE', *, *, #47, .T. ) ;
#345 = ORIENTED_EDGE ( 'NONE', *, *, #38, .F. ) ;
#346 = ORIENTED_EDGE ( 'NONE', *, *, #57, .T. ) ;
#347 = ORIENTED_EDGE ( 'NONE', *, *, #37, .F. ) ;
#348 = ORIENTED_EDGE ( 'NONE', *, *, #72, .F. ) ;
#349 = ORIENTED_EDGE ( 'NONE', *, *, #74, .T. ) ;
#350 = ORIENTED_EDGE ( 'NONE', *, *, #25, .F. ) ;
#351 = ORIENTED_EDGE ( 'NONE', *, *, #60, .F. ) ;
#352 = ORIENTED_EDGE ( 'NONE', *, *, #23, .T. ) ;
#353 = ORIENTED_EDGE ( 'NONE', *, *, #27, .T. ) ;
#354 = ORIENTED_EDGE ( 'NONE', *, *, #59, .T. ) ;
#355 = CLOSED_SHELL ( 'NONE', ( #1, #10, #9, #8, #5, #2, #11, #7, #6, #4, #3 ) ) ;
#356 = ORIENTED_EDGE ( 'NONE', *, *, #25, .T. ) ;
#357 = ORIENTED_EDGE ( 'NONE', *, *, #52, .F. ) ;
#358 = ORIENTED_EDGE ( 'NONE', *, *, #46, .F. ) ;
#359 = ORIENTED_EDGE ( 'NONE', *, *, #35, .F. ) ;
#360 = FACE_OUTER_BOUND ( 'NONE', #295, .T. ) ;
#361 = ORIENTED_EDGE ( 'NONE', *, *, #72, .T. ) ;
#362 = ORIENTED_EDGE ( 'NONE', *, *, #23, .F. ) ;
#363 = ORIENTED_EDGE ( 'NONE', *, *, #35, .T. ) ;
#364 = ORIENTED_EDGE ( 'NONE', *, *, #42, .F. ) ;
ENDSEC;
END-ISO-10303-21;
