ISO-10303-21;
HEADER;
FILE_DESCRIPTION (( 'STEP AP214' ),
    '1' );
FILE_NAME ('1077000013D00A.STEP',
    '2013-02-25T17:28:47',
    ( '' ),
    ( '' ),
    'SwSTEP 2.0',
    'SolidWorks 2012',
    '' );
FILE_SCHEMA (( 'AUTOMOTIVE_DESIGN' ));
ENDSEC;

DATA;
#1 = ADVANCED_FACE ( 'NONE', ( #287 ), #281, .T. ) ;
#2 = ADVANCED_FACE ( 'NONE', ( #286 ), #285, .T. ) ;
#3 = ADVANCED_FACE ( 'NONE', ( #282 ), #277, .T. ) ;
#4 = ADVANCED_FACE ( 'NONE', ( #284 ), #283, .T. ) ;
#5 = ADVANCED_FACE ( 'NONE', ( #278, #276 ), #187, .T. ) ;
#6 = ADVANCED_FACE ( 'NONE', ( #337 ), #273, .F. ) ;
#7 = ADVANCED_FACE ( 'NONE', ( #279, #272 ), #178, .T. ) ;
#8 = ADVANCED_FACE ( 'NONE', ( #275, #270 ), #158, .T. ) ;
#9 = ADVANCED_FACE ( 'NONE', ( #271 ), #267, .T. ) ;
#10 = ADVANCED_FACE ( 'NONE', ( #274 ), #265, .T. ) ;
#11 = ADVANCED_FACE ( 'NONE', ( #268 ), #263, .F. ) ;
#12 = EDGE_CURVE ( 'NONE', #353, #334, #264, .T. ) ;
#13 = AXIS2_PLACEMENT_3D ( 'NONE', #213, #214, #221 ) ;
#14 = AXIS2_PLACEMENT_3D ( 'NONE', #171, #176, #157 ) ;
#15 = AXIS2_PLACEMENT_3D ( 'NONE', #212, #211, #209 ) ;
#16 = AXIS2_PLACEMENT_3D ( 'NONE', #106, #220, #218 ) ;
#17 = AXIS2_PLACEMENT_3D ( 'NONE', #188, #196, #189 ) ;
#18 = AXIS2_PLACEMENT_3D ( 'NONE', #183, #186, #177 ) ;
#19 = AXIS2_PLACEMENT_3D ( 'NONE', #223, #222, #219 ) ;
#20 = AXIS2_PLACEMENT_3D ( 'NONE', #167, #164, #159 ) ;
#21 = AXIS2_PLACEMENT_3D ( 'NONE', #224, #215, #216 ) ;
#22 = EDGE_CURVE ( 'NONE', #343, #342, #266, .T. ) ;
#23 = EDGE_CURVE ( 'NONE', #339, #342, #269, .T. ) ;
#24 = EDGE_CURVE ( 'NONE', #351, #358, #280, .T. ) ;
#25 = EDGE_CURVE ( 'NONE', #341, #355, #261, .T. ) ;
#26 = EDGE_CURVE ( 'NONE', #250, #357, #260, .T. ) ;
#27 = EDGE_CURVE ( 'NONE', #343, #232, #259, .T. ) ;
#28 = AXIS2_PLACEMENT_3D ( 'NONE', #199, #204, #190 ) ;
#29 = EDGE_CURVE ( 'NONE', #230, #351, #258, .T. ) ;
#30 = EDGE_CURVE ( 'NONE', #355, #341, #257, .T. ) ;
#31 = EDGE_CURVE ( 'NONE', #232, #339, #255, .T. ) ;
#32 = EDGE_CURVE ( 'NONE', #357, #250, #256, .T. ) ;
#33 = AXIS2_PLACEMENT_3D ( 'NONE', #185, #184, #182 ) ;
#34 = AXIS2_PLACEMENT_3D ( 'NONE', #181, #180, #179 ) ;
#35 = EDGE_CURVE ( 'NONE', #342, #339, #252, .T. ) ;
#36 = AXIS2_PLACEMENT_3D ( 'NONE', #198, #197, #195 ) ;
#37 = EDGE_CURVE ( 'NONE', #352, #230, #251, .T. ) ;
#38 = EDGE_CURVE ( 'NONE', #341, #230, #249, .T. ) ;
#39 = EDGE_CURVE ( 'NONE', #358, #352, #254, .T. ) ;
#40 = EDGE_CURVE ( 'NONE', #355, #358, #246, .T. ) ;
#41 = EDGE_CURVE ( 'NONE', #334, #353, #248, .T. ) ;
#42 = EDGE_CURVE ( 'NONE', #349, #361, #244, .T. ) ;
#43 = EDGE_CURVE ( 'NONE', #361, #349, #242, .T. ) ;
#44 = EDGE_CURVE ( 'NONE', #232, #343, #240, .T. ) ;
#45 = PRODUCT_RELATED_PRODUCT_CATEGORY ( 'part', '', ( #76 ) ) ;
#46 = EDGE_CURVE ( 'NONE', #361, #351, #239, .T. ) ;
#47 = EDGE_CURVE ( 'NONE', #349, #352, #238, .T. ) ;
#48 = PRODUCT_DEFINITION_FORMATION_WITH_SPECIFIED_SOURCE ( 'TUTTO', '', #76, .NOT_KNOWN. ) ;
#49 = PRODUCT_DEFINITION ( 'NON CONOSCIUTO', '', #48, #78 ) ;
#50 = AXIS2_PLACEMENT_3D ( 'NONE', #148, #147, #145 ) ;
#51 = AXIS2_PLACEMENT_3D ( 'NONE', #98, #107, #90 ) ;
#52 = AXIS2_PLACEMENT_3D ( 'NONE', #175, #174, #173 ) ;
#53 = AXIS2_PLACEMENT_3D ( 'NONE', #163, #162, #161 ) ;
#54 = AXIS2_PLACEMENT_3D ( 'NONE', #156, #155, #154 ) ;
#55 = EDGE_CURVE ( 'NONE', #334, #250, #236, .T. ) ;
#56 = AXIS2_PLACEMENT_3D ( 'NONE', #152, #151, #150 ) ;
#57 =( GEOMETRIC_REPRESENTATION_CONTEXT ( 3 ) GLOBAL_UNCERTAINTY_ASSIGNED_CONTEXT ( ( #83 ) ) GLOBAL_UNIT_ASSIGNED_CONTEXT ( ( #111, #97, #104 ) ) REPRESENTATION_CONTEXT ( 'NONE', 'WORKASPACE' ) );
#58 = MECHANICAL_DESIGN_GEOMETRIC_PRESENTATION_REPRESENTATION (  '', ( #60 ), #57 ) ;
#59 = PRESENTATION_LAYER_ASSIGNMENT (  '', '', ( #60 ) ) ;
#60 = STYLED_ITEM ( 'NONE', ( #245 ), #81 ) ;
#61 =( GEOMETRIC_REPRESENTATION_CONTEXT ( 3 ) GLOBAL_UNCERTAINTY_ASSIGNED_CONTEXT ( ( #79 ) ) GLOBAL_UNIT_ASSIGNED_CONTEXT ( ( #92, #91, #87 ) ) REPRESENTATION_CONTEXT ( 'NONE', 'WORKASPACE' ) );
#62 =( GEOMETRIC_REPRESENTATION_CONTEXT ( 3 ) GLOBAL_UNCERTAINTY_ASSIGNED_CONTEXT ( ( #80 ) ) GLOBAL_UNIT_ASSIGNED_CONTEXT ( ( #119, #118, #117 ) ) REPRESENTATION_CONTEXT ( 'NONE', 'WORKASPACE' ) );
#63 = AXIS2_PLACEMENT_3D ( 'NONE', #169, #168, #166 ) ;
#64 = MECHANICAL_DESIGN_GEOMETRIC_PRESENTATION_REPRESENTATION (  '', ( #67 ), #62 ) ;
#65 = EDGE_CURVE ( 'NONE', #353, #357, #234, .T. ) ;
#66 = PRESENTATION_LAYER_ASSIGNMENT (  '', '', ( #67 ) ) ;
#67 = STYLED_ITEM ( 'NONE', ( #227 ), #82 ) ;
#68 = AXIS2_PLACEMENT_3D ( 'NONE', #194, #193, #192 ) ;
#69 = AXIS2_PLACEMENT_3D ( 'NONE', #202, #201, #200 ) ;
#70 = AXIS2_PLACEMENT_3D ( 'NONE', #141, #133, #142 ) ;
#71 = AXIS2_PLACEMENT_3D ( 'NONE', #207, #206, #205 ) ;
#72 = AXIS2_PLACEMENT_3D ( 'NONE', #135, #134, #132 ) ;
#73 = AXIS2_PLACEMENT_3D ( 'NONE', #149, #146, #153 ) ;
#74 = AXIS2_PLACEMENT_3D ( 'NONE', #210, #203, #208 ) ;
#75 = AXIS2_PLACEMENT_3D ( 'NONE', #140, #139, #138 ) ;
#76 = PRODUCT ( '1077000013D00A', '1077000013D00A', '', ( #89 ) ) ;
#77 = PRODUCT_DEFINITION_SHAPE ( 'NONE', 'NONE',  #49 ) ;
#78 = PRODUCT_DEFINITION_CONTEXT ( 'detailed design', #88, 'design' ) ;
#79 = UNCERTAINTY_MEASURE_WITH_UNIT (LENGTH_MEASURE( 1.000000000000000100E-005 ), #92, 'distance_accuracy_value', 'NONE');
#80 = UNCERTAINTY_MEASURE_WITH_UNIT (LENGTH_MEASURE( 1.000000000000000100E-005 ), #119, 'distance_accuracy_value', 'NONE');
#81 = ADVANCED_BREP_SHAPE_REPRESENTATION ( '1077000013D00A', ( #82, #51 ), #61 ) ;
#82 = MANIFOLD_SOLID_BREP ( 'Importato1', #338 ) ;
#83 = UNCERTAINTY_MEASURE_WITH_UNIT (LENGTH_MEASURE( 1.000000000000000100E-005 ), #111, 'distance_accuracy_value', 'NONE');
#84 = CARTESIAN_POINT ( 'NONE',  ( 3.061616997868383100E-016, 1.000000000000000000, 2.500000000000000000 ) ) ;
#85 = APPLICATION_PROTOCOL_DEFINITION ( 'draft international standard', 'automotive_design', 1998, #100 ) ;
#86 = APPLICATION_PROTOCOL_DEFINITION ( 'draft international standard', 'automotive_design', 1998, #88 ) ;
#87 =( NAMED_UNIT ( * ) SI_UNIT ( $, .STERADIAN. ) SOLID_ANGLE_UNIT ( ) );
#88 = APPLICATION_CONTEXT ( 'automotive_design' ) ;
#89 = PRODUCT_CONTEXT ( 'NONE', #100, 'mechanical' ) ;
#90 = DIRECTION ( 'NONE',  ( 1.000000000000000000, 0.0000000000000000000, 0.0000000000000000000 ) ) ;
#91 =( NAMED_UNIT ( * ) PLANE_ANGLE_UNIT ( ) SI_UNIT ( $, .RADIAN. ) );
#92 =( LENGTH_UNIT ( ) NAMED_UNIT ( * ) SI_UNIT ( .MILLI., .METRE. ) );
#93 = FILL_AREA_STYLE_COLOUR ( '', #228 ) ;
#94 = CARTESIAN_POINT ( 'NONE',  ( 1.999999999999997300, 12.00000000000001100, 0.0000000000000000000 ) ) ;
#95 = SURFACE_STYLE_USAGE ( .BOTH. , #96 ) ;
#96 = SURFACE_SIDE_STYLE ('',( #229 ) ) ;
#97 =( NAMED_UNIT ( * ) PLANE_ANGLE_UNIT ( ) SI_UNIT ( $, .RADIAN. ) );
#98 = CARTESIAN_POINT ( 'NONE',  ( 0.0000000000000000000, 0.0000000000000000000, 0.0000000000000000000 ) ) ;
#99 = CARTESIAN_POINT ( 'NONE',  ( 2.449293598294706400E-016, 1.000000000000000000, -2.000000000000000000 ) ) ;
#100 = APPLICATION_CONTEXT ( 'automotive_design' ) ;
#101 = CARTESIAN_POINT ( 'NONE',  ( 0.0000000000000000000, 13.00000000000000200, 1.500000000000000000 ) ) ;
#102 = CARTESIAN_POINT ( 'NONE',  ( 1.823673019000017700, 12.99999999999989900, 0.0000000000000000000 ) ) ;
#103 = DIRECTION ( 'NONE',  ( 0.0000000000000000000, -1.000000000000000000, 0.0000000000000000000 ) ) ;
#104 =( NAMED_UNIT ( * ) SI_UNIT ( $, .STERADIAN. ) SOLID_ANGLE_UNIT ( ) );
#105 = CARTESIAN_POINT ( 'NONE',  ( 2.449293598294706400E-016, 12.00000000000001100, -2.000000000000000000 ) ) ;
#106 = CARTESIAN_POINT ( 'NONE',  ( 0.0000000000000000000, 0.0000000000000000000, 0.0000000000000000000 ) ) ;
#107 = DIRECTION ( 'NONE',  ( 0.0000000000000000000, 0.0000000000000000000, 1.000000000000000000 ) ) ;
#108 = CARTESIAN_POINT ( 'NONE',  ( 0.0000000000000000000, 1.000000000000000000, 2.000000000000000000 ) ) ;
#109 = CARTESIAN_POINT ( 'NONE',  ( 3.061616997868383100E-016, 1.000000000000000000, 2.500000000000000000 ) ) ;
#110 = CARTESIAN_POINT ( 'NONE',  ( 0.0000000000000000000, 12.00000000000001100, 2.000000000000000000 ) ) ;
#111 =( LENGTH_UNIT ( ) NAMED_UNIT ( * ) SI_UNIT ( .MILLI., .METRE. ) );
#112 = CARTESIAN_POINT ( 'NONE',  ( 0.0000000000000000000, 0.0000000000000000000, 1.500000000000000000 ) ) ;
#113 = CARTESIAN_POINT ( 'NONE',  ( 3.061616997868383100E-016, 0.0000000000000000000, 2.500000000000000000 ) ) ;
#114 = CARTESIAN_POINT ( 'NONE',  ( 0.0000000000000000000, 0.0000000000000000000, -2.500000000000000000 ) ) ;
#115 = CARTESIAN_POINT ( 'NONE',  ( 0.0000000000000000000, 1.000000000000000000, -2.500000000000000000 ) ) ;
#116 = CARTESIAN_POINT ( 'NONE',  ( 1.836970198721029900E-016, 0.0000000000000000000, -1.500000000000000000 ) ) ;
#117 =( NAMED_UNIT ( * ) SI_UNIT ( $, .STERADIAN. ) SOLID_ANGLE_UNIT ( ) );
#118 =( NAMED_UNIT ( * ) PLANE_ANGLE_UNIT ( ) SI_UNIT ( $, .RADIAN. ) );
#119 =( LENGTH_UNIT ( ) NAMED_UNIT ( * ) SI_UNIT ( .MILLI., .METRE. ) );
#120 = SURFACE_STYLE_USAGE ( .BOTH. , #121 ) ;
#121 = SURFACE_SIDE_STYLE ('',( #241 ) ) ;
#122 = FILL_AREA_STYLE ('',( #137 ) ) ;
#123 = CARTESIAN_POINT ( 'NONE',  ( 1.836970198721029900E-016, 13.00000000000000200, -1.500000000000000000 ) ) ;
#124 = DIRECTION ( 'NONE',  ( -0.0000000000000000000, 1.000000000000000000, 0.0000000000000000000 ) ) ;
#125 = FILL_AREA_STYLE ('',( #93 ) ) ;
#126 = CARTESIAN_POINT ( 'NONE',  ( -1.999999999999999100, 12.00000000000001100, 2.449293598294704900E-016 ) ) ;
#127 = CARTESIAN_POINT ( 'NONE',  ( 0.0000000000000000000, 0.0000000000000000000, 1.500000000000000000 ) ) ;
#128 = DIRECTION ( 'NONE',  ( -0.0000000000000000000, 1.000000000000000000, 0.0000000000000000000 ) ) ;
#129 = CARTESIAN_POINT ( 'NONE',  ( 1.836970198721029900E-016, 0.0000000000000000000, -1.500000000000000000 ) ) ;
#130 = DIRECTION ( 'NONE',  ( -0.0000000000000000000, 1.000000000000000000, 0.0000000000000000000 ) ) ;
#131 = CARTESIAN_POINT ( 'NONE',  ( 0.0000000000000000000, 1.000000000000000000, 2.000000000000000000 ) ) ;
#132 = DIRECTION ( 'NONE',  ( 0.0000000000000000000, 0.0000000000000000000, -1.000000000000000000 ) ) ;
#133 = DIRECTION ( 'NONE',  ( -0.0000000000000000000, 1.000000000000000000, 0.0000000000000000000 ) ) ;
#134 = DIRECTION ( 'NONE',  ( -0.0000000000000000000, 1.000000000000000000, -0.0000000000000000000 ) ) ;
#135 = CARTESIAN_POINT ( 'NONE',  ( 0.0000000000000000000, 1.000000000000000000, 0.0000000000000000000 ) ) ;
#136 = CARTESIAN_POINT ( 'NONE',  ( -1.823673019000017700, 12.99999999999990200, 2.341324461852234500E-016 ) ) ;
#137 = FILL_AREA_STYLE_COLOUR ( '', #226 ) ;
#138 = DIRECTION ( 'NONE',  ( 0.0000000000000000000, 0.0000000000000000000, 1.000000000000000000 ) ) ;
#139 = DIRECTION ( 'NONE',  ( 0.0000000000000000000, -1.000000000000000000, -0.0000000000000000000 ) ) ;
#140 = CARTESIAN_POINT ( 'NONE',  ( 0.0000000000000000000, 1.000000000000000000, 0.0000000000000000000 ) ) ;
#141 = CARTESIAN_POINT ( 'NONE',  ( 0.0000000000000000000, 0.0000000000000000000, 0.0000000000000000000 ) ) ;
#142 = DIRECTION ( 'NONE',  ( 0.0000000000000000000, 0.0000000000000000000, 1.000000000000000000 ) ) ;
#143 = DIRECTION ( 'NONE',  ( -0.0000000000000000000, 1.000000000000000000, 0.0000000000000000000 ) ) ;
#144 = CARTESIAN_POINT ( 'NONE',  ( 2.449293598294706400E-016, 1.000000000000000000, -2.000000000000000000 ) ) ;
#145 = DIRECTION ( 'NONE',  ( 0.0000000000000000000, 0.0000000000000000000, 1.000000000000000000 ) ) ;
#146 = DIRECTION ( 'NONE',  ( -0.0000000000000000000, 1.000000000000000000, 0.0000000000000000000 ) ) ;
#147 = DIRECTION ( 'NONE',  ( 0.0000000000000000000, -1.000000000000000000, -0.0000000000000000000 ) ) ;
#148 = CARTESIAN_POINT ( 'NONE',  ( 0.0000000000000000000, 1.000000000000000000, 0.0000000000000000000 ) ) ;
#149 = CARTESIAN_POINT ( 'NONE',  ( 0.0000000000000000000, 1.000000000000000000, 0.0000000000000000000 ) ) ;
#150 = DIRECTION ( 'NONE',  ( 0.0000000000000000000, 0.0000000000000000000, 1.000000000000000000 ) ) ;
#151 = DIRECTION ( 'NONE',  ( 0.0000000000000000000, -1.000000000000000000, -0.0000000000000000000 ) ) ;
#152 = CARTESIAN_POINT ( 'NONE',  ( 0.0000000000000000000, 0.0000000000000000000, 0.0000000000000000000 ) ) ;
#153 = DIRECTION ( 'NONE',  ( 0.0000000000000000000, 0.0000000000000000000, 1.000000000000000000 ) ) ;
#154 = DIRECTION ( 'NONE',  ( 0.0000000000000000000, -5.204170427930421300E-015, -1.000000000000000000 ) ) ;
#155 = DIRECTION ( 'NONE',  ( 0.0000000000000000000, -1.000000000000000000, 0.0000000000000000000 ) ) ;
#156 = CARTESIAN_POINT ( 'NONE',  ( 0.0000000000000000000, 12.00000000000001100, 0.0000000000000000000 ) ) ;
#157 = DIRECTION ( 'NONE',  ( -1.000000000000000000, 0.0000000000000000000, 0.0000000000000000000 ) ) ;
#158 = PLANE ( 'NONE',  #14 ) ;
#159 = DIRECTION ( 'NONE',  ( 0.0000000000000000000, 0.0000000000000000000, -1.000000000000000000 ) ) ;
#160 = CARTESIAN_POINT ( 'NONE',  ( 1.823673018999999900, 13.00000000000000000, 0.0000000000000000000 ) ) ;
#161 = DIRECTION ( 'NONE',  ( 0.0000000000000000000, -5.204170427930421300E-015, -1.000000000000000000 ) ) ;
#162 = DIRECTION ( 'NONE',  ( 0.0000000000000000000, -1.000000000000000000, 0.0000000000000000000 ) ) ;
#163 = CARTESIAN_POINT ( 'NONE',  ( 0.0000000000000000000, 12.00000000000001100, 0.0000000000000000000 ) ) ;
#164 = DIRECTION ( 'NONE',  ( 0.0000000000000000000, -1.000000000000000000, 0.0000000000000000000 ) ) ;
#165 = DIRECTION ( 'NONE',  ( 0.1736481779453784600, -0.9848077529631101800, 0.0000000000000000000 ) ) ;
#166 = DIRECTION ( 'NONE',  ( 0.0000000000000000000, 0.0000000000000000000, -1.000000000000000000 ) ) ;
#167 = CARTESIAN_POINT ( 'NONE',  ( 0.0000000000000000000, 1.000000000000000000, 0.0000000000000000000 ) ) ;
#168 = DIRECTION ( 'NONE',  ( 0.0000000000000000000, -1.000000000000000000, 0.0000000000000000000 ) ) ;
#169 = CARTESIAN_POINT ( 'NONE',  ( 0.0000000000000000000, 0.0000000000000000000, 0.0000000000000000000 ) ) ;
#170 = DIRECTION ( 'NONE',  ( -0.1736481779453793700, -0.9848077529631099600, 2.126576852985783400E-017 ) ) ;
#171 = CARTESIAN_POINT ( 'NONE',  ( 1.845557095000000200, 13.00000000000000200, -1.845557095000000200 ) ) ;
#172 = CARTESIAN_POINT ( 'NONE',  ( -1.823673018999999900, 13.00000000000000400, 2.233355325409740400E-016 ) ) ;
#173 = DIRECTION ( 'NONE',  ( 0.0000000000000000000, 0.0000000000000000000, 1.000000000000000000 ) ) ;
#174 = DIRECTION ( 'NONE',  ( 0.0000000000000000000, -1.000000000000000000, -0.0000000000000000000 ) ) ;
#175 = CARTESIAN_POINT ( 'NONE',  ( 0.0000000000000000000, 13.00000000000000200, 0.0000000000000000000 ) ) ;
#176 = DIRECTION ( 'NONE',  ( 0.0000000000000000000, 1.000000000000000000, -0.0000000000000000000 ) ) ;
#177 = DIRECTION ( 'NONE',  ( -1.000000000000000000, 0.0000000000000000000, 0.0000000000000000000 ) ) ;
#178 = PLANE ( 'NONE',  #18 ) ;
#179 = DIRECTION ( 'NONE',  ( 1.000000000000000000, -9.512250594835335300E-016, 0.0000000000000000000 ) ) ;
#180 = DIRECTION ( 'NONE',  ( 4.756125297417715000E-016, 1.000000000000000000, -0.0000000000000000000 ) ) ;
#181 = CARTESIAN_POINT ( 'NONE',  ( -4.785326080725179000E-029, 12.99999999999990100, 0.0000000000000000000 ) ) ;
#182 = DIRECTION ( 'NONE',  ( 0.0000000000000000000, -5.204170427930421300E-015, -1.000000000000000000 ) ) ;
#183 = CARTESIAN_POINT ( 'NONE',  ( 2.529999999999999800, 1.000000000000000000, -2.529999999999999800 ) ) ;
#184 = DIRECTION ( 'NONE',  ( 0.0000000000000000000, -1.000000000000000000, 0.0000000000000000000 ) ) ;
#185 = CARTESIAN_POINT ( 'NONE',  ( 0.0000000000000000000, 12.00000000000001100, 0.0000000000000000000 ) ) ;
#186 = DIRECTION ( 'NONE',  ( 0.0000000000000000000, 1.000000000000000000, -0.0000000000000000000 ) ) ;
#187 = PLANE ( 'NONE',  #28 ) ;
#188 = CARTESIAN_POINT ( 'NONE',  ( 0.0000000000000000000, 0.0000000000000000000, 0.0000000000000000000 ) ) ;
#189 = DIRECTION ( 'NONE',  ( 0.0000000000000000000, 0.0000000000000000000, 1.000000000000000000 ) ) ;
#190 = DIRECTION ( 'NONE',  ( 1.000000000000000000, 0.0000000000000000000, 0.0000000000000000000 ) ) ;
#191 = DIRECTION ( 'NONE',  ( 0.0000000000000000000, -1.000000000000000000, 0.0000000000000000000 ) ) ;
#192 = DIRECTION ( 'NONE',  ( 0.0000000000000000000, 0.0000000000000000000, -1.000000000000000000 ) ) ;
#193 = DIRECTION ( 'NONE',  ( -0.0000000000000000000, 1.000000000000000000, -0.0000000000000000000 ) ) ;
#194 = CARTESIAN_POINT ( 'NONE',  ( 0.0000000000000000000, 1.000000000000000000, 0.0000000000000000000 ) ) ;
#195 = DIRECTION ( 'NONE',  ( 0.0000000000000000000, 0.0000000000000000000, 1.000000000000000000 ) ) ;
#196 = DIRECTION ( 'NONE',  ( -0.0000000000000000000, 1.000000000000000000, 0.0000000000000000000 ) ) ;
#197 = DIRECTION ( 'NONE',  ( 0.0000000000000000000, -1.000000000000000000, -0.0000000000000000000 ) ) ;
#198 = CARTESIAN_POINT ( 'NONE',  ( 0.0000000000000000000, 13.00000000000000200, 0.0000000000000000000 ) ) ;
#199 = CARTESIAN_POINT ( 'NONE',  ( -2.529999999999999800, 0.0000000000000000000, -2.529999999999999800 ) ) ;
#200 = DIRECTION ( 'NONE',  ( 1.000000000000000000, -9.512250594835335300E-016, 0.0000000000000000000 ) ) ;
#201 = DIRECTION ( 'NONE',  ( 4.756125297417715000E-016, 1.000000000000000000, -0.0000000000000000000 ) ) ;
#202 = CARTESIAN_POINT ( 'NONE',  ( -4.785326080725179000E-029, 12.99999999999990100, 0.0000000000000000000 ) ) ;
#203 = DIRECTION ( 'NONE',  ( -0.0000000000000000000, 1.000000000000000000, 0.0000000000000000000 ) ) ;
#204 = DIRECTION ( 'NONE',  ( 0.0000000000000000000, -1.000000000000000000, 0.0000000000000000000 ) ) ;
#205 = DIRECTION ( 'NONE',  ( 0.0000000000000000000, -5.204170427930421300E-015, -1.000000000000000000 ) ) ;
#206 = DIRECTION ( 'NONE',  ( 0.0000000000000000000, -1.000000000000000000, 0.0000000000000000000 ) ) ;
#207 = CARTESIAN_POINT ( 'NONE',  ( 0.0000000000000000000, 12.00000000000001100, 0.0000000000000000000 ) ) ;
#208 = DIRECTION ( 'NONE',  ( 0.0000000000000000000, 0.0000000000000000000, 1.000000000000000000 ) ) ;
#209 = DIRECTION ( 'NONE',  ( 0.0000000000000000000, 0.0000000000000000000, -1.000000000000000000 ) ) ;
#210 = CARTESIAN_POINT ( 'NONE',  ( 0.0000000000000000000, 1.000000000000000000, 0.0000000000000000000 ) ) ;
#211 = DIRECTION ( 'NONE',  ( 0.0000000000000000000, -1.000000000000000000, 0.0000000000000000000 ) ) ;
#212 = CARTESIAN_POINT ( 'NONE',  ( 0.0000000000000000000, 0.0000000000000000000, 0.0000000000000000000 ) ) ;
#213 = CARTESIAN_POINT ( 'NONE',  ( 0.0000000000000000000, 13.00000000000000200, 0.0000000000000000000 ) ) ;
#214 = DIRECTION ( 'NONE',  ( -4.756125297417715000E-016, -1.000000000000000000, 0.0000000000000000000 ) ) ;
#215 = DIRECTION ( 'NONE',  ( -4.756125297417715000E-016, -1.000000000000000000, 0.0000000000000000000 ) ) ;
#216 = DIRECTION ( 'NONE',  ( 1.000000000000000000, -9.512250594835428000E-016, 0.0000000000000000000 ) ) ;
#217 = CARTESIAN_POINT ( 'NONE',  ( 0.0000000000000000000, 1.000000000000000000, -2.500000000000000000 ) ) ;
#218 = DIRECTION ( 'NONE',  ( 0.0000000000000000000, 0.0000000000000000000, 1.000000000000000000 ) ) ;
#219 = DIRECTION ( 'NONE',  ( 0.0000000000000000000, 0.0000000000000000000, -1.000000000000000000 ) ) ;
#220 = DIRECTION ( 'NONE',  ( 0.0000000000000000000, -1.000000000000000000, -0.0000000000000000000 ) ) ;
#221 = DIRECTION ( 'NONE',  ( 1.000000000000000000, -9.512250594835428000E-016, 0.0000000000000000000 ) ) ;
#222 = DIRECTION ( 'NONE',  ( 0.0000000000000000000, -1.000000000000000000, 0.0000000000000000000 ) ) ;
#223 = CARTESIAN_POINT ( 'NONE',  ( 0.0000000000000000000, 1.000000000000000000, 0.0000000000000000000 ) ) ;
#224 = CARTESIAN_POINT ( 'NONE',  ( 0.0000000000000000000, 13.00000000000000200, 0.0000000000000000000 ) ) ;
#225 = SHAPE_DEFINITION_REPRESENTATION ( #77, #81 ) ;
#226 = COLOUR_RGB ( '',1.000000000000000000, 1.000000000000000000, 0.5019607843137254800 ) ;
#227 = PRESENTATION_STYLE_ASSIGNMENT (( #120 ) ) ;
#228 = COLOUR_RGB ( '',1.000000000000000000, 1.000000000000000000, 0.5019607843137254800 ) ;
#229 = SURFACE_STYLE_FILL_AREA ( #125 ) ;
#230 = VERTEX_POINT ( 'NONE', #126 ) ;
#231 = VECTOR ( 'NONE', #124, 1000.000000000000000 ) ;
#232 = VERTEX_POINT ( 'NONE', #115 ) ;
#233 = VECTOR ( 'NONE', #128, 1000.000000000000000 ) ;
#234 = LINE ( 'NONE', #127, #231 ) ;
#235 = VECTOR ( 'NONE', #130, 1000.000000000000000 ) ;
#236 = LINE ( 'NONE', #129, #233 ) ;
#237 = VECTOR ( 'NONE', #143, 1000.000000000000000 ) ;
#238 = LINE ( 'NONE', #131, #235 ) ;
#239 = LINE ( 'NONE', #144, #237 ) ;
#240 = CIRCLE ( 'NONE', #72, 2.500000000000000000 ) ;
#241 = SURFACE_STYLE_FILL_AREA ( #122 ) ;
#242 = CIRCLE ( 'NONE', #75, 2.000000000000000000 ) ;
#243 = VECTOR ( 'NONE', #165, 1000.000000000000000 ) ;
#244 = CIRCLE ( 'NONE', #50, 2.000000000000000000 ) ;
#245 = PRESENTATION_STYLE_ASSIGNMENT (( #95 ) ) ;
#246 = LINE ( 'NONE', #160, #243 ) ;
#247 = VECTOR ( 'NONE', #170, 1000.000000000000200 ) ;
#248 = CIRCLE ( 'NONE', #56, 1.500000000000000000 ) ;
#249 = LINE ( 'NONE', #172, #247 ) ;
#250 = VERTEX_POINT ( 'NONE', #123 ) ;
#251 = CIRCLE ( 'NONE', #53, 2.000000000000000000 ) ;
#252 = CIRCLE ( 'NONE', #63, 2.500000000000000000 ) ;
#253 = VECTOR ( 'NONE', #191, 1000.000000000000000 ) ;
#254 = CIRCLE ( 'NONE', #54, 2.000000000000000000 ) ;
#255 = LINE ( 'NONE', #217, #253 ) ;
#256 = CIRCLE ( 'NONE', #52, 1.500000000000000000 ) ;
#257 = CIRCLE ( 'NONE', #34, 1.823673019000017700 ) ;
#258 = CIRCLE ( 'NONE', #33, 2.000000000000000000 ) ;
#259 = CIRCLE ( 'NONE', #68, 2.500000000000000000 ) ;
#260 = CIRCLE ( 'NONE', #36, 1.500000000000000000 ) ;
#261 = CIRCLE ( 'NONE', #69, 1.823673019000017700 ) ;
#262 = VECTOR ( 'NONE', #103, 1000.000000000000000 ) ;
#263 = CYLINDRICAL_SURFACE ( 'NONE', #70, 1.500000000000000000 ) ;
#264 = CIRCLE ( 'NONE', #16, 1.500000000000000000 ) ;
#265 = CYLINDRICAL_SURFACE ( 'NONE', #73, 2.000000000000000000 ) ;
#266 = LINE ( 'NONE', #84, #262 ) ;
#267 = CYLINDRICAL_SURFACE ( 'NONE', #20, 2.500000000000000000 ) ;
#268 = FACE_OUTER_BOUND ( 'NONE', #294, .T. ) ;
#269 = CIRCLE ( 'NONE', #15, 2.500000000000000000 ) ;
#270 = FACE_OUTER_BOUND ( 'NONE', #299, .T. ) ;
#271 = FACE_OUTER_BOUND ( 'NONE', #293, .T. ) ;
#272 = FACE_OUTER_BOUND ( 'NONE', #292, .T. ) ;
#273 = CYLINDRICAL_SURFACE ( 'NONE', #17, 1.500000000000000000 ) ;
#274 = FACE_OUTER_BOUND ( 'NONE', #295, .T. ) ;
#275 = FACE_BOUND ( 'NONE', #291, .T. ) ;
#276 = FACE_OUTER_BOUND ( 'NONE', #290, .T. ) ;
#277 = CONICAL_SURFACE ( 'NONE', #13, 1.823673018999999900, 0.1745329254821770500 ) ;
#278 = FACE_BOUND ( 'NONE', #335, .T. ) ;
#279 = FACE_BOUND ( 'NONE', #288, .T. ) ;
#280 = CIRCLE ( 'NONE', #71, 2.000000000000000000 ) ;
#281 = CONICAL_SURFACE ( 'NONE', #21, 1.823673018999999900, 0.1745329254821770500 ) ;
#282 = FACE_OUTER_BOUND ( 'NONE', #296, .T. ) ;
#283 = CYLINDRICAL_SURFACE ( 'NONE', #74, 2.000000000000000000 ) ;
#284 = FACE_OUTER_BOUND ( 'NONE', #298, .T. ) ;
#285 = CYLINDRICAL_SURFACE ( 'NONE', #19, 2.500000000000000000 ) ;
#286 = FACE_OUTER_BOUND ( 'NONE', #289, .T. ) ;
#287 = FACE_OUTER_BOUND ( 'NONE', #297, .T. ) ;
#288 = EDGE_LOOP ( 'NONE', ( #347, #328 ) ) ;
#289 = EDGE_LOOP ( 'NONE', ( #345, #344, #348, #354 ) ) ;
#290 = EDGE_LOOP ( 'NONE', ( #314, #313 ) ) ;
#291 = EDGE_LOOP ( 'NONE', ( #301, #302 ) ) ;
#292 = EDGE_LOOP ( 'NONE', ( #309, #321 ) ) ;
#293 = EDGE_LOOP ( 'NONE', ( #329, #336, #346, #327 ) ) ;
#294 = EDGE_LOOP ( 'NONE', ( #360, #333, #326, #340 ) ) ;
#295 = EDGE_LOOP ( 'NONE', ( #330, #319, #311, #331, #332 ) ) ;
#296 = EDGE_LOOP ( 'NONE', ( #322, #323, #363, #350, #356 ) ) ;
#297 = EDGE_LOOP ( 'NONE', ( #316, #308, #315, #307, #325 ) ) ;
#298 = EDGE_LOOP ( 'NONE', ( #318, #305, #306, #304, #303 ) ) ;
#299 = EDGE_LOOP ( 'NONE', ( #324, #320 ) ) ;
#300 = EDGE_LOOP ( 'NONE', ( #362, #312, #317, #310 ) ) ;
#301 = ORIENTED_EDGE ( 'NONE', *, *, #32, .T. ) ;
#302 = ORIENTED_EDGE ( 'NONE', *, *, #26, .T. ) ;
#303 = ORIENTED_EDGE ( 'NONE', *, *, #29, .T. ) ;
#304 = ORIENTED_EDGE ( 'NONE', *, *, #37, .T. ) ;
#305 = ORIENTED_EDGE ( 'NONE', *, *, #42, .F. ) ;
#306 = ORIENTED_EDGE ( 'NONE', *, *, #47, .T. ) ;
#307 = ORIENTED_EDGE ( 'NONE', *, *, #39, .F. ) ;
#308 = ORIENTED_EDGE ( 'NONE', *, *, #38, .T. ) ;
#309 = ORIENTED_EDGE ( 'NONE', *, *, #44, .T. ) ;
#310 = ORIENTED_EDGE ( 'NONE', *, *, #65, .F. ) ;
#311 = ORIENTED_EDGE ( 'NONE', *, *, #24, .T. ) ;
#312 = ORIENTED_EDGE ( 'NONE', *, *, #55, .T. ) ;
#313 = ORIENTED_EDGE ( 'NONE', *, *, #35, .T. ) ;
#314 = ORIENTED_EDGE ( 'NONE', *, *, #23, .T. ) ;
#315 = ORIENTED_EDGE ( 'NONE', *, *, #37, .F. ) ;
#316 = ORIENTED_EDGE ( 'NONE', *, *, #25, .F. ) ;
#317 = ORIENTED_EDGE ( 'NONE', *, *, #32, .F. ) ;
#318 = ORIENTED_EDGE ( 'NONE', *, *, #46, .F. ) ;
#319 = ORIENTED_EDGE ( 'NONE', *, *, #46, .T. ) ;
#320 = ORIENTED_EDGE ( 'NONE', *, *, #25, .T. ) ;
#321 = ORIENTED_EDGE ( 'NONE', *, *, #27, .T. ) ;
#322 = ORIENTED_EDGE ( 'NONE', *, *, #38, .F. ) ;
#323 = ORIENTED_EDGE ( 'NONE', *, *, #30, .F. ) ;
#324 = ORIENTED_EDGE ( 'NONE', *, *, #30, .T. ) ;
#325 = ORIENTED_EDGE ( 'NONE', *, *, #40, .F. ) ;
#326 = ORIENTED_EDGE ( 'NONE', *, *, #65, .T. ) ;
#327 = ORIENTED_EDGE ( 'NONE', *, *, #31, .F. ) ;
#328 = ORIENTED_EDGE ( 'NONE', *, *, #43, .T. ) ;
#329 = ORIENTED_EDGE ( 'NONE', *, *, #27, .F. ) ;
#330 = ORIENTED_EDGE ( 'NONE', *, *, #43, .F. ) ;
#331 = ORIENTED_EDGE ( 'NONE', *, *, #39, .T. ) ;
#332 = ORIENTED_EDGE ( 'NONE', *, *, #47, .F. ) ;
#333 = ORIENTED_EDGE ( 'NONE', *, *, #41, .T. ) ;
#334 = VERTEX_POINT ( 'NONE', #116 ) ;
#335 = EDGE_LOOP ( 'NONE', ( #364, #359 ) ) ;
#336 = ORIENTED_EDGE ( 'NONE', *, *, #22, .T. ) ;
#337 = FACE_OUTER_BOUND ( 'NONE', #300, .T. ) ;
#338 = CLOSED_SHELL ( 'NONE', ( #1, #10, #6, #9, #3, #8, #4, #11, #7, #5, #2 ) ) ;
#339 = VERTEX_POINT ( 'NONE', #114 ) ;
#340 = ORIENTED_EDGE ( 'NONE', *, *, #26, .F. ) ;
#341 = VERTEX_POINT ( 'NONE', #136 ) ;
#342 = VERTEX_POINT ( 'NONE', #113 ) ;
#343 = VERTEX_POINT ( 'NONE', #109 ) ;
#344 = ORIENTED_EDGE ( 'NONE', *, *, #44, .F. ) ;
#345 = ORIENTED_EDGE ( 'NONE', *, *, #22, .F. ) ;
#346 = ORIENTED_EDGE ( 'NONE', *, *, #23, .F. ) ;
#347 = ORIENTED_EDGE ( 'NONE', *, *, #42, .T. ) ;
#348 = ORIENTED_EDGE ( 'NONE', *, *, #31, .T. ) ;
#349 = VERTEX_POINT ( 'NONE', #108 ) ;
#350 = ORIENTED_EDGE ( 'NONE', *, *, #24, .F. ) ;
#351 = VERTEX_POINT ( 'NONE', #105 ) ;
#352 = VERTEX_POINT ( 'NONE', #110 ) ;
#353 = VERTEX_POINT ( 'NONE', #112 ) ;
#354 = ORIENTED_EDGE ( 'NONE', *, *, #35, .F. ) ;
#355 = VERTEX_POINT ( 'NONE', #102 ) ;
#356 = ORIENTED_EDGE ( 'NONE', *, *, #29, .F. ) ;
#357 = VERTEX_POINT ( 'NONE', #101 ) ;
#358 = VERTEX_POINT ( 'NONE', #94 ) ;
#359 = ORIENTED_EDGE ( 'NONE', *, *, #41, .F. ) ;
#360 = ORIENTED_EDGE ( 'NONE', *, *, #55, .F. ) ;
#361 = VERTEX_POINT ( 'NONE', #99 ) ;
#362 = ORIENTED_EDGE ( 'NONE', *, *, #12, .T. ) ;
#363 = ORIENTED_EDGE ( 'NONE', *, *, #40, .T. ) ;
#364 = ORIENTED_EDGE ( 'NONE', *, *, #12, .F. ) ;
ENDSEC;
END-ISO-10303-21;
