ISO-10303-21;
HEADER;
FILE_DESCRIPTION (( 'STEP AP214' ),
    '1' );
FILE_NAME ('1077000014D00A.STEP',
    '2013-02-25T17:28:33',
    ( '' ),
    ( '' ),
    'SwSTEP 2.0',
    'SolidWorks 2012',
    '' );
FILE_SCHEMA (( 'AUTOMOTIVE_DESIGN' ));
ENDSEC;

DATA;
#1 = ADVANCED_FACE ( 'NONE', ( #272 ), #267, .T. ) ;
#2 = ADVANCED_FACE ( 'NONE', ( #270, #266 ), #194, .T. ) ;
#3 = ADVANCED_FACE ( 'NONE', ( #315 ), #263, .T. ) ;
#4 = ADVANCED_FACE ( 'NONE', ( #269 ), #259, .T. ) ;
#5 = ADVANCED_FACE ( 'NONE', ( #264 ), #268, .F. ) ;
#6 = ADVANCED_FACE ( 'NONE', ( #260 ), #257, .T. ) ;
#7 = ADVANCED_FACE ( 'NONE', ( #262, #256 ), #170, .T. ) ;
#8 = ADVANCED_FACE ( 'NONE', ( #265 ), #253, .F. ) ;
#9 = ADVANCED_FACE ( 'NONE', ( #261, #252 ), #137, .T. ) ;
#10 = ADVANCED_FACE ( 'NONE', ( #255 ), #247, .T. ) ;
#11 = ADVANCED_FACE ( 'NONE', ( #258 ), #254, .T. ) ;
#12 = AXIS2_PLACEMENT_3D ( 'NONE', #212, #207, #204 ) ;
#13 = EDGE_CURVE ( 'NONE', #331, #335, #250, .T. ) ;
#14 = STYLED_ITEM ( 'NONE', ( #215 ), #75 ) ;
#15 = PRESENTATION_LAYER_ASSIGNMENT (  '', '', ( #14 ) ) ;
#16 = AXIS2_PLACEMENT_3D ( 'NONE', #191, #189, #187 ) ;
#17 = EDGE_CURVE ( 'NONE', #339, #344, #248, .T. ) ;
#18 = EDGE_CURVE ( 'NONE', #327, #313, #251, .T. ) ;
#19 = AXIS2_PLACEMENT_3D ( 'NONE', #125, #122, #121 ) ;
#20 = EDGE_CURVE ( 'NONE', #328, #336, #249, .T. ) ;
#21 = EDGE_CURVE ( 'NONE', #330, #318, #246, .T. ) ;
#22 = PRODUCT_RELATED_PRODUCT_CATEGORY ( 'part', '', ( #72 ) ) ;
#23 = EDGE_CURVE ( 'NONE', #333, #237, #245, .T. ) ;
#24 = AXIS2_PLACEMENT_3D ( 'NONE', #182, #181, #179 ) ;
#25 = EDGE_CURVE ( 'NONE', #340, #330, #244, .T. ) ;
#26 = AXIS2_PLACEMENT_3D ( 'NONE', #168, #167, #166 ) ;
#27 = AXIS2_PLACEMENT_3D ( 'NONE', #163, #162, #161 ) ;
#28 = AXIS2_PLACEMENT_3D ( 'NONE', #206, #203, #211 ) ;
#29 = AXIS2_PLACEMENT_3D ( 'NONE', #124, #139, #134 ) ;
#30 = AXIS2_PLACEMENT_3D ( 'NONE', #123, #146, #128 ) ;
#31 = AXIS2_PLACEMENT_3D ( 'NONE', #190, #185, #193 ) ;
#32 = EDGE_CURVE ( 'NONE', #344, #336, #241, .T. ) ;
#33 = EDGE_CURVE ( 'NONE', #339, #328, #242, .T. ) ;
#34 = AXIS2_PLACEMENT_3D ( 'NONE', #183, #160, #199 ) ;
#35 = EDGE_CURVE ( 'NONE', #313, #327, #238, .T. ) ;
#36 = AXIS2_PLACEMENT_3D ( 'NONE', #202, #201, #200 ) ;
#37 = AXIS2_PLACEMENT_3D ( 'NONE', #210, #209, #208 ) ;
#38 = AXIS2_PLACEMENT_3D ( 'NONE', #153, #172, #177 ) ;
#39 = AXIS2_PLACEMENT_3D ( 'NONE', #147, #145, #144 ) ;
#40 = PRODUCT_DEFINITION_FORMATION_WITH_SPECIFIED_SOURCE ( 'TUTTO', '', #72, .NOT_KNOWN. ) ;
#41 = AXIS2_PLACEMENT_3D ( 'NONE', #142, #150, #133 ) ;
#42 = AXIS2_PLACEMENT_3D ( 'NONE', #98, #175, #154 ) ;
#43 = EDGE_CURVE ( 'NONE', #344, #339, #235, .T. ) ;
#44 = EDGE_CURVE ( 'NONE', #336, #328, #234, .T. ) ;
#45 = AXIS2_PLACEMENT_3D ( 'NONE', #197, #196, #195 ) ;
#46 = EDGE_CURVE ( 'NONE', #333, #331, #233, .T. ) ;
#47 = PRODUCT_DEFINITION ( 'NON CONOSCIUTO', '', #40, #73 ) ;
#48 = AXIS2_PLACEMENT_3D ( 'NONE', #94, #81, #80 ) ;
#49 = AXIS2_PLACEMENT_3D ( 'NONE', #131, #130, #129 ) ;
#50 = AXIS2_PLACEMENT_3D ( 'NONE', #138, #136, #135 ) ;
#51 = EDGE_CURVE ( 'NONE', #313, #328, #240, .T. ) ;
#52 = AXIS2_PLACEMENT_3D ( 'NONE', #158, #156, #155 ) ;
#53 = EDGE_CURVE ( 'NONE', #338, #318, #232, .T. ) ;
#54 = EDGE_CURVE ( 'NONE', #327, #336, #228, .T. ) ;
#55 = EDGE_CURVE ( 'NONE', #237, #335, #226, .T. ) ;
#56 = EDGE_CURVE ( 'NONE', #237, #333, #225, .T. ) ;
#57 = EDGE_CURVE ( 'NONE', #340, #338, #221, .T. ) ;
#58 = EDGE_CURVE ( 'NONE', #318, #338, #223, .T. ) ;
#59 = EDGE_CURVE ( 'NONE', #330, #340, #218, .T. ) ;
#60 = EDGE_CURVE ( 'NONE', #335, #331, #217, .T. ) ;
#61 = MECHANICAL_DESIGN_GEOMETRIC_PRESENTATION_REPRESENTATION (  '', ( #14 ), #68 ) ;
#62 =( GEOMETRIC_REPRESENTATION_CONTEXT ( 3 ) GLOBAL_UNCERTAINTY_ASSIGNED_CONTEXT ( ( #78 ) ) GLOBAL_UNIT_ASSIGNED_CONTEXT ( ( #85, #84, #83 ) ) REPRESENTATION_CONTEXT ( 'NONE', 'WORKASPACE' ) );
#63 = MECHANICAL_DESIGN_GEOMETRIC_PRESENTATION_REPRESENTATION (  '', ( #65 ), #62 ) ;
#64 = PRESENTATION_LAYER_ASSIGNMENT (  '', '', ( #65 ) ) ;
#65 = STYLED_ITEM ( 'NONE', ( #231 ), #77 ) ;
#66 = AXIS2_PLACEMENT_3D ( 'NONE', #174, #173, #171 ) ;
#67 = AXIS2_PLACEMENT_3D ( 'NONE', #118, #117, #116 ) ;
#68 =( GEOMETRIC_REPRESENTATION_CONTEXT ( 3 ) GLOBAL_UNCERTAINTY_ASSIGNED_CONTEXT ( ( #79 ) ) GLOBAL_UNIT_ASSIGNED_CONTEXT ( ( #113, #112, #111 ) ) REPRESENTATION_CONTEXT ( 'NONE', 'WORKASPACE' ) );
#69 = AXIS2_PLACEMENT_3D ( 'NONE', #178, #188, #180 ) ;
#70 = AXIS2_PLACEMENT_3D ( 'NONE', #198, #96, #205 ) ;
#71 =( GEOMETRIC_REPRESENTATION_CONTEXT ( 3 ) GLOBAL_UNCERTAINTY_ASSIGNED_CONTEXT ( ( #76 ) ) GLOBAL_UNIT_ASSIGNED_CONTEXT ( ( #95, #93, #91 ) ) REPRESENTATION_CONTEXT ( 'NONE', 'WORKASPACE' ) );
#72 = PRODUCT ( '1077000014D00A', '1077000014D00A', '', ( #157 ) ) ;
#73 = PRODUCT_DEFINITION_CONTEXT ( 'detailed design', #82, 'design' ) ;
#74 = PRODUCT_DEFINITION_SHAPE ( 'NONE', 'NONE',  #47 ) ;
#75 = MANIFOLD_SOLID_BREP ( 'Importato1', #319 ) ;
#76 = UNCERTAINTY_MEASURE_WITH_UNIT (LENGTH_MEASURE( 1.000000000000000100E-005 ), #95, 'distance_accuracy_value', 'NONE');
#77 = ADVANCED_BREP_SHAPE_REPRESENTATION ( '1077000014D00A', ( #75, #48 ), #71 ) ;
#78 = UNCERTAINTY_MEASURE_WITH_UNIT (LENGTH_MEASURE( 1.000000000000000100E-005 ), #85, 'distance_accuracy_value', 'NONE');
#79 = UNCERTAINTY_MEASURE_WITH_UNIT (LENGTH_MEASURE( 1.000000000000000100E-005 ), #113, 'distance_accuracy_value', 'NONE');
#80 = DIRECTION ( 'NONE',  ( 1.000000000000000000, 0.0000000000000000000, 0.0000000000000000000 ) ) ;
#81 = DIRECTION ( 'NONE',  ( 0.0000000000000000000, 0.0000000000000000000, 1.000000000000000000 ) ) ;
#82 = APPLICATION_CONTEXT ( 'automotive_design' ) ;
#83 =( NAMED_UNIT ( * ) SI_UNIT ( $, .STERADIAN. ) SOLID_ANGLE_UNIT ( ) );
#84 =( NAMED_UNIT ( * ) PLANE_ANGLE_UNIT ( ) SI_UNIT ( $, .RADIAN. ) );
#85 =( LENGTH_UNIT ( ) NAMED_UNIT ( * ) SI_UNIT ( .MILLI., .METRE. ) );
#86 = SURFACE_STYLE_USAGE ( .BOTH. , #87 ) ;
#87 = SURFACE_SIDE_STYLE ('',( #213 ) ) ;
#88 = FILL_AREA_STYLE ('',( #103 ) ) ;
#89 = APPLICATION_CONTEXT ( 'automotive_design' ) ;
#90 = APPLICATION_PROTOCOL_DEFINITION ( 'draft international standard', 'automotive_design', 1998, #89 ) ;
#91 =( NAMED_UNIT ( * ) SI_UNIT ( $, .STERADIAN. ) SOLID_ANGLE_UNIT ( ) );
#92 = APPLICATION_PROTOCOL_DEFINITION ( 'draft international standard', 'automotive_design', 1998, #82 ) ;
#93 =( NAMED_UNIT ( * ) PLANE_ANGLE_UNIT ( ) SI_UNIT ( $, .RADIAN. ) );
#94 = CARTESIAN_POINT ( 'NONE',  ( 0.0000000000000000000, 0.0000000000000000000, 0.0000000000000000000 ) ) ;
#95 =( LENGTH_UNIT ( ) NAMED_UNIT ( * ) SI_UNIT ( .MILLI., .METRE. ) );
#96 = DIRECTION ( 'NONE',  ( 0.0000000000000000000, -1.000000000000000000, 0.0000000000000000000 ) ) ;
#97 = DIRECTION ( 'NONE',  ( 0.0000000000000000000, 1.000000000000000000, 0.0000000000000000000 ) ) ;
#98 = CARTESIAN_POINT ( 'NONE',  ( 3.541999999999999800, 1.000000000000000000, -3.541999999999999800 ) ) ;
#99 = CARTESIAN_POINT ( 'NONE',  ( 3.061616997868383100E-016, 0.0000000000000000000, -2.500000000000000000 ) ) ;
#100 = CARTESIAN_POINT ( 'NONE',  ( 0.0000000000000000000, 1.000000000000000000, 3.000000000000000000 ) ) ;
#101 = CARTESIAN_POINT ( 'NONE',  ( 3.673940397442059900E-016, 1.000000000000000000, -3.000000000000000000 ) ) ;
#102 = CARTESIAN_POINT ( 'NONE',  ( 3.673940397442059900E-016, 15.50000000000006900, -3.000000000000000000 ) ) ;
#103 = FILL_AREA_STYLE_COLOUR ( '', #214 ) ;
#104 = CARTESIAN_POINT ( 'NONE',  ( 3.061616997868383100E-016, 16.50000000000000000, -2.500000000000000000 ) ) ;
#105 = CARTESIAN_POINT ( 'NONE',  ( 0.0000000000000000000, 0.0000000000000000000, -3.500000000000000000 ) ) ;
#106 = CARTESIAN_POINT ( 'NONE',  ( 0.0000000000000000000, 16.49999999999995700, -2.823673019000006800 ) ) ;
#107 = CARTESIAN_POINT ( 'NONE',  ( 0.0000000000000000000, 15.50000000000006900, 3.000000000000000000 ) ) ;
#108 = CARTESIAN_POINT ( 'NONE',  ( 3.565971260999580600E-016, 16.49999999999995700, 2.823673019000006800 ) ) ;
#109 = CARTESIAN_POINT ( 'NONE',  ( 4.286263797015736600E-016, 0.0000000000000000000, 3.500000000000000000 ) ) ;
#110 = CARTESIAN_POINT ( 'NONE',  ( 0.0000000000000000000, 0.0000000000000000000, 2.500000000000000000 ) ) ;
#111 =( NAMED_UNIT ( * ) SI_UNIT ( $, .STERADIAN. ) SOLID_ANGLE_UNIT ( ) );
#112 =( NAMED_UNIT ( * ) PLANE_ANGLE_UNIT ( ) SI_UNIT ( $, .RADIAN. ) );
#113 =( LENGTH_UNIT ( ) NAMED_UNIT ( * ) SI_UNIT ( .MILLI., .METRE. ) );
#114 = SURFACE_STYLE_USAGE ( .BOTH. , #115 ) ;
#115 = SURFACE_SIDE_STYLE ('',( #216 ) ) ;
#116 = DIRECTION ( 'NONE',  ( 0.0000000000000000000, 0.0000000000000000000, -1.000000000000000000 ) ) ;
#117 = DIRECTION ( 'NONE',  ( 0.0000000000000000000, -1.000000000000000000, 0.0000000000000000000 ) ) ;
#118 = CARTESIAN_POINT ( 'NONE',  ( 0.0000000000000000000, 0.0000000000000000000, 0.0000000000000000000 ) ) ;
#119 = CARTESIAN_POINT ( 'NONE',  ( 4.286263797015736600E-016, 1.000000000000000000, 3.500000000000000000 ) ) ;
#120 = FILL_AREA_STYLE ('',( #132 ) ) ;
#121 = DIRECTION ( 'NONE',  ( 0.0000000000000000000, 0.0000000000000000000, 1.000000000000000000 ) ) ;
#122 = DIRECTION ( 'NONE',  ( -0.0000000000000000000, -1.000000000000000000, -0.0000000000000000000 ) ) ;
#123 = CARTESIAN_POINT ( 'NONE',  ( 0.0000000000000000000, 1.000000000000000000, 0.0000000000000000000 ) ) ;
#124 = CARTESIAN_POINT ( 'NONE',  ( 0.0000000000000000000, 16.50000000000000000, 0.0000000000000000000 ) ) ;
#125 = CARTESIAN_POINT ( 'NONE',  ( 0.0000000000000000000, 0.0000000000000000000, 0.0000000000000000000 ) ) ;
#126 = CARTESIAN_POINT ( 'NONE',  ( 0.0000000000000000000, 16.50000000000000000, 2.500000000000000000 ) ) ;
#127 = CARTESIAN_POINT ( 'NONE',  ( 0.0000000000000000000, 1.000000000000000000, -3.500000000000000000 ) ) ;
#128 = DIRECTION ( 'NONE',  ( 0.0000000000000000000, 0.0000000000000000000, 1.000000000000000000 ) ) ;
#129 = DIRECTION ( 'NONE',  ( 0.0000000000000000000, 0.0000000000000000000, 1.000000000000000000 ) ) ;
#130 = DIRECTION ( 'NONE',  ( -0.0000000000000000000, -1.000000000000000000, -0.0000000000000000000 ) ) ;
#131 = CARTESIAN_POINT ( 'NONE',  ( 0.0000000000000000000, 16.50000000000000000, 0.0000000000000000000 ) ) ;
#132 = FILL_AREA_STYLE_COLOUR ( '', #220 ) ;
#133 = DIRECTION ( 'NONE',  ( 1.000000000000000000, 0.0000000000000000000, 0.0000000000000000000 ) ) ;
#134 = DIRECTION ( 'NONE',  ( 0.0000000000000000000, 0.0000000000000000000, -1.000000000000000000 ) ) ;
#135 = DIRECTION ( 'NONE',  ( 0.0000000000000000000, 0.0000000000000000000, -1.000000000000000000 ) ) ;
#136 = DIRECTION ( 'NONE',  ( -0.0000000000000000000, 1.000000000000000000, -0.0000000000000000000 ) ) ;
#137 = PLANE ( 'NONE',  #41 ) ;
#138 = CARTESIAN_POINT ( 'NONE',  ( 0.0000000000000000000, 1.000000000000000000, 0.0000000000000000000 ) ) ;
#139 = DIRECTION ( 'NONE',  ( 0.0000000000000000000, -1.000000000000000000, 0.0000000000000000000 ) ) ;
#140 = CARTESIAN_POINT ( 'NONE',  ( 3.061616997868383100E-016, 0.0000000000000000000, -2.500000000000000000 ) ) ;
#141 = DIRECTION ( 'NONE',  ( 0.0000000000000000000, -1.000000000000000000, 0.0000000000000000000 ) ) ;
#142 = CARTESIAN_POINT ( 'NONE',  ( -3.541999999999999800, 0.0000000000000000000, -3.541999999999999800 ) ) ;
#143 = DIRECTION ( 'NONE',  ( 0.0000000000000000000, 1.000000000000000000, 0.0000000000000000000 ) ) ;
#144 = DIRECTION ( 'NONE',  ( 0.0000000000000000000, 0.0000000000000000000, 1.000000000000000000 ) ) ;
#145 = DIRECTION ( 'NONE',  ( -0.0000000000000000000, -1.000000000000000000, -0.0000000000000000000 ) ) ;
#146 = DIRECTION ( 'NONE',  ( -0.0000000000000000000, 1.000000000000000000, 0.0000000000000000000 ) ) ;
#147 = CARTESIAN_POINT ( 'NONE',  ( 0.0000000000000000000, 16.50000000000000000, 0.0000000000000000000 ) ) ;
#148 = CARTESIAN_POINT ( 'NONE',  ( 0.0000000000000000000, 16.50000000000000000, -2.823673018999999700 ) ) ;
#149 = CARTESIAN_POINT ( 'NONE',  ( 0.0000000000000000000, 1.000000000000000000, -3.500000000000000000 ) ) ;
#150 = DIRECTION ( 'NONE',  ( 0.0000000000000000000, -1.000000000000000000, 0.0000000000000000000 ) ) ;
#151 = DIRECTION ( 'NONE',  ( 0.0000000000000000000, -0.9848077529631100700, -0.1736481779453793500 ) ) ;
#152 = DIRECTION ( 'NONE',  ( 2.126576852985788700E-017, -0.9848077529631100700, 0.1736481779453793500 ) ) ;
#153 = CARTESIAN_POINT ( 'NONE',  ( 0.0000000000000000000, 0.0000000000000000000, 0.0000000000000000000 ) ) ;
#154 = DIRECTION ( 'NONE',  ( -1.000000000000000000, 0.0000000000000000000, 0.0000000000000000000 ) ) ;
#155 = DIRECTION ( 'NONE',  ( 0.0000000000000000000, -2.312964634635742900E-014, -1.000000000000000000 ) ) ;
#156 = DIRECTION ( 'NONE',  ( 0.0000000000000000000, -1.000000000000000000, 0.0000000000000000000 ) ) ;
#157 = PRODUCT_CONTEXT ( 'NONE', #89, 'mechanical' ) ;
#158 = CARTESIAN_POINT ( 'NONE',  ( 0.0000000000000000000, 15.50000000000006900, 0.0000000000000000000 ) ) ;
#159 = CARTESIAN_POINT ( 'NONE',  ( 3.458002124557092900E-016, 16.50000000000000000, 2.823673018999999700 ) ) ;
#160 = DIRECTION ( 'NONE',  ( 0.0000000000000000000, -1.000000000000000000, 0.0000000000000000000 ) ) ;
#161 = DIRECTION ( 'NONE',  ( 0.0000000000000000000, 0.0000000000000000000, 1.000000000000000000 ) ) ;
#162 = DIRECTION ( 'NONE',  ( 0.0000000000000000000, -1.000000000000000000, -0.0000000000000000000 ) ) ;
#163 = CARTESIAN_POINT ( 'NONE',  ( 0.0000000000000000000, 1.000000000000000000, 0.0000000000000000000 ) ) ;
#164 = DIRECTION ( 'NONE',  ( 0.0000000000000000000, -1.000000000000000000, 0.0000000000000000000 ) ) ;
#165 = CARTESIAN_POINT ( 'NONE',  ( 4.286263797015736600E-016, 1.000000000000000000, 3.500000000000000000 ) ) ;
#166 = DIRECTION ( 'NONE',  ( 0.0000000000000000000, 0.0000000000000000000, -1.000000000000000000 ) ) ;
#167 = DIRECTION ( 'NONE',  ( -0.0000000000000000000, 1.000000000000000000, -0.0000000000000000000 ) ) ;
#168 = CARTESIAN_POINT ( 'NONE',  ( 0.0000000000000000000, 16.49999999999995700, 0.0000000000000000000 ) ) ;
#169 = DIRECTION ( 'NONE',  ( -0.0000000000000000000, 1.000000000000000000, 0.0000000000000000000 ) ) ;
#170 = PLANE ( 'NONE',  #42 ) ;
#171 = DIRECTION ( 'NONE',  ( 0.0000000000000000000, 0.0000000000000000000, 1.000000000000000000 ) ) ;
#172 = DIRECTION ( 'NONE',  ( 0.0000000000000000000, 1.000000000000000000, 0.0000000000000000000 ) ) ;
#173 = DIRECTION ( 'NONE',  ( -0.0000000000000000000, -1.000000000000000000, -0.0000000000000000000 ) ) ;
#174 = CARTESIAN_POINT ( 'NONE',  ( 0.0000000000000000000, 0.0000000000000000000, 0.0000000000000000000 ) ) ;
#175 = DIRECTION ( 'NONE',  ( 0.0000000000000000000, 1.000000000000000000, -0.0000000000000000000 ) ) ;
#176 = CARTESIAN_POINT ( 'NONE',  ( 0.0000000000000000000, 1.000000000000000000, 3.000000000000000000 ) ) ;
#177 = DIRECTION ( 'NONE',  ( 0.0000000000000000000, 0.0000000000000000000, 1.000000000000000000 ) ) ;
#178 = CARTESIAN_POINT ( 'NONE',  ( 0.0000000000000000000, 1.000000000000000000, 0.0000000000000000000 ) ) ;
#179 = DIRECTION ( 'NONE',  ( 0.0000000000000000000, 0.0000000000000000000, -1.000000000000000000 ) ) ;
#180 = DIRECTION ( 'NONE',  ( 0.0000000000000000000, 0.0000000000000000000, 1.000000000000000000 ) ) ;
#181 = DIRECTION ( 'NONE',  ( -0.0000000000000000000, 1.000000000000000000, -0.0000000000000000000 ) ) ;
#182 = CARTESIAN_POINT ( 'NONE',  ( 0.0000000000000000000, 1.000000000000000000, 0.0000000000000000000 ) ) ;
#183 = CARTESIAN_POINT ( 'NONE',  ( 0.0000000000000000000, 16.50000000000000000, 0.0000000000000000000 ) ) ;
#184 = DIRECTION ( 'NONE',  ( -0.0000000000000000000, 1.000000000000000000, 0.0000000000000000000 ) ) ;
#185 = DIRECTION ( 'NONE',  ( 0.0000000000000000000, 1.000000000000000000, 0.0000000000000000000 ) ) ;
#186 = CARTESIAN_POINT ( 'NONE',  ( 3.673940397442059900E-016, 1.000000000000000000, -3.000000000000000000 ) ) ;
#187 = DIRECTION ( 'NONE',  ( 0.0000000000000000000, -2.312964634635742900E-014, -1.000000000000000000 ) ) ;
#188 = DIRECTION ( 'NONE',  ( -0.0000000000000000000, 1.000000000000000000, 0.0000000000000000000 ) ) ;
#189 = DIRECTION ( 'NONE',  ( 0.0000000000000000000, -1.000000000000000000, 0.0000000000000000000 ) ) ;
#190 = CARTESIAN_POINT ( 'NONE',  ( 0.0000000000000000000, 0.0000000000000000000, 0.0000000000000000000 ) ) ;
#191 = CARTESIAN_POINT ( 'NONE',  ( 0.0000000000000000000, 15.50000000000006900, 0.0000000000000000000 ) ) ;
#192 = CARTESIAN_POINT ( 'NONE',  ( 0.0000000000000000000, 0.0000000000000000000, 2.500000000000000000 ) ) ;
#193 = DIRECTION ( 'NONE',  ( 0.0000000000000000000, 0.0000000000000000000, 1.000000000000000000 ) ) ;
#194 = PLANE ( 'NONE',  #12 ) ;
#195 = DIRECTION ( 'NONE',  ( 0.0000000000000000000, 0.0000000000000000000, -1.000000000000000000 ) ) ;
#196 = DIRECTION ( 'NONE',  ( -0.0000000000000000000, 1.000000000000000000, -0.0000000000000000000 ) ) ;
#197 = CARTESIAN_POINT ( 'NONE',  ( 0.0000000000000000000, 16.49999999999995700, 0.0000000000000000000 ) ) ;
#198 = CARTESIAN_POINT ( 'NONE',  ( 0.0000000000000000000, 1.000000000000000000, 0.0000000000000000000 ) ) ;
#199 = DIRECTION ( 'NONE',  ( 0.0000000000000000000, 0.0000000000000000000, -1.000000000000000000 ) ) ;
#200 = DIRECTION ( 'NONE',  ( 0.0000000000000000000, 0.0000000000000000000, 1.000000000000000000 ) ) ;
#201 = DIRECTION ( 'NONE',  ( 0.0000000000000000000, -1.000000000000000000, -0.0000000000000000000 ) ) ;
#202 = CARTESIAN_POINT ( 'NONE',  ( 0.0000000000000000000, 1.000000000000000000, 0.0000000000000000000 ) ) ;
#203 = DIRECTION ( 'NONE',  ( 0.0000000000000000000, -1.000000000000000000, 0.0000000000000000000 ) ) ;
#204 = DIRECTION ( 'NONE',  ( -1.000000000000000000, 0.0000000000000000000, 0.0000000000000000000 ) ) ;
#205 = DIRECTION ( 'NONE',  ( 0.0000000000000000000, 0.0000000000000000000, -1.000000000000000000 ) ) ;
#206 = CARTESIAN_POINT ( 'NONE',  ( 0.0000000000000000000, 1.000000000000000000, 0.0000000000000000000 ) ) ;
#207 = DIRECTION ( 'NONE',  ( 0.0000000000000000000, 1.000000000000000000, -0.0000000000000000000 ) ) ;
#208 = DIRECTION ( 'NONE',  ( 0.0000000000000000000, 0.0000000000000000000, -1.000000000000000000 ) ) ;
#209 = DIRECTION ( 'NONE',  ( 0.0000000000000000000, -1.000000000000000000, 0.0000000000000000000 ) ) ;
#210 = CARTESIAN_POINT ( 'NONE',  ( 0.0000000000000000000, 0.0000000000000000000, 0.0000000000000000000 ) ) ;
#211 = DIRECTION ( 'NONE',  ( 0.0000000000000000000, 0.0000000000000000000, -1.000000000000000000 ) ) ;
#212 = CARTESIAN_POINT ( 'NONE',  ( 2.857557094999999800, 16.50000000000000000, -2.857557094999999800 ) ) ;
#213 = SURFACE_STYLE_FILL_AREA ( #88 ) ;
#214 = COLOUR_RGB ( '',1.000000000000000000, 1.000000000000000000, 0.5019607843137254800 ) ;
#215 = PRESENTATION_STYLE_ASSIGNMENT (( #114 ) ) ;
#216 = SURFACE_STYLE_FILL_AREA ( #120 ) ;
#217 = CIRCLE ( 'NONE', #67, 3.500000000000000000 ) ;
#218 = CIRCLE ( 'NONE', #19, 2.500000000000000000 ) ;
#219 = VECTOR ( 'NONE', #143, 1000.000000000000000 ) ;
#220 = COLOUR_RGB ( '',1.000000000000000000, 1.000000000000000000, 0.5019607843137254800 ) ;
#221 = LINE ( 'NONE', #140, #219 ) ;
#222 = VECTOR ( 'NONE', #141, 1000.000000000000000 ) ;
#223 = CIRCLE ( 'NONE', #49, 2.500000000000000000 ) ;
#224 = VECTOR ( 'NONE', #151, 1000.000000000000100 ) ;
#225 = CIRCLE ( 'NONE', #50, 3.500000000000000000 ) ;
#226 = LINE ( 'NONE', #149, #222 ) ;
#227 = VECTOR ( 'NONE', #152, 1000.000000000000100 ) ;
#228 = LINE ( 'NONE', #148, #224 ) ;
#229 = ORIENTED_EDGE ( 'NONE', *, *, #51, .F. ) ;
#230 = VECTOR ( 'NONE', #164, 1000.000000000000000 ) ;
#231 = PRESENTATION_STYLE_ASSIGNMENT (( #86 ) ) ;
#232 = CIRCLE ( 'NONE', #39, 2.500000000000000000 ) ;
#233 = LINE ( 'NONE', #165, #230 ) ;
#234 = CIRCLE ( 'NONE', #52, 3.000000000000000000 ) ;
#235 = CIRCLE ( 'NONE', #27, 3.000000000000000000 ) ;
#236 = VECTOR ( 'NONE', #169, 1000.000000000000000 ) ;
#237 = VERTEX_POINT ( 'NONE', #127 ) ;
#238 = CIRCLE ( 'NONE', #26, 2.823673019000006800 ) ;
#239 = VECTOR ( 'NONE', #184, 1000.000000000000000 ) ;
#240 = LINE ( 'NONE', #159, #227 ) ;
#241 = LINE ( 'NONE', #186, #239 ) ;
#242 = LINE ( 'NONE', #176, #236 ) ;
#243 = VECTOR ( 'NONE', #97, 1000.000000000000000 ) ;
#244 = CIRCLE ( 'NONE', #66, 2.500000000000000000 ) ;
#245 = CIRCLE ( 'NONE', #24, 3.500000000000000000 ) ;
#246 = LINE ( 'NONE', #192, #243 ) ;
#247 = CONICAL_SURFACE ( 'NONE', #29, 2.823673018999999700, 0.1745329254821774700 ) ;
#248 = CIRCLE ( 'NONE', #36, 3.000000000000000000 ) ;
#249 = CIRCLE ( 'NONE', #16, 3.000000000000000000 ) ;
#250 = CIRCLE ( 'NONE', #37, 3.500000000000000000 ) ;
#251 = CIRCLE ( 'NONE', #45, 2.823673019000006800 ) ;
#252 = FACE_OUTER_BOUND ( 'NONE', #274, .T. ) ;
#253 = CYLINDRICAL_SURFACE ( 'NONE', #38, 2.500000000000000000 ) ;
#254 = CYLINDRICAL_SURFACE ( 'NONE', #30, 3.000000000000000000 ) ;
#255 = FACE_OUTER_BOUND ( 'NONE', #273, .T. ) ;
#256 = FACE_OUTER_BOUND ( 'NONE', #279, .T. ) ;
#257 = CYLINDRICAL_SURFACE ( 'NONE', #69, 3.000000000000000000 ) ;
#258 = FACE_OUTER_BOUND ( 'NONE', #283, .T. ) ;
#259 = CONICAL_SURFACE ( 'NONE', #34, 2.823673018999999700, 0.1745329254821774700 ) ;
#260 = FACE_OUTER_BOUND ( 'NONE', #314, .T. ) ;
#261 = FACE_BOUND ( 'NONE', #275, .T. ) ;
#262 = FACE_BOUND ( 'NONE', #285, .T. ) ;
#263 = CYLINDRICAL_SURFACE ( 'NONE', #70, 3.500000000000000000 ) ;
#264 = FACE_OUTER_BOUND ( 'NONE', #280, .T. ) ;
#265 = FACE_OUTER_BOUND ( 'NONE', #281, .T. ) ;
#266 = FACE_OUTER_BOUND ( 'NONE', #282, .T. ) ;
#267 = CYLINDRICAL_SURFACE ( 'NONE', #28, 3.500000000000000000 ) ;
#268 = CYLINDRICAL_SURFACE ( 'NONE', #31, 2.500000000000000000 ) ;
#269 = FACE_OUTER_BOUND ( 'NONE', #278, .T. ) ;
#270 = FACE_BOUND ( 'NONE', #284, .T. ) ;
#271 = SHAPE_DEFINITION_REPRESENTATION ( #74, #77 ) ;
#272 = FACE_OUTER_BOUND ( 'NONE', #277, .T. ) ;
#273 = EDGE_LOOP ( 'NONE', ( #321, #309, #342, #290 ) ) ;
#274 = EDGE_LOOP ( 'NONE', ( #292, #291 ) ) ;
#275 = EDGE_LOOP ( 'NONE', ( #323, #286 ) ) ;
#276 = EDGE_LOOP ( 'NONE', ( #303, #311, #316, #325 ) ) ;
#277 = EDGE_LOOP ( 'NONE', ( #289, #287, #337, #300 ) ) ;
#278 = EDGE_LOOP ( 'NONE', ( #229, #329, #301, #302 ) ) ;
#279 = EDGE_LOOP ( 'NONE', ( #297, #288 ) ) ;
#280 = EDGE_LOOP ( 'NONE', ( #306, #332, #307, #304 ) ) ;
#281 = EDGE_LOOP ( 'NONE', ( #324, #295, #334, #320 ) ) ;
#282 = EDGE_LOOP ( 'NONE', ( #326, #341 ) ) ;
#283 = EDGE_LOOP ( 'NONE', ( #322, #299, #343, #308 ) ) ;
#284 = EDGE_LOOP ( 'NONE', ( #317, #312 ) ) ;
#285 = EDGE_LOOP ( 'NONE', ( #294, #293 ) ) ;
#286 = ORIENTED_EDGE ( 'NONE', *, *, #25, .F. ) ;
#287 = ORIENTED_EDGE ( 'NONE', *, *, #56, .F. ) ;
#288 = ORIENTED_EDGE ( 'NONE', *, *, #23, .T. ) ;
#289 = ORIENTED_EDGE ( 'NONE', *, *, #46, .F. ) ;
#290 = ORIENTED_EDGE ( 'NONE', *, *, #54, .F. ) ;
#291 = ORIENTED_EDGE ( 'NONE', *, *, #13, .T. ) ;
#292 = ORIENTED_EDGE ( 'NONE', *, *, #60, .T. ) ;
#293 = ORIENTED_EDGE ( 'NONE', *, *, #43, .T. ) ;
#294 = ORIENTED_EDGE ( 'NONE', *, *, #17, .T. ) ;
#295 = ORIENTED_EDGE ( 'NONE', *, *, #25, .T. ) ;
#296 = ORIENTED_EDGE ( 'NONE', *, *, #44, .T. ) ;
#297 = ORIENTED_EDGE ( 'NONE', *, *, #56, .T. ) ;
#298 = ORIENTED_EDGE ( 'NONE', *, *, #33, .F. ) ;
#299 = ORIENTED_EDGE ( 'NONE', *, *, #17, .F. ) ;
#300 = ORIENTED_EDGE ( 'NONE', *, *, #13, .F. ) ;
#301 = ORIENTED_EDGE ( 'NONE', *, *, #54, .T. ) ;
#302 = ORIENTED_EDGE ( 'NONE', *, *, #20, .F. ) ;
#303 = ORIENTED_EDGE ( 'NONE', *, *, #23, .F. ) ;
#304 = ORIENTED_EDGE ( 'NONE', *, *, #21, .F. ) ;
#305 = ORIENTED_EDGE ( 'NONE', *, *, #32, .T. ) ;
#306 = ORIENTED_EDGE ( 'NONE', *, *, #59, .T. ) ;
#307 = ORIENTED_EDGE ( 'NONE', *, *, #58, .F. ) ;
#308 = ORIENTED_EDGE ( 'NONE', *, *, #20, .T. ) ;
#309 = ORIENTED_EDGE ( 'NONE', *, *, #51, .T. ) ;
#310 = ORIENTED_EDGE ( 'NONE', *, *, #43, .F. ) ;
#311 = ORIENTED_EDGE ( 'NONE', *, *, #46, .T. ) ;
#312 = ORIENTED_EDGE ( 'NONE', *, *, #53, .T. ) ;
#313 = VERTEX_POINT ( 'NONE', #108 ) ;
#314 = EDGE_LOOP ( 'NONE', ( #310, #305, #296, #298 ) ) ;
#315 = FACE_OUTER_BOUND ( 'NONE', #276, .T. ) ;
#316 = ORIENTED_EDGE ( 'NONE', *, *, #60, .F. ) ;
#317 = ORIENTED_EDGE ( 'NONE', *, *, #58, .T. ) ;
#318 = VERTEX_POINT ( 'NONE', #126 ) ;
#319 = CLOSED_SHELL ( 'NONE', ( #10, #6, #5, #3, #4, #2, #11, #8, #7, #9, #1 ) ) ;
#320 = ORIENTED_EDGE ( 'NONE', *, *, #53, .F. ) ;
#321 = ORIENTED_EDGE ( 'NONE', *, *, #35, .F. ) ;
#322 = ORIENTED_EDGE ( 'NONE', *, *, #32, .F. ) ;
#323 = ORIENTED_EDGE ( 'NONE', *, *, #59, .F. ) ;
#324 = ORIENTED_EDGE ( 'NONE', *, *, #57, .F. ) ;
#325 = ORIENTED_EDGE ( 'NONE', *, *, #55, .F. ) ;
#326 = ORIENTED_EDGE ( 'NONE', *, *, #18, .T. ) ;
#327 = VERTEX_POINT ( 'NONE', #106 ) ;
#328 = VERTEX_POINT ( 'NONE', #107 ) ;
#329 = ORIENTED_EDGE ( 'NONE', *, *, #18, .F. ) ;
#330 = VERTEX_POINT ( 'NONE', #110 ) ;
#331 = VERTEX_POINT ( 'NONE', #109 ) ;
#332 = ORIENTED_EDGE ( 'NONE', *, *, #57, .T. ) ;
#333 = VERTEX_POINT ( 'NONE', #119 ) ;
#334 = ORIENTED_EDGE ( 'NONE', *, *, #21, .T. ) ;
#335 = VERTEX_POINT ( 'NONE', #105 ) ;
#336 = VERTEX_POINT ( 'NONE', #102 ) ;
#337 = ORIENTED_EDGE ( 'NONE', *, *, #55, .T. ) ;
#338 = VERTEX_POINT ( 'NONE', #104 ) ;
#339 = VERTEX_POINT ( 'NONE', #100 ) ;
#340 = VERTEX_POINT ( 'NONE', #99 ) ;
#341 = ORIENTED_EDGE ( 'NONE', *, *, #35, .T. ) ;
#342 = ORIENTED_EDGE ( 'NONE', *, *, #44, .F. ) ;
#343 = ORIENTED_EDGE ( 'NONE', *, *, #33, .T. ) ;
#344 = VERTEX_POINT ( 'NONE', #101 ) ;
ENDSEC;
END-ISO-10303-21;
