ISO-10303-21;
HEADER;
FILE_DESCRIPTION (( 'STEP AP214' ),
    '1' );
FILE_NAME ('1077000015D00A.STEP',
    '2013-02-25T17:28:27',
    ( '' ),
    ( '' ),
    'SwSTEP 2.0',
    'SolidWorks 2012',
    '' );
FILE_SCHEMA (( 'AUTOMOTIVE_DESIGN' ));
ENDSEC;

DATA;
#1 = AXIS2_PLACEMENT_3D ( 'NONE', #116, #114, #117 ) ;
#2 = AXIS2_PLACEMENT_3D ( 'NONE', #139, #137, #141 ) ;
#3 = AXIS2_PLACEMENT_3D ( 'NONE', #193, #192, #191 ) ;
#4 = AXIS2_PLACEMENT_3D ( 'NONE', #144, #140, #138 ) ;
#5 = AXIS2_PLACEMENT_3D ( 'NONE', #143, #142, #164 ) ;
#6 = AXIS2_PLACEMENT_3D ( 'NONE', #185, #182, #181 ) ;
#7 = AXIS2_PLACEMENT_3D ( 'NONE', #119, #148, #146 ) ;
#8 = AXIS2_PLACEMENT_3D ( 'NONE', #190, #188, #186 ) ;
#9 = AXIS2_PLACEMENT_3D ( 'NONE', #184, #183, #175 ) ;
#10 = EDGE_CURVE ( 'NONE', #320, #338, #271, .T. ) ;
#11 = AXIS2_PLACEMENT_3D ( 'NONE', #200, #194, #178 ) ;
#12 = EDGE_CURVE ( 'NONE', #332, #339, #310, .T. ) ;
#13 = EDGE_CURVE ( 'NONE', #331, #336, #272, .T. ) ;
#14 = EDGE_CURVE ( 'NONE', #229, #334, #270, .T. ) ;
#15 = EDGE_CURVE ( 'NONE', #341, #340, #269, .T. ) ;
#16 = EDGE_CURVE ( 'NONE', #340, #341, #268, .T. ) ;
#17 = EDGE_CURVE ( 'NONE', #312, #335, #266, .T. ) ;
#18 = AXIS2_PLACEMENT_3D ( 'NONE', #80, #78, #88 ) ;
#19 = AXIS2_PLACEMENT_3D ( 'NONE', #108, #110, #104 ) ;
#20 = AXIS2_PLACEMENT_3D ( 'NONE', #198, #197, #196 ) ;
#21 = AXIS2_PLACEMENT_3D ( 'NONE', #134, #120, #133 ) ;
#22 = PRODUCT_RELATED_PRODUCT_CATEGORY ( 'part', '', ( #201 ) ) ;
#23 = PRODUCT_DEFINITION_FORMATION_WITH_SPECIFIED_SOURCE ( 'TUTTO', '', #201, .NOT_KNOWN. ) ;
#24 = PRODUCT_DEFINITION ( 'NON CONOSCIUTO', '', #23, #61 ) ;
#25 = AXIS2_PLACEMENT_3D ( 'NONE', #69, #68, #151 ) ;
#26 =( GEOMETRIC_REPRESENTATION_CONTEXT ( 3 ) GLOBAL_UNCERTAINTY_ASSIGNED_CONTEXT ( ( #65 ) ) GLOBAL_UNIT_ASSIGNED_CONTEXT ( ( #86, #84, #82 ) ) REPRESENTATION_CONTEXT ( 'NONE', 'WORKASPACE' ) );
#27 =( GEOMETRIC_REPRESENTATION_CONTEXT ( 3 ) GLOBAL_UNCERTAINTY_ASSIGNED_CONTEXT ( ( #63 ) ) GLOBAL_UNIT_ASSIGNED_CONTEXT ( ( #72, #71, #70 ) ) REPRESENTATION_CONTEXT ( 'NONE', 'WORKASPACE' ) );
#28 = MECHANICAL_DESIGN_GEOMETRIC_PRESENTATION_REPRESENTATION (  '', ( #30 ), #27 ) ;
#29 = PRESENTATION_LAYER_ASSIGNMENT (  '', '', ( #30 ) ) ;
#30 = STYLED_ITEM ( 'NONE', ( #220 ), #66 ) ;
#31 = AXIS2_PLACEMENT_3D ( 'NONE', #118, #125, #122 ) ;
#32 = EDGE_CURVE ( 'NONE', #338, #331, #267, .T. ) ;
#33 = AXIS2_PLACEMENT_3D ( 'NONE', #130, #129, #131 ) ;
#34 = EDGE_CURVE ( 'NONE', #229, #317, #264, .T. ) ;
#35 = EDGE_CURVE ( 'NONE', #317, #337, #265, .T. ) ;
#36 = EDGE_CURVE ( 'NONE', #335, #312, #262, .T. ) ;
#37 = EDGE_CURVE ( 'NONE', #336, #331, #259, .T. ) ;
#38 = EDGE_CURVE ( 'NONE', #337, #317, #258, .T. ) ;
#39 = EDGE_CURVE ( 'NONE', #335, #317, #260, .T. ) ;
#40 = EDGE_CURVE ( 'NONE', #334, #337, #256, .T. ) ;
#41 = PRESENTATION_LAYER_ASSIGNMENT (  '', '', ( #53 ) ) ;
#42 = EDGE_CURVE ( 'NONE', #312, #337, #257, .T. ) ;
#43 = EDGE_CURVE ( 'NONE', #340, #339, #252, .T. ) ;
#44 = EDGE_CURVE ( 'NONE', #320, #336, #254, .T. ) ;
#45 = EDGE_CURVE ( 'NONE', #338, #320, #250, .T. ) ;
#46 =( GEOMETRIC_REPRESENTATION_CONTEXT ( 3 ) GLOBAL_UNCERTAINTY_ASSIGNED_CONTEXT ( ( #67 ) ) GLOBAL_UNIT_ASSIGNED_CONTEXT ( ( #150, #149, #147 ) ) REPRESENTATION_CONTEXT ( 'NONE', 'WORKASPACE' ) );
#47 = EDGE_CURVE ( 'NONE', #341, #332, #246, .T. ) ;
#48 = EDGE_CURVE ( 'NONE', #339, #332, #248, .T. ) ;
#49 = EDGE_CURVE ( 'NONE', #334, #229, #243, .T. ) ;
#50 = AXIS2_PLACEMENT_3D ( 'NONE', #127, #128, #121 ) ;
#51 = AXIS2_PLACEMENT_3D ( 'NONE', #135, #132, #136 ) ;
#52 = AXIS2_PLACEMENT_3D ( 'NONE', #103, #107, #105 ) ;
#53 = STYLED_ITEM ( 'NONE', ( #239 ), #64 ) ;
#54 = AXIS2_PLACEMENT_3D ( 'NONE', #145, #163, #158 ) ;
#55 = MECHANICAL_DESIGN_GEOMETRIC_PRESENTATION_REPRESENTATION (  '', ( #53 ), #46 ) ;
#56 = AXIS2_PLACEMENT_3D ( 'NONE', #162, #161, #160 ) ;
#57 = AXIS2_PLACEMENT_3D ( 'NONE', #157, #155, #154 ) ;
#58 = AXIS2_PLACEMENT_3D ( 'NONE', #169, #168, #167 ) ;
#59 = AXIS2_PLACEMENT_3D ( 'NONE', #112, #113, #109 ) ;
#60 = AXIS2_PLACEMENT_3D ( 'NONE', #166, #165, #156 ) ;
#61 = PRODUCT_DEFINITION_CONTEXT ( 'detailed design', #74, 'design' ) ;
#62 = PRODUCT_DEFINITION_SHAPE ( 'NONE', 'NONE',  #24 ) ;
#63 = UNCERTAINTY_MEASURE_WITH_UNIT (LENGTH_MEASURE( 1.000000000000000100E-005 ), #72, 'distance_accuracy_value', 'NONE');
#64 = MANIFOLD_SOLID_BREP ( 'Importato1', #319 ) ;
#65 = UNCERTAINTY_MEASURE_WITH_UNIT (LENGTH_MEASURE( 1.000000000000000100E-005 ), #86, 'distance_accuracy_value', 'NONE');
#66 = ADVANCED_BREP_SHAPE_REPRESENTATION ( '1077000015D00A', ( #64, #25 ), #26 ) ;
#67 = UNCERTAINTY_MEASURE_WITH_UNIT (LENGTH_MEASURE( 1.000000000000000100E-005 ), #150, 'distance_accuracy_value', 'NONE');
#68 = DIRECTION ( 'NONE',  ( 0.0000000000000000000, 0.0000000000000000000, 1.000000000000000000 ) ) ;
#69 = CARTESIAN_POINT ( 'NONE',  ( 0.0000000000000000000, 0.0000000000000000000, 0.0000000000000000000 ) ) ;
#70 =( NAMED_UNIT ( * ) SI_UNIT ( $, .STERADIAN. ) SOLID_ANGLE_UNIT ( ) );
#71 =( NAMED_UNIT ( * ) PLANE_ANGLE_UNIT ( ) SI_UNIT ( $, .RADIAN. ) );
#72 =( LENGTH_UNIT ( ) NAMED_UNIT ( * ) SI_UNIT ( .MILLI., .METRE. ) );
#73 = SURFACE_STYLE_USAGE ( .BOTH. , #75 ) ;
#74 = APPLICATION_CONTEXT ( 'automotive_design' ) ;
#75 = SURFACE_SIDE_STYLE ('',( #225 ) ) ;
#76 = FILL_AREA_STYLE ('',( #77 ) ) ;
#77 = FILL_AREA_STYLE_COLOUR ( '', #232 ) ;
#78 = DIRECTION ( 'NONE',  ( 0.0000000000000000000, -1.000000000000000000, 0.0000000000000000000 ) ) ;
#79 = APPLICATION_CONTEXT ( 'automotive_design' ) ;
#80 = CARTESIAN_POINT ( 'NONE',  ( 0.0000000000000000000, 16.00000000000001400, 0.0000000000000000000 ) ) ;
#81 = APPLICATION_PROTOCOL_DEFINITION ( 'draft international standard', 'automotive_design', 1998, #79 ) ;
#82 =( NAMED_UNIT ( * ) SI_UNIT ( $, .STERADIAN. ) SOLID_ANGLE_UNIT ( ) );
#83 = APPLICATION_PROTOCOL_DEFINITION ( 'draft international standard', 'automotive_design', 1998, #74 ) ;
#84 =( NAMED_UNIT ( * ) PLANE_ANGLE_UNIT ( ) SI_UNIT ( $, .RADIAN. ) );
#85 = PRODUCT_CONTEXT ( 'NONE', #79, 'mechanical' ) ;
#86 =( LENGTH_UNIT ( ) NAMED_UNIT ( * ) SI_UNIT ( .MILLI., .METRE. ) );
#87 = CARTESIAN_POINT ( 'NONE',  ( 5.510910596163089600E-016, 1.000000000000000000, 4.500000000000000900 ) ) ;
#88 = DIRECTION ( 'NONE',  ( 0.0000000000000000000, -3.469446951953614200E-015, -1.000000000000000000 ) ) ;
#89 = CARTESIAN_POINT ( 'NONE',  ( 0.0000000000000000000, 1.000000000000000000, -4.500000000000000900 ) ) ;
#90 = CARTESIAN_POINT ( 'NONE',  ( 0.0000000000000000000, 0.0000000000000000000, 3.500000000000000000 ) ) ;
#91 = CARTESIAN_POINT ( 'NONE',  ( 4.286263797015736600E-016, 17.00000000000000000, -3.500000000000000000 ) ) ;
#92 = CARTESIAN_POINT ( 'NONE',  ( 4.790618060146939400E-016, 16.99999999999990400, 3.823673019000016500 ) ) ;
#93 = DIRECTION ( 'NONE',  ( 0.0000000000000000000, 1.000000000000000000, 0.0000000000000000000 ) ) ;
#94 = CARTESIAN_POINT ( 'NONE',  ( 0.0000000000000000000, 16.00000000000001400, 4.000000000000000000 ) ) ;
#95 = CARTESIAN_POINT ( 'NONE',  ( 0.0000000000000000000, 17.00000000000000000, 3.500000000000000000 ) ) ;
#96 = CARTESIAN_POINT ( 'NONE',  ( 0.0000000000000000000, 0.0000000000000000000, -4.500000000000000900 ) ) ;
#97 = CARTESIAN_POINT ( 'NONE',  ( 0.0000000000000000000, 1.000000000000000000, 4.000000000000000000 ) ) ;
#98 = CARTESIAN_POINT ( 'NONE',  ( 4.898587196589412800E-016, 1.000000000000000000, -4.000000000000000000 ) ) ;
#99 = CARTESIAN_POINT ( 'NONE',  ( 5.510910596163089600E-016, 0.0000000000000000000, 4.500000000000000900 ) ) ;
#100 = CARTESIAN_POINT ( 'NONE',  ( 0.0000000000000000000, 16.99999999999990400, -3.823673019000016500 ) ) ;
#101 = CARTESIAN_POINT ( 'NONE',  ( 4.286263797015736600E-016, 0.0000000000000000000, -3.500000000000000000 ) ) ;
#102 = CARTESIAN_POINT ( 'NONE',  ( 4.898587196589412800E-016, 16.00000000000001400, -4.000000000000000000 ) ) ;
#103 = CARTESIAN_POINT ( 'NONE',  ( 0.0000000000000000000, 1.000000000000000000, 0.0000000000000000000 ) ) ;
#104 = DIRECTION ( 'NONE',  ( -1.000000000000000000, 0.0000000000000000000, 0.0000000000000000000 ) ) ;
#105 = DIRECTION ( 'NONE',  ( 0.0000000000000000000, 0.0000000000000000000, -1.000000000000000000 ) ) ;
#106 = PLANE ( 'NONE',  #19 ) ;
#107 = DIRECTION ( 'NONE',  ( 0.0000000000000000000, -1.000000000000000000, 0.0000000000000000000 ) ) ;
#108 = CARTESIAN_POINT ( 'NONE',  ( 3.869557094999999800, 17.00000000000000000, -3.869557094999999800 ) ) ;
#109 = DIRECTION ( 'NONE',  ( 1.000000000000000000, 0.0000000000000000000, 0.0000000000000000000 ) ) ;
#110 = DIRECTION ( 'NONE',  ( 0.0000000000000000000, 1.000000000000000000, -0.0000000000000000000 ) ) ;
#111 = PLANE ( 'NONE',  #59 ) ;
#112 = CARTESIAN_POINT ( 'NONE',  ( -4.554000000000000300, 0.0000000000000000000, -4.554000000000000300 ) ) ;
#113 = DIRECTION ( 'NONE',  ( 0.0000000000000000000, -1.000000000000000000, 0.0000000000000000000 ) ) ;
#114 = DIRECTION ( 'NONE',  ( 0.0000000000000000000, 1.000000000000000000, 0.0000000000000000000 ) ) ;
#115 = DIRECTION ( 'NONE',  ( 0.0000000000000000000, -0.9848077529631100700, -0.1736481779453793500 ) ) ;
#116 = CARTESIAN_POINT ( 'NONE',  ( 0.0000000000000000000, 0.0000000000000000000, 0.0000000000000000000 ) ) ;
#117 = DIRECTION ( 'NONE',  ( 0.0000000000000000000, 0.0000000000000000000, 1.000000000000000000 ) ) ;
#118 = CARTESIAN_POINT ( 'NONE',  ( 0.0000000000000000000, 1.000000000000000000, 0.0000000000000000000 ) ) ;
#119 = CARTESIAN_POINT ( 'NONE',  ( 0.0000000000000000000, 1.000000000000000000, 0.0000000000000000000 ) ) ;
#120 = DIRECTION ( 'NONE',  ( 0.0000000000000000000, -1.000000000000000000, -0.0000000000000000000 ) ) ;
#121 = DIRECTION ( 'NONE',  ( -1.000000000000000000, 0.0000000000000000000, 0.0000000000000000000 ) ) ;
#122 = DIRECTION ( 'NONE',  ( 0.0000000000000000000, 0.0000000000000000000, 1.000000000000000000 ) ) ;
#123 = PLANE ( 'NONE',  #50 ) ;
#124 = CARTESIAN_POINT ( 'NONE',  ( 0.0000000000000000000, 17.00000000000000000, -3.823673018999999700 ) ) ;
#125 = DIRECTION ( 'NONE',  ( -0.0000000000000000000, 1.000000000000000000, 0.0000000000000000000 ) ) ;
#126 = CARTESIAN_POINT ( 'NONE',  ( 0.0000000000000000000, 0.0000000000000000000, 3.500000000000000000 ) ) ;
#127 = CARTESIAN_POINT ( 'NONE',  ( 4.554000000000000300, 1.000000000000000000, -4.554000000000000300 ) ) ;
#128 = DIRECTION ( 'NONE',  ( 0.0000000000000000000, 1.000000000000000000, -0.0000000000000000000 ) ) ;
#129 = DIRECTION ( 'NONE',  ( -0.0000000000000000000, 1.000000000000000000, 0.0000000000000000000 ) ) ;
#130 = CARTESIAN_POINT ( 'NONE',  ( 0.0000000000000000000, 1.000000000000000000, 0.0000000000000000000 ) ) ;
#131 = DIRECTION ( 'NONE',  ( 0.0000000000000000000, 0.0000000000000000000, 1.000000000000000000 ) ) ;
#132 = DIRECTION ( 'NONE',  ( 0.0000000000000000000, -1.000000000000000000, 0.0000000000000000000 ) ) ;
#133 = DIRECTION ( 'NONE',  ( 0.0000000000000000000, 0.0000000000000000000, 1.000000000000000000 ) ) ;
#134 = CARTESIAN_POINT ( 'NONE',  ( 0.0000000000000000000, 1.000000000000000000, 0.0000000000000000000 ) ) ;
#135 = CARTESIAN_POINT ( 'NONE',  ( 0.0000000000000000000, 1.000000000000000000, 0.0000000000000000000 ) ) ;
#136 = DIRECTION ( 'NONE',  ( 0.0000000000000000000, 0.0000000000000000000, -1.000000000000000000 ) ) ;
#137 = DIRECTION ( 'NONE',  ( 0.0000000000000000000, -1.000000000000000000, 0.0000000000000000000 ) ) ;
#138 = DIRECTION ( 'NONE',  ( 0.0000000000000000000, 0.0000000000000000000, -1.000000000000000000 ) ) ;
#139 = CARTESIAN_POINT ( 'NONE',  ( 0.0000000000000000000, 17.00000000000000000, 0.0000000000000000000 ) ) ;
#140 = DIRECTION ( 'NONE',  ( -0.0000000000000000000, 1.000000000000000000, -0.0000000000000000000 ) ) ;
#141 = DIRECTION ( 'NONE',  ( 0.0000000000000000000, 0.0000000000000000000, -1.000000000000000000 ) ) ;
#142 = DIRECTION ( 'NONE',  ( 0.0000000000000000000, -1.000000000000000000, 0.0000000000000000000 ) ) ;
#143 = CARTESIAN_POINT ( 'NONE',  ( 0.0000000000000000000, 17.00000000000000000, 0.0000000000000000000 ) ) ;
#144 = CARTESIAN_POINT ( 'NONE',  ( 0.0000000000000000000, 1.000000000000000000, 0.0000000000000000000 ) ) ;
#145 = CARTESIAN_POINT ( 'NONE',  ( 0.0000000000000000000, 0.0000000000000000000, 0.0000000000000000000 ) ) ;
#146 = DIRECTION ( 'NONE',  ( 0.0000000000000000000, 0.0000000000000000000, -1.000000000000000000 ) ) ;
#147 =( NAMED_UNIT ( * ) SI_UNIT ( $, .STERADIAN. ) SOLID_ANGLE_UNIT ( ) );
#148 = DIRECTION ( 'NONE',  ( -0.0000000000000000000, 1.000000000000000000, -0.0000000000000000000 ) ) ;
#149 =( NAMED_UNIT ( * ) PLANE_ANGLE_UNIT ( ) SI_UNIT ( $, .RADIAN. ) );
#150 =( LENGTH_UNIT ( ) NAMED_UNIT ( * ) SI_UNIT ( .MILLI., .METRE. ) );
#151 = DIRECTION ( 'NONE',  ( 1.000000000000000000, 0.0000000000000000000, 0.0000000000000000000 ) ) ;
#152 = SURFACE_STYLE_USAGE ( .BOTH. , #153 ) ;
#153 = SURFACE_SIDE_STYLE ('',( #240 ) ) ;
#154 = DIRECTION ( 'NONE',  ( 0.0000000000000000000, 0.0000000000000000000, -1.000000000000000000 ) ) ;
#155 = DIRECTION ( 'NONE',  ( -0.0000000000000000000, 1.000000000000000000, -0.0000000000000000000 ) ) ;
#156 = DIRECTION ( 'NONE',  ( 0.0000000000000000000, 0.0000000000000000000, -1.000000000000000000 ) ) ;
#157 = CARTESIAN_POINT ( 'NONE',  ( 0.0000000000000000000, 16.99999999999990400, 0.0000000000000000000 ) ) ;
#158 = DIRECTION ( 'NONE',  ( 0.0000000000000000000, 0.0000000000000000000, 1.000000000000000000 ) ) ;
#159 = FILL_AREA_STYLE ('',( #170 ) ) ;
#160 = DIRECTION ( 'NONE',  ( 0.0000000000000000000, 0.0000000000000000000, -1.000000000000000000 ) ) ;
#161 = DIRECTION ( 'NONE',  ( 0.0000000000000000000, -1.000000000000000000, 0.0000000000000000000 ) ) ;
#162 = CARTESIAN_POINT ( 'NONE',  ( 0.0000000000000000000, 0.0000000000000000000, 0.0000000000000000000 ) ) ;
#163 = DIRECTION ( 'NONE',  ( 0.0000000000000000000, 1.000000000000000000, 0.0000000000000000000 ) ) ;
#164 = DIRECTION ( 'NONE',  ( 0.0000000000000000000, 0.0000000000000000000, -1.000000000000000000 ) ) ;
#165 = DIRECTION ( 'NONE',  ( -0.0000000000000000000, 1.000000000000000000, -0.0000000000000000000 ) ) ;
#166 = CARTESIAN_POINT ( 'NONE',  ( 0.0000000000000000000, 16.99999999999990400, 0.0000000000000000000 ) ) ;
#167 = DIRECTION ( 'NONE',  ( 0.0000000000000000000, 0.0000000000000000000, 1.000000000000000000 ) ) ;
#168 = DIRECTION ( 'NONE',  ( -0.0000000000000000000, -1.000000000000000000, -0.0000000000000000000 ) ) ;
#169 = CARTESIAN_POINT ( 'NONE',  ( 0.0000000000000000000, 0.0000000000000000000, 0.0000000000000000000 ) ) ;
#170 = FILL_AREA_STYLE_COLOUR ( '', #245 ) ;
#171 = CARTESIAN_POINT ( 'NONE',  ( 5.510910596163089600E-016, 1.000000000000000000, 4.500000000000000900 ) ) ;
#172 = DIRECTION ( 'NONE',  ( 0.0000000000000000000, 1.000000000000000000, 0.0000000000000000000 ) ) ;
#173 = DIRECTION ( 'NONE',  ( 0.0000000000000000000, -1.000000000000000000, 0.0000000000000000000 ) ) ;
#174 = DIRECTION ( 'NONE',  ( 0.0000000000000000000, -1.000000000000000000, 0.0000000000000000000 ) ) ;
#175 = DIRECTION ( 'NONE',  ( 0.0000000000000000000, 0.0000000000000000000, 1.000000000000000000 ) ) ;
#176 = CARTESIAN_POINT ( 'NONE',  ( 0.0000000000000000000, 1.000000000000000000, -4.500000000000000900 ) ) ;
#177 = DIRECTION ( 'NONE',  ( -0.0000000000000000000, 1.000000000000000000, 0.0000000000000000000 ) ) ;
#178 = DIRECTION ( 'NONE',  ( 0.0000000000000000000, 0.0000000000000000000, 1.000000000000000000 ) ) ;
#179 = DIRECTION ( 'NONE',  ( 2.126576852985788700E-017, -0.9848077529631100700, 0.1736481779453793500 ) ) ;
#180 = CARTESIAN_POINT ( 'NONE',  ( 4.682648923704445300E-016, 17.00000000000000000, 3.823673018999999700 ) ) ;
#181 = DIRECTION ( 'NONE',  ( 0.0000000000000000000, -3.469446951953614200E-015, -1.000000000000000000 ) ) ;
#182 = DIRECTION ( 'NONE',  ( 0.0000000000000000000, -1.000000000000000000, 0.0000000000000000000 ) ) ;
#183 = DIRECTION ( 'NONE',  ( -0.0000000000000000000, -1.000000000000000000, -0.0000000000000000000 ) ) ;
#184 = CARTESIAN_POINT ( 'NONE',  ( 0.0000000000000000000, 17.00000000000000000, 0.0000000000000000000 ) ) ;
#185 = CARTESIAN_POINT ( 'NONE',  ( 0.0000000000000000000, 16.00000000000001400, 0.0000000000000000000 ) ) ;
#186 = DIRECTION ( 'NONE',  ( 0.0000000000000000000, 0.0000000000000000000, -1.000000000000000000 ) ) ;
#187 = CARTESIAN_POINT ( 'NONE',  ( 4.898587196589412800E-016, 1.000000000000000000, -4.000000000000000000 ) ) ;
#188 = DIRECTION ( 'NONE',  ( 0.0000000000000000000, -1.000000000000000000, 0.0000000000000000000 ) ) ;
#189 = CARTESIAN_POINT ( 'NONE',  ( 0.0000000000000000000, 1.000000000000000000, 4.000000000000000000 ) ) ;
#190 = CARTESIAN_POINT ( 'NONE',  ( 0.0000000000000000000, 0.0000000000000000000, 0.0000000000000000000 ) ) ;
#191 = DIRECTION ( 'NONE',  ( 0.0000000000000000000, 0.0000000000000000000, 1.000000000000000000 ) ) ;
#192 = DIRECTION ( 'NONE',  ( -0.0000000000000000000, -1.000000000000000000, -0.0000000000000000000 ) ) ;
#193 = CARTESIAN_POINT ( 'NONE',  ( 0.0000000000000000000, 17.00000000000000000, 0.0000000000000000000 ) ) ;
#194 = DIRECTION ( 'NONE',  ( -0.0000000000000000000, -1.000000000000000000, -0.0000000000000000000 ) ) ;
#195 = DIRECTION ( 'NONE',  ( -0.0000000000000000000, 1.000000000000000000, 0.0000000000000000000 ) ) ;
#196 = DIRECTION ( 'NONE',  ( 0.0000000000000000000, 0.0000000000000000000, 1.000000000000000000 ) ) ;
#197 = DIRECTION ( 'NONE',  ( 0.0000000000000000000, -1.000000000000000000, -0.0000000000000000000 ) ) ;
#198 = CARTESIAN_POINT ( 'NONE',  ( 0.0000000000000000000, 1.000000000000000000, 0.0000000000000000000 ) ) ;
#199 = CARTESIAN_POINT ( 'NONE',  ( 4.286263797015736600E-016, 0.0000000000000000000, -3.500000000000000000 ) ) ;
#200 = CARTESIAN_POINT ( 'NONE',  ( 0.0000000000000000000, 0.0000000000000000000, 0.0000000000000000000 ) ) ;
#201 = PRODUCT ( '1077000015D00A', '1077000015D00A', '', ( #85 ) ) ;
#202 = ADVANCED_FACE ( 'NONE', ( #242 ), #226, .F. ) ;
#203 = ADVANCED_FACE ( 'NONE', ( #231 ), #221, .T. ) ;
#204 = ADVANCED_FACE ( 'NONE', ( #228 ), #217, .T. ) ;
#205 = ADVANCED_FACE ( 'NONE', ( #222 ), #223, .T. ) ;
#206 = ADVANCED_FACE ( 'NONE', ( #218 ), #216, .T. ) ;
#207 = ADVANCED_FACE ( 'NONE', ( #224, #215 ), #123, .T. ) ;
#208 = ADVANCED_FACE ( 'NONE', ( #241 ), #238, .T. ) ;
#209 = ADVANCED_FACE ( 'NONE', ( #230 ), #237, .F. ) ;
#210 = ADVANCED_FACE ( 'NONE', ( #213, #234 ), #111, .T. ) ;
#211 = ADVANCED_FACE ( 'NONE', ( #214, #236 ), #106, .T. ) ;
#212 = ADVANCED_FACE ( 'NONE', ( #235 ), #233, .T. ) ;
#213 = FACE_BOUND ( 'NONE', #344, .T. ) ;
#214 = FACE_BOUND ( 'NONE', #227, .T. ) ;
#215 = FACE_OUTER_BOUND ( 'NONE', #314, .T. ) ;
#216 = CYLINDRICAL_SURFACE ( 'NONE', #33, 4.000000000000000000 ) ;
#217 = CONICAL_SURFACE ( 'NONE', #2, 3.823673018999999700, 0.1745329254821774700 ) ;
#218 = FACE_OUTER_BOUND ( 'NONE', #325, .T. ) ;
#219 = SHAPE_DEFINITION_REPRESENTATION ( #62, #66 ) ;
#220 = PRESENTATION_STYLE_ASSIGNMENT (( #73 ) ) ;
#221 = CONICAL_SURFACE ( 'NONE', #5, 3.823673018999999700, 0.1745329254821774700 ) ;
#222 = FACE_OUTER_BOUND ( 'NONE', #330, .T. ) ;
#223 = CYLINDRICAL_SURFACE ( 'NONE', #51, 4.500000000000000900 ) ;
#224 = FACE_BOUND ( 'NONE', #324, .T. ) ;
#225 = SURFACE_STYLE_FILL_AREA ( #76 ) ;
#226 = CYLINDRICAL_SURFACE ( 'NONE', #54, 3.500000000000000000 ) ;
#227 = EDGE_LOOP ( 'NONE', ( #286, #275 ) ) ;
#228 = FACE_OUTER_BOUND ( 'NONE', #313, .T. ) ;
#229 = VERTEX_POINT ( 'NONE', #100 ) ;
#230 = FACE_OUTER_BOUND ( 'NONE', #329, .T. ) ;
#231 = FACE_OUTER_BOUND ( 'NONE', #316, .T. ) ;
#232 = COLOUR_RGB ( '',1.000000000000000000, 1.000000000000000000, 0.5019607843137254800 ) ;
#233 = CYLINDRICAL_SURFACE ( 'NONE', #52, 4.500000000000000900 ) ;
#234 = FACE_OUTER_BOUND ( 'NONE', #328, .T. ) ;
#235 = FACE_OUTER_BOUND ( 'NONE', #343, .T. ) ;
#236 = FACE_OUTER_BOUND ( 'NONE', #315, .T. ) ;
#237 = CYLINDRICAL_SURFACE ( 'NONE', #1, 3.500000000000000000 ) ;
#238 = CYLINDRICAL_SURFACE ( 'NONE', #31, 4.000000000000000000 ) ;
#239 = PRESENTATION_STYLE_ASSIGNMENT (( #152 ) ) ;
#240 = SURFACE_STYLE_FILL_AREA ( #159 ) ;
#241 = FACE_OUTER_BOUND ( 'NONE', #333, .T. ) ;
#242 = FACE_OUTER_BOUND ( 'NONE', #311, .T. ) ;
#243 = CIRCLE ( 'NONE', #57, 3.823673019000016500 ) ;
#244 = VECTOR ( 'NONE', #174, 1000.000000000000000 ) ;
#245 = COLOUR_RGB ( '',1.000000000000000000, 1.000000000000000000, 0.5019607843137254800 ) ;
#246 = LINE ( 'NONE', #171, #244 ) ;
#247 = VECTOR ( 'NONE', #172, 1000.000000000000000 ) ;
#248 = CIRCLE ( 'NONE', #56, 4.500000000000000900 ) ;
#249 = VECTOR ( 'NONE', #173, 1000.000000000000000 ) ;
#250 = CIRCLE ( 'NONE', #58, 3.500000000000000000 ) ;
#251 = VECTOR ( 'NONE', #177, 1000.000000000000000 ) ;
#252 = LINE ( 'NONE', #176, #249 ) ;
#253 = VECTOR ( 'NONE', #179, 1000.000000000000100 ) ;
#254 = LINE ( 'NONE', #199, #247 ) ;
#255 = VECTOR ( 'NONE', #195, 1000.000000000000000 ) ;
#256 = LINE ( 'NONE', #180, #253 ) ;
#257 = LINE ( 'NONE', #189, #251 ) ;
#258 = CIRCLE ( 'NONE', #6, 4.000000000000000000 ) ;
#259 = CIRCLE ( 'NONE', #3, 3.500000000000000000 ) ;
#260 = LINE ( 'NONE', #187, #255 ) ;
#261 = VECTOR ( 'NONE', #115, 1000.000000000000100 ) ;
#262 = CIRCLE ( 'NONE', #20, 4.000000000000000000 ) ;
#263 = VECTOR ( 'NONE', #93, 1000.000000000000000 ) ;
#264 = LINE ( 'NONE', #124, #261 ) ;
#265 = CIRCLE ( 'NONE', #18, 4.000000000000000000 ) ;
#266 = CIRCLE ( 'NONE', #21, 4.000000000000000000 ) ;
#267 = LINE ( 'NONE', #126, #263 ) ;
#268 = CIRCLE ( 'NONE', #4, 4.500000000000000900 ) ;
#269 = CIRCLE ( 'NONE', #7, 4.500000000000000900 ) ;
#270 = CIRCLE ( 'NONE', #60, 3.823673019000016500 ) ;
#271 = CIRCLE ( 'NONE', #11, 3.500000000000000000 ) ;
#272 = CIRCLE ( 'NONE', #9, 3.500000000000000000 ) ;
#273 = ORIENTED_EDGE ( 'NONE', *, *, #45, .T. ) ;
#274 = ORIENTED_EDGE ( 'NONE', *, *, #40, .T. ) ;
#275 = ORIENTED_EDGE ( 'NONE', *, *, #37, .T. ) ;
#276 = ORIENTED_EDGE ( 'NONE', *, *, #35, .F. ) ;
#277 = ORIENTED_EDGE ( 'NONE', *, *, #49, .F. ) ;
#278 = ORIENTED_EDGE ( 'NONE', *, *, #49, .T. ) ;
#279 = ORIENTED_EDGE ( 'NONE', *, *, #42, .T. ) ;
#280 = ORIENTED_EDGE ( 'NONE', *, *, #15, .F. ) ;
#281 = ORIENTED_EDGE ( 'NONE', *, *, #17, .F. ) ;
#282 = ORIENTED_EDGE ( 'NONE', *, *, #35, .T. ) ;
#283 = ORIENTED_EDGE ( 'NONE', *, *, #42, .F. ) ;
#284 = ORIENTED_EDGE ( 'NONE', *, *, #38, .T. ) ;
#285 = ORIENTED_EDGE ( 'NONE', *, *, #32, .F. ) ;
#286 = ORIENTED_EDGE ( 'NONE', *, *, #13, .T. ) ;
#287 = ORIENTED_EDGE ( 'NONE', *, *, #14, .F. ) ;
#288 = ORIENTED_EDGE ( 'NONE', *, *, #48, .F. ) ;
#289 = ORIENTED_EDGE ( 'NONE', *, *, #47, .T. ) ;
#290 = ORIENTED_EDGE ( 'NONE', *, *, #47, .F. ) ;
#291 = ORIENTED_EDGE ( 'NONE', *, *, #43, .F. ) ;
#292 = ORIENTED_EDGE ( 'NONE', *, *, #40, .F. ) ;
#293 = ORIENTED_EDGE ( 'NONE', *, *, #36, .F. ) ;
#294 = ORIENTED_EDGE ( 'NONE', *, *, #39, .T. ) ;
#295 = ORIENTED_EDGE ( 'NONE', *, *, #43, .T. ) ;
#296 = ORIENTED_EDGE ( 'NONE', *, *, #16, .F. ) ;
#297 = ORIENTED_EDGE ( 'NONE', *, *, #45, .F. ) ;
#298 = ORIENTED_EDGE ( 'NONE', *, *, #12, .F. ) ;
#299 = ORIENTED_EDGE ( 'NONE', *, *, #34, .T. ) ;
#300 = ORIENTED_EDGE ( 'NONE', *, *, #48, .T. ) ;
#301 = ORIENTED_EDGE ( 'NONE', *, *, #34, .F. ) ;
#302 = ORIENTED_EDGE ( 'NONE', *, *, #44, .T. ) ;
#303 = ORIENTED_EDGE ( 'NONE', *, *, #10, .T. ) ;
#304 = ORIENTED_EDGE ( 'NONE', *, *, #14, .T. ) ;
#305 = ORIENTED_EDGE ( 'NONE', *, *, #37, .F. ) ;
#306 = ORIENTED_EDGE ( 'NONE', *, *, #38, .F. ) ;
#307 = ORIENTED_EDGE ( 'NONE', *, *, #10, .F. ) ;
#308 = ORIENTED_EDGE ( 'NONE', *, *, #17, .T. ) ;
#309 = ORIENTED_EDGE ( 'NONE', *, *, #12, .T. ) ;
#310 = CIRCLE ( 'NONE', #8, 4.500000000000000900 ) ;
#311 = EDGE_LOOP ( 'NONE', ( #322, #303, #318, #305 ) ) ;
#312 = VERTEX_POINT ( 'NONE', #97 ) ;
#313 = EDGE_LOOP ( 'NONE', ( #292, #287, #299, #306 ) ) ;
#314 = EDGE_LOOP ( 'NONE', ( #326, #321 ) ) ;
#315 = EDGE_LOOP ( 'NONE', ( #304, #278 ) ) ;
#316 = EDGE_LOOP ( 'NONE', ( #277, #274, #276, #301 ) ) ;
#317 = VERTEX_POINT ( 'NONE', #102 ) ;
#318 = ORIENTED_EDGE ( 'NONE', *, *, #32, .T. ) ;
#319 = CLOSED_SHELL ( 'NONE', ( #203, #206, #209, #205, #204, #211, #208, #202, #207, #210, #212 ) ) ;
#320 = VERTEX_POINT ( 'NONE', #101 ) ;
#321 = ORIENTED_EDGE ( 'NONE', *, *, #15, .T. ) ;
#322 = ORIENTED_EDGE ( 'NONE', *, *, #44, .F. ) ;
#323 = ORIENTED_EDGE ( 'NONE', *, *, #36, .T. ) ;
#324 = EDGE_LOOP ( 'NONE', ( #308, #323 ) ) ;
#325 = EDGE_LOOP ( 'NONE', ( #293, #294, #282, #283 ) ) ;
#326 = ORIENTED_EDGE ( 'NONE', *, *, #16, .T. ) ;
#327 = ORIENTED_EDGE ( 'NONE', *, *, #39, .F. ) ;
#328 = EDGE_LOOP ( 'NONE', ( #300, #309 ) ) ;
#329 = EDGE_LOOP ( 'NONE', ( #273, #302, #342, #285 ) ) ;
#330 = EDGE_LOOP ( 'NONE', ( #280, #289, #288, #291 ) ) ;
#331 = VERTEX_POINT ( 'NONE', #95 ) ;
#332 = VERTEX_POINT ( 'NONE', #99 ) ;
#333 = EDGE_LOOP ( 'NONE', ( #327, #281, #279, #284 ) ) ;
#334 = VERTEX_POINT ( 'NONE', #92 ) ;
#335 = VERTEX_POINT ( 'NONE', #98 ) ;
#336 = VERTEX_POINT ( 'NONE', #91 ) ;
#337 = VERTEX_POINT ( 'NONE', #94 ) ;
#338 = VERTEX_POINT ( 'NONE', #90 ) ;
#339 = VERTEX_POINT ( 'NONE', #96 ) ;
#340 = VERTEX_POINT ( 'NONE', #89 ) ;
#341 = VERTEX_POINT ( 'NONE', #87 ) ;
#342 = ORIENTED_EDGE ( 'NONE', *, *, #13, .F. ) ;
#343 = EDGE_LOOP ( 'NONE', ( #290, #296, #295, #298 ) ) ;
#344 = EDGE_LOOP ( 'NONE', ( #297, #307 ) ) ;
ENDSEC;
END-ISO-10303-21;
