ISO-10303-21;
HEADER;
FILE_DESCRIPTION (( 'STEP AP214' ),
    '1' );
FILE_NAME ('1077000017D00A.STEP',
    '2013-02-25T17:28:21',
    ( '' ),
    ( '' ),
    'SwSTEP 2.0',
    'SolidWorks 2012',
    '' );
FILE_SCHEMA (( 'AUTOMOTIVE_DESIGN' ));
ENDSEC;

DATA;
#1 = AXIS2_PLACEMENT_3D ( 'NONE', #131, #130, #132 ) ;
#2 = AXIS2_PLACEMENT_3D ( 'NONE', #114, #115, #108 ) ;
#3 = AXIS2_PLACEMENT_3D ( 'NONE', #127, #124, #128 ) ;
#4 = PRODUCT_RELATED_PRODUCT_CATEGORY ( 'part', '', ( #201 ) ) ;
#5 = PRODUCT_DEFINITION_FORMATION_WITH_SPECIFIED_SOURCE ( 'TUTTO', '', #201, .NOT_KNOWN. ) ;
#6 = PRODUCT_DEFINITION ( 'NON CONOSCIUTO', '', #5, #62 ) ;
#7 = AXIS2_PLACEMENT_3D ( 'NONE', #72, #71, #69 ) ;
#8 =( GEOMETRIC_REPRESENTATION_CONTEXT ( 3 ) GLOBAL_UNCERTAINTY_ASSIGNED_CONTEXT ( ( #63 ) ) GLOBAL_UNIT_ASSIGNED_CONTEXT ( ( #77, #76, #75 ) ) REPRESENTATION_CONTEXT ( 'NONE', 'WORKASPACE' ) );
#9 = AXIS2_PLACEMENT_3D ( 'NONE', #118, #117, #120 ) ;
#10 = MECHANICAL_DESIGN_GEOMETRIC_PRESENTATION_REPRESENTATION (  '', ( #48 ), #57 ) ;
#11 = MECHANICAL_DESIGN_GEOMETRIC_PRESENTATION_REPRESENTATION (  '', ( #13 ), #8 ) ;
#12 = PRESENTATION_LAYER_ASSIGNMENT (  '', '', ( #13 ) ) ;
#13 = STYLED_ITEM ( 'NONE', ( #216 ), #65 ) ;
#14 = AXIS2_PLACEMENT_3D ( 'NONE', #133, #129, #126 ) ;
#15 = AXIS2_PLACEMENT_3D ( 'NONE', #135, #134, #136 ) ;
#16 = EDGE_CURVE ( 'NONE', #321, #327, #268, .T. ) ;
#17 = AXIS2_PLACEMENT_3D ( 'NONE', #122, #121, #123 ) ;
#18 = EDGE_CURVE ( 'NONE', #341, #272, #319, .T. ) ;
#19 = EDGE_CURVE ( 'NONE', #334, #335, #269, .T. ) ;
#20 = EDGE_CURVE ( 'NONE', #341, #322, #266, .T. ) ;
#21 = EDGE_CURVE ( 'NONE', #321, #337, #265, .T. ) ;
#22 = EDGE_CURVE ( 'NONE', #337, #324, #264, .T. ) ;
#23 = EDGE_CURVE ( 'NONE', #331, #325, #262, .T. ) ;
#24 = EDGE_CURVE ( 'NONE', #330, #322, #261, .T. ) ;
#25 = AXIS2_PLACEMENT_3D ( 'NONE', #147, #167, #141 ) ;
#26 = AXIS2_PLACEMENT_3D ( 'NONE', #138, #137, #139 ) ;
#27 = EDGE_CURVE ( 'NONE', #324, #327, #259, .T. ) ;
#28 = EDGE_CURVE ( 'NONE', #322, #330, #258, .T. ) ;
#29 = AXIS2_PLACEMENT_3D ( 'NONE', #183, #73, #197 ) ;
#30 = AXIS2_PLACEMENT_3D ( 'NONE', #140, #144, #142 ) ;
#31 = AXIS2_PLACEMENT_3D ( 'NONE', #171, #169, #168 ) ;
#32 = PRESENTATION_LAYER_ASSIGNMENT (  '', '', ( #48 ) ) ;
#33 = EDGE_CURVE ( 'NONE', #272, #330, #256, .T. ) ;
#34 = EDGE_CURVE ( 'NONE', #315, #343, #257, .T. ) ;
#35 = EDGE_CURVE ( 'NONE', #334, #343, #255, .T. ) ;
#36 = EDGE_CURVE ( 'NONE', #335, #334, #253, .T. ) ;
#37 = EDGE_CURVE ( 'NONE', #335, #315, #250, .T. ) ;
#38 = EDGE_CURVE ( 'NONE', #331, #324, #249, .T. ) ;
#39 = EDGE_CURVE ( 'NONE', #327, #324, #247, .T. ) ;
#40 = AXIS2_PLACEMENT_3D ( 'NONE', #176, #175, #174 ) ;
#41 = AXIS2_PLACEMENT_3D ( 'NONE', #180, #179, #177 ) ;
#42 = AXIS2_PLACEMENT_3D ( 'NONE', #187, #181, #178 ) ;
#43 = AXIS2_PLACEMENT_3D ( 'NONE', #148, #166, #160 ) ;
#44 = AXIS2_PLACEMENT_3D ( 'NONE', #165, #164, #163 ) ;
#45 = AXIS2_PLACEMENT_3D ( 'NONE', #185, #186, #184 ) ;
#46 = EDGE_CURVE ( 'NONE', #325, #331, #252, .T. ) ;
#47 = EDGE_CURVE ( 'NONE', #272, #341, #244, .T. ) ;
#48 = STYLED_ITEM ( 'NONE', ( #236 ), #64 ) ;
#49 = AXIS2_PLACEMENT_3D ( 'NONE', #149, #146, #145 ) ;
#50 =( GEOMETRIC_REPRESENTATION_CONTEXT ( 3 ) GLOBAL_UNCERTAINTY_ASSIGNED_CONTEXT ( ( #67 ) ) GLOBAL_UNIT_ASSIGNED_CONTEXT ( ( #88, #87, #86 ) ) REPRESENTATION_CONTEXT ( 'NONE', 'WORKASPACE' ) );
#51 = AXIS2_PLACEMENT_3D ( 'NONE', #159, #158, #157 ) ;
#52 = EDGE_CURVE ( 'NONE', #337, #321, #243, .T. ) ;
#53 = AXIS2_PLACEMENT_3D ( 'NONE', #119, #116, #113 ) ;
#54 = AXIS2_PLACEMENT_3D ( 'NONE', #193, #192, #190 ) ;
#55 = EDGE_CURVE ( 'NONE', #325, #327, #242, .T. ) ;
#56 = AXIS2_PLACEMENT_3D ( 'NONE', #110, #92, #85 ) ;
#57 =( GEOMETRIC_REPRESENTATION_CONTEXT ( 3 ) GLOBAL_UNCERTAINTY_ASSIGNED_CONTEXT ( ( #66 ) ) GLOBAL_UNIT_ASSIGNED_CONTEXT ( ( #154, #152, #150 ) ) REPRESENTATION_CONTEXT ( 'NONE', 'WORKASPACE' ) );
#58 = AXIS2_PLACEMENT_3D ( 'NONE', #199, #196, #195 ) ;
#59 = EDGE_CURVE ( 'NONE', #343, #315, #241, .T. ) ;
#60 = AXIS2_PLACEMENT_3D ( 'NONE', #107, #109, #103 ) ;
#61 = PRODUCT_DEFINITION_SHAPE ( 'NONE', 'NONE',  #6 ) ;
#62 = PRODUCT_DEFINITION_CONTEXT ( 'detailed design', #84, 'design' ) ;
#63 = UNCERTAINTY_MEASURE_WITH_UNIT (LENGTH_MEASURE( 1.000000000000000100E-005 ), #77, 'distance_accuracy_value', 'NONE');
#64 = MANIFOLD_SOLID_BREP ( 'Importato1', #338 ) ;
#65 = ADVANCED_BREP_SHAPE_REPRESENTATION ( '1077000017D00A', ( #64, #7 ), #50 ) ;
#66 = UNCERTAINTY_MEASURE_WITH_UNIT (LENGTH_MEASURE( 1.000000000000000100E-005 ), #154, 'distance_accuracy_value', 'NONE');
#67 = UNCERTAINTY_MEASURE_WITH_UNIT (LENGTH_MEASURE( 1.000000000000000100E-005 ), #88, 'distance_accuracy_value', 'NONE');
#68 = DIRECTION ( 'NONE',  ( -0.0000000000000000000, 1.000000000000000000, 0.0000000000000000000 ) ) ;
#69 = DIRECTION ( 'NONE',  ( 1.000000000000000000, 0.0000000000000000000, 0.0000000000000000000 ) ) ;
#70 = DIRECTION ( 'NONE',  ( 0.0000000000000000000, -1.000000000000000000, 0.0000000000000000000 ) ) ;
#71 = DIRECTION ( 'NONE',  ( 0.0000000000000000000, 0.0000000000000000000, 1.000000000000000000 ) ) ;
#72 = CARTESIAN_POINT ( 'NONE',  ( 0.0000000000000000000, 0.0000000000000000000, 0.0000000000000000000 ) ) ;
#73 = DIRECTION ( 'NONE',  ( 0.0000000000000000000, -1.000000000000000000, 0.0000000000000000000 ) ) ;
#74 = PRODUCT_CONTEXT ( 'NONE', #82, 'mechanical' ) ;
#75 =( NAMED_UNIT ( * ) SI_UNIT ( $, .STERADIAN. ) SOLID_ANGLE_UNIT ( ) );
#76 =( NAMED_UNIT ( * ) PLANE_ANGLE_UNIT ( ) SI_UNIT ( $, .RADIAN. ) );
#77 =( LENGTH_UNIT ( ) NAMED_UNIT ( * ) SI_UNIT ( .MILLI., .METRE. ) );
#78 = SURFACE_STYLE_USAGE ( .BOTH. , #79 ) ;
#79 = SURFACE_SIDE_STYLE ('',( #223 ) ) ;
#80 = FILL_AREA_STYLE ('',( #81 ) ) ;
#81 = FILL_AREA_STYLE_COLOUR ( '', #225 ) ;
#82 = APPLICATION_CONTEXT ( 'automotive_design' ) ;
#83 = APPLICATION_PROTOCOL_DEFINITION ( 'draft international standard', 'automotive_design', 1998, #82 ) ;
#84 = APPLICATION_CONTEXT ( 'automotive_design' ) ;
#85 = DIRECTION ( 'NONE',  ( 0.0000000000000000000, -3.083952846180989700E-015, -1.000000000000000000 ) ) ;
#86 =( NAMED_UNIT ( * ) SI_UNIT ( $, .STERADIAN. ) SOLID_ANGLE_UNIT ( ) );
#87 =( NAMED_UNIT ( * ) PLANE_ANGLE_UNIT ( ) SI_UNIT ( $, .RADIAN. ) );
#88 =( LENGTH_UNIT ( ) NAMED_UNIT ( * ) SI_UNIT ( .MILLI., .METRE. ) );
#89 = CARTESIAN_POINT ( 'NONE',  ( 4.898587196589412800E-016, 19.00000000000000000, -4.000000000000000000 ) ) ;
#90 = CARTESIAN_POINT ( 'NONE',  ( 0.0000000000000000000, 1.000000000000000000, -5.500000000000000000 ) ) ;
#91 = DIRECTION ( 'NONE',  ( -0.0000000000000000000, 1.000000000000000000, 0.0000000000000000000 ) ) ;
#92 = DIRECTION ( 'NONE',  ( 0.0000000000000000000, -1.000000000000000000, 0.0000000000000000000 ) ) ;
#93 = CARTESIAN_POINT ( 'NONE',  ( 0.0000000000000000000, 18.99999999999990800, -4.323673019000017000 ) ) ;
#94 = CARTESIAN_POINT ( 'NONE',  ( 0.0000000000000000000, 0.0000000000000000000, 4.000000000000000000 ) ) ;
#95 = CARTESIAN_POINT ( 'NONE',  ( 5.510910596163089600E-016, 1.000000000000000000, -4.500000000000000900 ) ) ;
#96 = CARTESIAN_POINT ( 'NONE',  ( 0.0000000000000000000, 18.00000000000001400, 4.500000000000000900 ) ) ;
#97 = CARTESIAN_POINT ( 'NONE',  ( 0.0000000000000000000, 1.000000000000000000, 4.500000000000000900 ) ) ;
#98 = CARTESIAN_POINT ( 'NONE',  ( 6.735557395310442000E-016, 0.0000000000000000000, 5.500000000000000000 ) ) ;
#99 = CARTESIAN_POINT ( 'NONE',  ( 0.0000000000000000000, 19.00000000000000000, 4.000000000000000000 ) ) ;
#100 = CARTESIAN_POINT ( 'NONE',  ( 6.735557395310442000E-016, 1.000000000000000000, 5.500000000000000000 ) ) ;
#101 = CARTESIAN_POINT ( 'NONE',  ( 5.402941459720617100E-016, 18.99999999999990800, 4.323673019000017000 ) ) ;
#102 = CARTESIAN_POINT ( 'NONE',  ( 0.0000000000000000000, 0.0000000000000000000, -5.500000000000000000 ) ) ;
#103 = DIRECTION ( 'NONE',  ( -1.000000000000000000, 0.0000000000000000000, 0.0000000000000000000 ) ) ;
#104 = CARTESIAN_POINT ( 'NONE',  ( 4.898587196589412800E-016, 0.0000000000000000000, -4.000000000000000000 ) ) ;
#105 = PLANE ( 'NONE',  #60 ) ;
#106 = CARTESIAN_POINT ( 'NONE',  ( 5.510910596163089600E-016, 18.00000000000001400, -4.500000000000000900 ) ) ;
#107 = CARTESIAN_POINT ( 'NONE',  ( 5.565999999999999800, 1.000000000000000000, -5.565999999999999800 ) ) ;
#108 = DIRECTION ( 'NONE',  ( -1.000000000000000000, 0.0000000000000000000, 0.0000000000000000000 ) ) ;
#109 = DIRECTION ( 'NONE',  ( 0.0000000000000000000, 1.000000000000000000, -0.0000000000000000000 ) ) ;
#110 = CARTESIAN_POINT ( 'NONE',  ( 0.0000000000000000000, 18.00000000000001400, 0.0000000000000000000 ) ) ;
#111 = DIRECTION ( 'NONE',  ( 0.0000000000000000000, -1.000000000000000000, 0.0000000000000000000 ) ) ;
#112 = PLANE ( 'NONE',  #2 ) ;
#113 = DIRECTION ( 'NONE',  ( 0.0000000000000000000, 0.0000000000000000000, -1.000000000000000000 ) ) ;
#114 = CARTESIAN_POINT ( 'NONE',  ( 4.375557095000000500, 19.00000000000000000, -4.375557095000000500 ) ) ;
#115 = DIRECTION ( 'NONE',  ( 0.0000000000000000000, 1.000000000000000000, -0.0000000000000000000 ) ) ;
#116 = DIRECTION ( 'NONE',  ( 0.0000000000000000000, -1.000000000000000000, 0.0000000000000000000 ) ) ;
#117 = DIRECTION ( 'NONE',  ( -0.0000000000000000000, 1.000000000000000000, 0.0000000000000000000 ) ) ;
#118 = CARTESIAN_POINT ( 'NONE',  ( 0.0000000000000000000, 0.0000000000000000000, 0.0000000000000000000 ) ) ;
#119 = CARTESIAN_POINT ( 'NONE',  ( 0.0000000000000000000, 0.0000000000000000000, 0.0000000000000000000 ) ) ;
#120 = DIRECTION ( 'NONE',  ( 0.0000000000000000000, 0.0000000000000000000, 1.000000000000000000 ) ) ;
#121 = DIRECTION ( 'NONE',  ( 0.0000000000000000000, -1.000000000000000000, 0.0000000000000000000 ) ) ;
#122 = CARTESIAN_POINT ( 'NONE',  ( 0.0000000000000000000, 19.00000000000000000, 0.0000000000000000000 ) ) ;
#123 = DIRECTION ( 'NONE',  ( 0.0000000000000000000, 0.0000000000000000000, -1.000000000000000000 ) ) ;
#124 = DIRECTION ( 'NONE',  ( 0.0000000000000000000, -1.000000000000000000, 0.0000000000000000000 ) ) ;
#125 = CARTESIAN_POINT ( 'NONE',  ( 6.735557395310442000E-016, 1.000000000000000000, 5.500000000000000000 ) ) ;
#126 = DIRECTION ( 'NONE',  ( 0.0000000000000000000, 0.0000000000000000000, 1.000000000000000000 ) ) ;
#127 = CARTESIAN_POINT ( 'NONE',  ( 0.0000000000000000000, 1.000000000000000000, 0.0000000000000000000 ) ) ;
#128 = DIRECTION ( 'NONE',  ( 0.0000000000000000000, 0.0000000000000000000, -1.000000000000000000 ) ) ;
#129 = DIRECTION ( 'NONE',  ( 0.0000000000000000000, -1.000000000000000000, -0.0000000000000000000 ) ) ;
#130 = DIRECTION ( 'NONE',  ( -0.0000000000000000000, 1.000000000000000000, 0.0000000000000000000 ) ) ;
#131 = CARTESIAN_POINT ( 'NONE',  ( 0.0000000000000000000, 0.0000000000000000000, 0.0000000000000000000 ) ) ;
#132 = DIRECTION ( 'NONE',  ( 0.0000000000000000000, 0.0000000000000000000, 1.000000000000000000 ) ) ;
#133 = CARTESIAN_POINT ( 'NONE',  ( 0.0000000000000000000, 1.000000000000000000, 0.0000000000000000000 ) ) ;
#134 = DIRECTION ( 'NONE',  ( -0.0000000000000000000, 1.000000000000000000, 0.0000000000000000000 ) ) ;
#135 = CARTESIAN_POINT ( 'NONE',  ( 0.0000000000000000000, 1.000000000000000000, 0.0000000000000000000 ) ) ;
#136 = DIRECTION ( 'NONE',  ( 0.0000000000000000000, 0.0000000000000000000, 1.000000000000000000 ) ) ;
#137 = DIRECTION ( 'NONE',  ( 0.0000000000000000000, -1.000000000000000000, 0.0000000000000000000 ) ) ;
#138 = CARTESIAN_POINT ( 'NONE',  ( 0.0000000000000000000, 1.000000000000000000, 0.0000000000000000000 ) ) ;
#139 = DIRECTION ( 'NONE',  ( 0.0000000000000000000, 0.0000000000000000000, -1.000000000000000000 ) ) ;
#140 = CARTESIAN_POINT ( 'NONE',  ( 0.0000000000000000000, 19.00000000000000000, 0.0000000000000000000 ) ) ;
#141 = DIRECTION ( 'NONE',  ( 1.000000000000000000, 0.0000000000000000000, 0.0000000000000000000 ) ) ;
#142 = DIRECTION ( 'NONE',  ( 0.0000000000000000000, 0.0000000000000000000, -1.000000000000000000 ) ) ;
#143 = PLANE ( 'NONE',  #25 ) ;
#144 = DIRECTION ( 'NONE',  ( 0.0000000000000000000, -1.000000000000000000, 0.0000000000000000000 ) ) ;
#145 = DIRECTION ( 'NONE',  ( 0.0000000000000000000, 0.0000000000000000000, -1.000000000000000000 ) ) ;
#146 = DIRECTION ( 'NONE',  ( -0.0000000000000000000, 1.000000000000000000, -0.0000000000000000000 ) ) ;
#147 = CARTESIAN_POINT ( 'NONE',  ( -5.565999999999999800, 0.0000000000000000000, -5.565999999999999800 ) ) ;
#148 = CARTESIAN_POINT ( 'NONE',  ( 0.0000000000000000000, 1.000000000000000000, 0.0000000000000000000 ) ) ;
#149 = CARTESIAN_POINT ( 'NONE',  ( 0.0000000000000000000, 18.99999999999990800, 0.0000000000000000000 ) ) ;
#150 =( NAMED_UNIT ( * ) SI_UNIT ( $, .STERADIAN. ) SOLID_ANGLE_UNIT ( ) );
#151 = CARTESIAN_POINT ( 'NONE',  ( 0.0000000000000000000, 19.00000000000000000, -4.323673019000000100 ) ) ;
#152 =( NAMED_UNIT ( * ) PLANE_ANGLE_UNIT ( ) SI_UNIT ( $, .RADIAN. ) );
#153 = APPLICATION_PROTOCOL_DEFINITION ( 'draft international standard', 'automotive_design', 1998, #84 ) ;
#154 =( LENGTH_UNIT ( ) NAMED_UNIT ( * ) SI_UNIT ( .MILLI., .METRE. ) );
#155 = SURFACE_STYLE_USAGE ( .BOTH. , #156 ) ;
#156 = SURFACE_SIDE_STYLE ('',( #237 ) ) ;
#157 = DIRECTION ( 'NONE',  ( 0.0000000000000000000, 0.0000000000000000000, 1.000000000000000000 ) ) ;
#158 = DIRECTION ( 'NONE',  ( 0.0000000000000000000, -1.000000000000000000, -0.0000000000000000000 ) ) ;
#159 = CARTESIAN_POINT ( 'NONE',  ( 0.0000000000000000000, 19.00000000000000000, 0.0000000000000000000 ) ) ;
#160 = DIRECTION ( 'NONE',  ( 0.0000000000000000000, 0.0000000000000000000, 1.000000000000000000 ) ) ;
#161 = FILL_AREA_STYLE_COLOUR ( '', #245 ) ;
#162 = FILL_AREA_STYLE ('',( #161 ) ) ;
#163 = DIRECTION ( 'NONE',  ( 0.0000000000000000000, 0.0000000000000000000, -1.000000000000000000 ) ) ;
#164 = DIRECTION ( 'NONE',  ( -0.0000000000000000000, 1.000000000000000000, -0.0000000000000000000 ) ) ;
#165 = CARTESIAN_POINT ( 'NONE',  ( 0.0000000000000000000, 18.99999999999990800, 0.0000000000000000000 ) ) ;
#166 = DIRECTION ( 'NONE',  ( -0.0000000000000000000, 1.000000000000000000, 0.0000000000000000000 ) ) ;
#167 = DIRECTION ( 'NONE',  ( 0.0000000000000000000, -1.000000000000000000, 0.0000000000000000000 ) ) ;
#168 = DIRECTION ( 'NONE',  ( 0.0000000000000000000, 0.0000000000000000000, -1.000000000000000000 ) ) ;
#169 = DIRECTION ( 'NONE',  ( -0.0000000000000000000, 1.000000000000000000, -0.0000000000000000000 ) ) ;
#170 = DIRECTION ( 'NONE',  ( 0.0000000000000000000, -0.9848077529631100700, -0.1736481779453795100 ) ) ;
#171 = CARTESIAN_POINT ( 'NONE',  ( 0.0000000000000000000, 1.000000000000000000, 0.0000000000000000000 ) ) ;
#172 = DIRECTION ( 'NONE',  ( -0.0000000000000000000, 1.000000000000000000, 0.0000000000000000000 ) ) ;
#173 = CARTESIAN_POINT ( 'NONE',  ( 0.0000000000000000000, 1.000000000000000000, 4.500000000000000900 ) ) ;
#174 = DIRECTION ( 'NONE',  ( 0.0000000000000000000, 0.0000000000000000000, 1.000000000000000000 ) ) ;
#175 = DIRECTION ( 'NONE',  ( 0.0000000000000000000, -1.000000000000000000, -0.0000000000000000000 ) ) ;
#176 = CARTESIAN_POINT ( 'NONE',  ( 0.0000000000000000000, 1.000000000000000000, 0.0000000000000000000 ) ) ;
#177 = DIRECTION ( 'NONE',  ( 0.0000000000000000000, -3.083952846180989700E-015, -1.000000000000000000 ) ) ;
#178 = DIRECTION ( 'NONE',  ( 0.0000000000000000000, 0.0000000000000000000, 1.000000000000000000 ) ) ;
#179 = DIRECTION ( 'NONE',  ( 0.0000000000000000000, -1.000000000000000000, 0.0000000000000000000 ) ) ;
#180 = CARTESIAN_POINT ( 'NONE',  ( 0.0000000000000000000, 18.00000000000001400, 0.0000000000000000000 ) ) ;
#181 = DIRECTION ( 'NONE',  ( 0.0000000000000000000, -1.000000000000000000, -0.0000000000000000000 ) ) ;
#182 = CARTESIAN_POINT ( 'NONE',  ( 0.0000000000000000000, 1.000000000000000000, -5.500000000000000000 ) ) ;
#183 = CARTESIAN_POINT ( 'NONE',  ( 0.0000000000000000000, 0.0000000000000000000, 0.0000000000000000000 ) ) ;
#184 = DIRECTION ( 'NONE',  ( 0.0000000000000000000, 0.0000000000000000000, -1.000000000000000000 ) ) ;
#185 = CARTESIAN_POINT ( 'NONE',  ( 0.0000000000000000000, 1.000000000000000000, 0.0000000000000000000 ) ) ;
#186 = DIRECTION ( 'NONE',  ( -0.0000000000000000000, 1.000000000000000000, -0.0000000000000000000 ) ) ;
#187 = CARTESIAN_POINT ( 'NONE',  ( 0.0000000000000000000, 0.0000000000000000000, 0.0000000000000000000 ) ) ;
#188 = DIRECTION ( 'NONE',  ( -0.0000000000000000000, 1.000000000000000000, 0.0000000000000000000 ) ) ;
#189 = CARTESIAN_POINT ( 'NONE',  ( 5.510910596163089600E-016, 1.000000000000000000, -4.500000000000000900 ) ) ;
#190 = DIRECTION ( 'NONE',  ( 0.0000000000000000000, 0.0000000000000000000, 1.000000000000000000 ) ) ;
#191 = CARTESIAN_POINT ( 'NONE',  ( 5.294972323278124000E-016, 19.00000000000000000, 4.323673019000000100 ) ) ;
#192 = DIRECTION ( 'NONE',  ( 0.0000000000000000000, -1.000000000000000000, -0.0000000000000000000 ) ) ;
#193 = CARTESIAN_POINT ( 'NONE',  ( 0.0000000000000000000, 0.0000000000000000000, 0.0000000000000000000 ) ) ;
#194 = CARTESIAN_POINT ( 'NONE',  ( 0.0000000000000000000, 0.0000000000000000000, 4.000000000000000000 ) ) ;
#195 = DIRECTION ( 'NONE',  ( 0.0000000000000000000, 0.0000000000000000000, 1.000000000000000000 ) ) ;
#196 = DIRECTION ( 'NONE',  ( 0.0000000000000000000, -1.000000000000000000, -0.0000000000000000000 ) ) ;
#197 = DIRECTION ( 'NONE',  ( 0.0000000000000000000, 0.0000000000000000000, -1.000000000000000000 ) ) ;
#198 = DIRECTION ( 'NONE',  ( 2.126576852985790500E-017, -0.9848077529631100700, 0.1736481779453795100 ) ) ;
#199 = CARTESIAN_POINT ( 'NONE',  ( 0.0000000000000000000, 19.00000000000000000, 0.0000000000000000000 ) ) ;
#200 = CARTESIAN_POINT ( 'NONE',  ( 4.898587196589412800E-016, 0.0000000000000000000, -4.000000000000000000 ) ) ;
#201 = PRODUCT ( '1077000017D00A', '1077000017D00A', '', ( #74 ) ) ;
#202 = ADVANCED_FACE ( 'NONE', ( #239 ), #227, .T. ) ;
#203 = ADVANCED_FACE ( 'NONE', ( #230, #226 ), #143, .T. ) ;
#204 = ADVANCED_FACE ( 'NONE', ( #238 ), #219, .T. ) ;
#205 = ADVANCED_FACE ( 'NONE', ( #229 ), #228, .T. ) ;
#206 = ADVANCED_FACE ( 'NONE', ( #220 ), #217, .T. ) ;
#207 = ADVANCED_FACE ( 'NONE', ( #222 ), #214, .F. ) ;
#208 = ADVANCED_FACE ( 'NONE', ( #218 ), #235, .T. ) ;
#209 = ADVANCED_FACE ( 'NONE', ( #215 ), #233, .T. ) ;
#210 = ADVANCED_FACE ( 'NONE', ( #213 ), #221, .F. ) ;
#211 = ADVANCED_FACE ( 'NONE', ( #232, #234 ), #112, .T. ) ;
#212 = ADVANCED_FACE ( 'NONE', ( #224, #231 ), #105, .T. ) ;
#213 = FACE_OUTER_BOUND ( 'NONE', #344, .T. ) ;
#214 = CYLINDRICAL_SURFACE ( 'NONE', #1, 4.000000000000000000 ) ;
#215 = FACE_OUTER_BOUND ( 'NONE', #342, .T. ) ;
#216 = PRESENTATION_STYLE_ASSIGNMENT (( #78 ) ) ;
#217 = CYLINDRICAL_SURFACE ( 'NONE', #15, 4.500000000000000900 ) ;
#218 = FACE_OUTER_BOUND ( 'NONE', #323, .T. ) ;
#219 = CONICAL_SURFACE ( 'NONE', #30, 4.323673019000000100, 0.1745329254821776400 ) ;
#220 = FACE_OUTER_BOUND ( 'NONE', #329, .T. ) ;
#221 = CYLINDRICAL_SURFACE ( 'NONE', #9, 4.000000000000000000 ) ;
#222 = FACE_OUTER_BOUND ( 'NONE', #317, .T. ) ;
#223 = SURFACE_STYLE_FILL_AREA ( #80 ) ;
#224 = FACE_BOUND ( 'NONE', #336, .T. ) ;
#225 = COLOUR_RGB ( '',1.000000000000000000, 1.000000000000000000, 0.5019607843137254800 ) ;
#226 = FACE_OUTER_BOUND ( 'NONE', #339, .T. ) ;
#227 = CYLINDRICAL_SURFACE ( 'NONE', #43, 4.500000000000000900 ) ;
#228 = CYLINDRICAL_SURFACE ( 'NONE', #26, 5.500000000000000000 ) ;
#229 = FACE_OUTER_BOUND ( 'NONE', #340, .T. ) ;
#230 = FACE_BOUND ( 'NONE', #318, .T. ) ;
#231 = FACE_OUTER_BOUND ( 'NONE', #326, .T. ) ;
#232 = FACE_BOUND ( 'NONE', #303, .T. ) ;
#233 = CONICAL_SURFACE ( 'NONE', #17, 4.323673019000000100, 0.1745329254821776400 ) ;
#234 = FACE_OUTER_BOUND ( 'NONE', #328, .T. ) ;
#235 = CYLINDRICAL_SURFACE ( 'NONE', #3, 5.500000000000000000 ) ;
#236 = PRESENTATION_STYLE_ASSIGNMENT (( #155 ) ) ;
#237 = SURFACE_STYLE_FILL_AREA ( #162 ) ;
#238 = FACE_OUTER_BOUND ( 'NONE', #332, .T. ) ;
#239 = FACE_OUTER_BOUND ( 'NONE', #333, .T. ) ;
#240 = VECTOR ( 'NONE', #172, 1000.000000000000000 ) ;
#241 = CIRCLE ( 'NONE', #51, 4.000000000000000000 ) ;
#242 = LINE ( 'NONE', #173, #240 ) ;
#243 = CIRCLE ( 'NONE', #44, 4.323673019000017000 ) ;
#244 = CIRCLE ( 'NONE', #31, 5.500000000000000000 ) ;
#245 = COLOUR_RGB ( '',1.000000000000000000, 1.000000000000000000, 0.5019607843137254800 ) ;
#246 = VECTOR ( 'NONE', #188, 1000.000000000000000 ) ;
#247 = CIRCLE ( 'NONE', #41, 4.500000000000000900 ) ;
#248 = VECTOR ( 'NONE', #91, 1000.000000000000000 ) ;
#249 = LINE ( 'NONE', #189, #246 ) ;
#250 = LINE ( 'NONE', #194, #248 ) ;
#251 = VECTOR ( 'NONE', #68, 1000.000000000000000 ) ;
#252 = CIRCLE ( 'NONE', #40, 4.500000000000000900 ) ;
#253 = CIRCLE ( 'NONE', #54, 4.000000000000000000 ) ;
#254 = VECTOR ( 'NONE', #111, 1000.000000000000000 ) ;
#255 = LINE ( 'NONE', #200, #251 ) ;
#256 = LINE ( 'NONE', #125, #254 ) ;
#257 = CIRCLE ( 'NONE', #58, 4.000000000000000000 ) ;
#258 = CIRCLE ( 'NONE', #29, 5.500000000000000000 ) ;
#259 = CIRCLE ( 'NONE', #56, 4.500000000000000900 ) ;
#260 = VECTOR ( 'NONE', #170, 999.9999999999998900 ) ;
#261 = CIRCLE ( 'NONE', #53, 5.500000000000000000 ) ;
#262 = CIRCLE ( 'NONE', #14, 4.500000000000000900 ) ;
#263 = VECTOR ( 'NONE', #70, 1000.000000000000000 ) ;
#264 = LINE ( 'NONE', #151, #260 ) ;
#265 = CIRCLE ( 'NONE', #49, 4.323673019000017000 ) ;
#266 = LINE ( 'NONE', #182, #263 ) ;
#267 = VECTOR ( 'NONE', #198, 999.9999999999998900 ) ;
#268 = LINE ( 'NONE', #191, #267 ) ;
#269 = CIRCLE ( 'NONE', #42, 4.000000000000000000 ) ;
#270 = ORIENTED_EDGE ( 'NONE', *, *, #35, .F. ) ;
#271 = ORIENTED_EDGE ( 'NONE', *, *, #59, .T. ) ;
#272 = VERTEX_POINT ( 'NONE', #100 ) ;
#273 = SHAPE_DEFINITION_REPRESENTATION ( #61, #65 ) ;
#274 = ORIENTED_EDGE ( 'NONE', *, *, #22, .T. ) ;
#275 = ORIENTED_EDGE ( 'NONE', *, *, #22, .F. ) ;
#276 = ORIENTED_EDGE ( 'NONE', *, *, #27, .F. ) ;
#277 = ORIENTED_EDGE ( 'NONE', *, *, #21, .F. ) ;
#278 = ORIENTED_EDGE ( 'NONE', *, *, #52, .T. ) ;
#279 = ORIENTED_EDGE ( 'NONE', *, *, #36, .T. ) ;
#280 = ORIENTED_EDGE ( 'NONE', *, *, #16, .T. ) ;
#281 = ORIENTED_EDGE ( 'NONE', *, *, #16, .F. ) ;
#282 = ORIENTED_EDGE ( 'NONE', *, *, #39, .F. ) ;
#283 = ORIENTED_EDGE ( 'NONE', *, *, #33, .F. ) ;
#284 = ORIENTED_EDGE ( 'NONE', *, *, #52, .F. ) ;
#285 = ORIENTED_EDGE ( 'NONE', *, *, #39, .T. ) ;
#286 = ORIENTED_EDGE ( 'NONE', *, *, #18, .F. ) ;
#287 = ORIENTED_EDGE ( 'NONE', *, *, #21, .T. ) ;
#288 = ORIENTED_EDGE ( 'NONE', *, *, #47, .T. ) ;
#289 = ORIENTED_EDGE ( 'NONE', *, *, #36, .F. ) ;
#290 = ORIENTED_EDGE ( 'NONE', *, *, #20, .T. ) ;
#291 = ORIENTED_EDGE ( 'NONE', *, *, #24, .F. ) ;
#292 = ORIENTED_EDGE ( 'NONE', *, *, #19, .F. ) ;
#293 = ORIENTED_EDGE ( 'NONE', *, *, #28, .T. ) ;
#294 = ORIENTED_EDGE ( 'NONE', *, *, #20, .F. ) ;
#295 = ORIENTED_EDGE ( 'NONE', *, *, #27, .T. ) ;
#296 = ORIENTED_EDGE ( 'NONE', *, *, #34, .T. ) ;
#297 = ORIENTED_EDGE ( 'NONE', *, *, #46, .F. ) ;
#298 = ORIENTED_EDGE ( 'NONE', *, *, #38, .T. ) ;
#299 = ORIENTED_EDGE ( 'NONE', *, *, #46, .T. ) ;
#300 = ORIENTED_EDGE ( 'NONE', *, *, #18, .T. ) ;
#301 = ORIENTED_EDGE ( 'NONE', *, *, #23, .T. ) ;
#302 = ORIENTED_EDGE ( 'NONE', *, *, #19, .T. ) ;
#303 = EDGE_LOOP ( 'NONE', ( #296, #271 ) ) ;
#304 = ORIENTED_EDGE ( 'NONE', *, *, #38, .F. ) ;
#305 = ORIENTED_EDGE ( 'NONE', *, *, #55, .T. ) ;
#306 = ORIENTED_EDGE ( 'NONE', *, *, #59, .F. ) ;
#307 = ORIENTED_EDGE ( 'NONE', *, *, #35, .T. ) ;
#308 = ORIENTED_EDGE ( 'NONE', *, *, #55, .F. ) ;
#309 = ORIENTED_EDGE ( 'NONE', *, *, #28, .F. ) ;
#310 = ORIENTED_EDGE ( 'NONE', *, *, #37, .T. ) ;
#311 = ORIENTED_EDGE ( 'NONE', *, *, #23, .F. ) ;
#312 = ORIENTED_EDGE ( 'NONE', *, *, #33, .T. ) ;
#313 = ORIENTED_EDGE ( 'NONE', *, *, #47, .F. ) ;
#314 = ORIENTED_EDGE ( 'NONE', *, *, #24, .T. ) ;
#315 = VERTEX_POINT ( 'NONE', #99 ) ;
#316 = ORIENTED_EDGE ( 'NONE', *, *, #37, .F. ) ;
#317 = EDGE_LOOP ( 'NONE', ( #279, #307, #320, #316 ) ) ;
#318 = EDGE_LOOP ( 'NONE', ( #289, #292 ) ) ;
#319 = CIRCLE ( 'NONE', #45, 5.500000000000000000 ) ;
#320 = ORIENTED_EDGE ( 'NONE', *, *, #34, .F. ) ;
#321 = VERTEX_POINT ( 'NONE', #101 ) ;
#322 = VERTEX_POINT ( 'NONE', #102 ) ;
#323 = EDGE_LOOP ( 'NONE', ( #283, #286, #290, #291 ) ) ;
#324 = VERTEX_POINT ( 'NONE', #106 ) ;
#325 = VERTEX_POINT ( 'NONE', #97 ) ;
#326 = EDGE_LOOP ( 'NONE', ( #300, #288 ) ) ;
#327 = VERTEX_POINT ( 'NONE', #96 ) ;
#328 = EDGE_LOOP ( 'NONE', ( #278, #287 ) ) ;
#329 = EDGE_LOOP ( 'NONE', ( #311, #298, #295, #308 ) ) ;
#330 = VERTEX_POINT ( 'NONE', #98 ) ;
#331 = VERTEX_POINT ( 'NONE', #95 ) ;
#332 = EDGE_LOOP ( 'NONE', ( #277, #280, #276, #275 ) ) ;
#333 = EDGE_LOOP ( 'NONE', ( #304, #297, #305, #285 ) ) ;
#334 = VERTEX_POINT ( 'NONE', #104 ) ;
#335 = VERTEX_POINT ( 'NONE', #94 ) ;
#336 = EDGE_LOOP ( 'NONE', ( #299, #301 ) ) ;
#337 = VERTEX_POINT ( 'NONE', #93 ) ;
#338 = CLOSED_SHELL ( 'NONE', ( #204, #206, #207, #205, #209, #211, #202, #210, #212, #203, #208 ) ) ;
#339 = EDGE_LOOP ( 'NONE', ( #293, #314 ) ) ;
#340 = EDGE_LOOP ( 'NONE', ( #313, #312, #309, #294 ) ) ;
#341 = VERTEX_POINT ( 'NONE', #90 ) ;
#342 = EDGE_LOOP ( 'NONE', ( #281, #284, #274, #282 ) ) ;
#343 = VERTEX_POINT ( 'NONE', #89 ) ;
#344 = EDGE_LOOP ( 'NONE', ( #270, #302, #310, #306 ) ) ;
ENDSEC;
END-ISO-10303-21;
