ISO-10303-21;
HEADER;
FILE_DESCRIPTION (( 'STEP AP214' ),
    '1' );
FILE_NAME ('1077000018D00A.STEP',
    '2013-02-25T17:28:08',
    ( '' ),
    ( '' ),
    'SwSTEP 2.0',
    'SolidWorks 2012',
    '' );
FILE_SCHEMA (( 'AUTOMOTIVE_DESIGN' ));
ENDSEC;

DATA;
#1 = AXIS2_PLACEMENT_3D ( 'NONE', #119, #126, #124 ) ;
#2 = AXIS2_PLACEMENT_3D ( 'NONE', #132, #138, #134 ) ;
#3 = AXIS2_PLACEMENT_3D ( 'NONE', #114, #112, #115 ) ;
#4 = AXIS2_PLACEMENT_3D ( 'NONE', #162, #161, #171 ) ;
#5 = AXIS2_PLACEMENT_3D ( 'NONE', #200, #199, #198 ) ;
#6 = AXIS2_PLACEMENT_3D ( 'NONE', #69, #68, #195 ) ;
#7 = EDGE_CURVE ( 'NONE', #262, #310, #266, .T. ) ;
#8 = AXIS2_PLACEMENT_3D ( 'NONE', #139, #143, #133 ) ;
#9 = MECHANICAL_DESIGN_GEOMETRIC_PRESENTATION_REPRESENTATION (  '', ( #48 ), #43 ) ;
#10 = AXIS2_PLACEMENT_3D ( 'NONE', #130, #116, #127 ) ;
#11 = AXIS2_PLACEMENT_3D ( 'NONE', #91, #89, #93 ) ;
#12 =( GEOMETRIC_REPRESENTATION_CONTEXT ( 3 ) GLOBAL_UNCERTAINTY_ASSIGNED_CONTEXT ( ( #63 ) ) GLOBAL_UNIT_ASSIGNED_CONTEXT ( ( #86, #85, #84 ) ) REPRESENTATION_CONTEXT ( 'NONE', 'WORKASPACE' ) );
#13 = EDGE_CURVE ( 'NONE', #262, #233, #312, .T. ) ;
#14 = EDGE_CURVE ( 'NONE', #310, #324, #267, .T. ) ;
#15 = AXIS2_PLACEMENT_3D ( 'NONE', #147, #149, #142 ) ;
#16 = EDGE_CURVE ( 'NONE', #309, #317, #264, .T. ) ;
#17 = AXIS2_PLACEMENT_3D ( 'NONE', #159, #158, #160 ) ;
#18 = EDGE_CURVE ( 'NONE', #306, #303, #263, .T. ) ;
#19 = EDGE_CURVE ( 'NONE', #317, #309, #261, .T. ) ;
#20 = EDGE_CURVE ( 'NONE', #233, #324, #260, .T. ) ;
#21 = EDGE_CURVE ( 'NONE', #303, #306, #259, .T. ) ;
#22 = EDGE_CURVE ( 'NONE', #311, #317, #255, .T. ) ;
#23 = EDGE_CURVE ( 'NONE', #302, #323, #258, .T. ) ;
#24 = EDGE_CURVE ( 'NONE', #305, #309, #254, .T. ) ;
#25 = AXIS2_PLACEMENT_3D ( 'NONE', #156, #155, #157 ) ;
#26 = EDGE_CURVE ( 'NONE', #338, #303, #251, .T. ) ;
#27 = AXIS2_PLACEMENT_3D ( 'NONE', #153, #152, #154 ) ;
#28 = EDGE_CURVE ( 'NONE', #323, #302, #250, .T. ) ;
#29 = EDGE_CURVE ( 'NONE', #324, #310, #252, .T. ) ;
#30 = EDGE_CURVE ( 'NONE', #233, #262, #248, .T. ) ;
#31 = EDGE_CURVE ( 'NONE', #338, #304, #245, .T. ) ;
#32 = EDGE_CURVE ( 'NONE', #305, #311, #239, .T. ) ;
#33 = EDGE_CURVE ( 'NONE', #304, #338, #246, .T. ) ;
#34 = AXIS2_PLACEMENT_3D ( 'NONE', #148, #150, #145 ) ;
#35 = EDGE_CURVE ( 'NONE', #302, #317, #242, .T. ) ;
#36 = AXIS2_PLACEMENT_3D ( 'NONE', #136, #135, #141 ) ;
#37 = EDGE_CURVE ( 'NONE', #311, #305, #243, .T. ) ;
#38 = AXIS2_PLACEMENT_3D ( 'NONE', #131, #120, #118 ) ;
#39 = AXIS2_PLACEMENT_3D ( 'NONE', #164, #163, #177 ) ;
#40 = PRESENTATION_LAYER_ASSIGNMENT (  '', '', ( #48 ) ) ;
#41 = AXIS2_PLACEMENT_3D ( 'NONE', #98, #113, #108 ) ;
#42 = EDGE_CURVE ( 'NONE', #304, #306, #236, .T. ) ;
#43 =( GEOMETRIC_REPRESENTATION_CONTEXT ( 3 ) GLOBAL_UNCERTAINTY_ASSIGNED_CONTEXT ( ( #66 ) ) GLOBAL_UNIT_ASSIGNED_CONTEXT ( ( #167, #166, #165 ) ) REPRESENTATION_CONTEXT ( 'NONE', 'WORKASPACE' ) );
#44 = AXIS2_PLACEMENT_3D ( 'NONE', #188, #187, #186 ) ;
#45 = AXIS2_PLACEMENT_3D ( 'NONE', #192, #191, #190 ) ;
#46 = AXIS2_PLACEMENT_3D ( 'NONE', #128, #129, #121 ) ;
#47 = AXIS2_PLACEMENT_3D ( 'NONE', #176, #175, #174 ) ;
#48 = STYLED_ITEM ( 'NONE', ( #277 ), #67 ) ;
#49 = AXIS2_PLACEMENT_3D ( 'NONE', #123, #140, #146 ) ;
#50 = PRODUCT_RELATED_PRODUCT_CATEGORY ( 'part', '', ( #201 ) ) ;
#51 = PRODUCT_DEFINITION_FORMATION_WITH_SPECIFIED_SOURCE ( 'TUTTO', '', #201, .NOT_KNOWN. ) ;
#52 = PRODUCT_DEFINITION ( 'NON CONOSCIUTO', '', #51, #62 ) ;
#53 = AXIS2_PLACEMENT_3D ( 'NONE', #92, #74, #73 ) ;
#54 = AXIS2_PLACEMENT_3D ( 'NONE', #196, #194, #193 ) ;
#55 =( GEOMETRIC_REPRESENTATION_CONTEXT ( 3 ) GLOBAL_UNCERTAINTY_ASSIGNED_CONTEXT ( ( #65 ) ) GLOBAL_UNIT_ASSIGNED_CONTEXT ( ( #77, #76, #75 ) ) REPRESENTATION_CONTEXT ( 'NONE', 'WORKASPACE' ) );
#56 = MECHANICAL_DESIGN_GEOMETRIC_PRESENTATION_REPRESENTATION (  '', ( #59 ), #55 ) ;
#57 = PRESENTATION_LAYER_ASSIGNMENT (  '', '', ( #59 ) ) ;
#58 = EDGE_CURVE ( 'NONE', #323, #309, #237, .T. ) ;
#59 = STYLED_ITEM ( 'NONE', ( #215 ), #64 ) ;
#60 = AXIS2_PLACEMENT_3D ( 'NONE', #183, #182, #179 ) ;
#61 = PRODUCT_DEFINITION_SHAPE ( 'NONE', 'NONE',  #52 ) ;
#62 = PRODUCT_DEFINITION_CONTEXT ( 'detailed design', #71, 'design' ) ;
#63 = UNCERTAINTY_MEASURE_WITH_UNIT (LENGTH_MEASURE( 1.000000000000000100E-005 ), #86, 'distance_accuracy_value', 'NONE');
#64 = ADVANCED_BREP_SHAPE_REPRESENTATION ( '1077000018D00A', ( #67, #53 ), #12 ) ;
#65 = UNCERTAINTY_MEASURE_WITH_UNIT (LENGTH_MEASURE( 1.000000000000000100E-005 ), #77, 'distance_accuracy_value', 'NONE');
#66 = UNCERTAINTY_MEASURE_WITH_UNIT (LENGTH_MEASURE( 1.000000000000000100E-005 ), #167, 'distance_accuracy_value', 'NONE');
#67 = MANIFOLD_SOLID_BREP ( 'Importato1', #319 ) ;
#68 = DIRECTION ( 'NONE',  ( -0.0000000000000000000, -1.000000000000000000, -0.0000000000000000000 ) ) ;
#69 = CARTESIAN_POINT ( 'NONE',  ( 0.0000000000000000000, 1.000000000000000000, 0.0000000000000000000 ) ) ;
#70 = APPLICATION_PROTOCOL_DEFINITION ( 'draft international standard', 'automotive_design', 1998, #71 ) ;
#71 = APPLICATION_CONTEXT ( 'automotive_design' ) ;
#72 = PRODUCT_CONTEXT ( 'NONE', #81, 'mechanical' ) ;
#73 = DIRECTION ( 'NONE',  ( 1.000000000000000000, 0.0000000000000000000, 0.0000000000000000000 ) ) ;
#74 = DIRECTION ( 'NONE',  ( 0.0000000000000000000, 0.0000000000000000000, 1.000000000000000000 ) ) ;
#75 =( NAMED_UNIT ( * ) SI_UNIT ( $, .STERADIAN. ) SOLID_ANGLE_UNIT ( ) );
#76 =( NAMED_UNIT ( * ) PLANE_ANGLE_UNIT ( ) SI_UNIT ( $, .RADIAN. ) );
#77 =( LENGTH_UNIT ( ) NAMED_UNIT ( * ) SI_UNIT ( .MILLI., .METRE. ) );
#78 = SURFACE_STYLE_USAGE ( .BOTH. , #79 ) ;
#79 = SURFACE_SIDE_STYLE ('',( #216 ) ) ;
#80 = FILL_AREA_STYLE ('',( #95 ) ) ;
#81 = APPLICATION_CONTEXT ( 'automotive_design' ) ;
#82 = DIRECTION ( 'NONE',  ( -0.0000000000000000000, 1.000000000000000000, 0.0000000000000000000 ) ) ;
#83 = APPLICATION_PROTOCOL_DEFINITION ( 'draft international standard', 'automotive_design', 1998, #81 ) ;
#84 =( NAMED_UNIT ( * ) SI_UNIT ( $, .STERADIAN. ) SOLID_ANGLE_UNIT ( ) );
#85 =( NAMED_UNIT ( * ) PLANE_ANGLE_UNIT ( ) SI_UNIT ( $, .RADIAN. ) );
#86 =( LENGTH_UNIT ( ) NAMED_UNIT ( * ) SI_UNIT ( .MILLI., .METRE. ) );
#87 = CARTESIAN_POINT ( 'NONE',  ( 5.510910596163089600E-016, 0.0000000000000000000, -4.500000000000000900 ) ) ;
#88 = CARTESIAN_POINT ( 'NONE',  ( 0.0000000000000000000, 0.0000000000000000000, -5.500000000000000000 ) ) ;
#89 = DIRECTION ( 'NONE',  ( -0.0000000000000000000, -1.000000000000000000, -0.0000000000000000000 ) ) ;
#90 = DIRECTION ( 'NONE',  ( 2.126576852985790500E-017, -0.9848077529631100700, 0.1736481779453795100 ) ) ;
#91 = CARTESIAN_POINT ( 'NONE',  ( 0.0000000000000000000, 1.000000000000000000, 0.0000000000000000000 ) ) ;
#92 = CARTESIAN_POINT ( 'NONE',  ( 0.0000000000000000000, 0.0000000000000000000, 0.0000000000000000000 ) ) ;
#93 = DIRECTION ( 'NONE',  ( 0.0000000000000000000, 0.0000000000000000000, 1.000000000000000000 ) ) ;
#94 = CARTESIAN_POINT ( 'NONE',  ( 0.0000000000000000000, 18.00000000000001400, 5.000000000000000000 ) ) ;
#95 = FILL_AREA_STYLE_COLOUR ( '', #217 ) ;
#96 = CARTESIAN_POINT ( 'NONE',  ( 0.0000000000000000000, 19.00000000000000000, -4.823673019000000100 ) ) ;
#97 = CARTESIAN_POINT ( 'NONE',  ( 5.510910596163089600E-016, 0.0000000000000000000, -4.500000000000000900 ) ) ;
#98 = CARTESIAN_POINT ( 'NONE',  ( 0.0000000000000000000, 19.00000000000000000, 0.0000000000000000000 ) ) ;
#99 = CARTESIAN_POINT ( 'NONE',  ( 6.123233995736766300E-016, 1.000000000000000000, -5.000000000000000000 ) ) ;
#100 = CARTESIAN_POINT ( 'NONE',  ( 6.735557395310442000E-016, 0.0000000000000000000, 5.500000000000000000 ) ) ;
#101 = CARTESIAN_POINT ( 'NONE',  ( 0.0000000000000000000, 19.00000000000000000, 4.500000000000000900 ) ) ;
#102 = CARTESIAN_POINT ( 'NONE',  ( 0.0000000000000000000, 0.0000000000000000000, 4.500000000000000900 ) ) ;
#103 = CARTESIAN_POINT ( 'NONE',  ( 5.510910596163089600E-016, 19.00000000000000000, -4.500000000000000900 ) ) ;
#104 = CARTESIAN_POINT ( 'NONE',  ( 0.0000000000000000000, 1.000000000000000000, 5.000000000000000000 ) ) ;
#105 = CARTESIAN_POINT ( 'NONE',  ( 6.735557395310442000E-016, 1.000000000000000000, 5.500000000000000000 ) ) ;
#106 = CARTESIAN_POINT ( 'NONE',  ( 0.0000000000000000000, 1.000000000000000000, -5.500000000000000000 ) ) ;
#107 = CARTESIAN_POINT ( 'NONE',  ( 6.123233995736766300E-016, 18.00000000000001400, -5.000000000000000000 ) ) ;
#108 = DIRECTION ( 'NONE',  ( 0.0000000000000000000, 0.0000000000000000000, 1.000000000000000000 ) ) ;
#109 = DIRECTION ( 'NONE',  ( 0.0000000000000000000, -0.9848077529631100700, -0.1736481779453795100 ) ) ;
#110 = CARTESIAN_POINT ( 'NONE',  ( 0.0000000000000000000, 18.99999999999990800, -4.823673019000016100 ) ) ;
#111 = CARTESIAN_POINT ( 'NONE',  ( 6.015264859294292900E-016, 18.99999999999990800, 4.823673019000016100 ) ) ;
#112 = DIRECTION ( 'NONE',  ( 0.0000000000000000000, 1.000000000000000000, 0.0000000000000000000 ) ) ;
#113 = DIRECTION ( 'NONE',  ( 0.0000000000000000000, -1.000000000000000000, -0.0000000000000000000 ) ) ;
#114 = CARTESIAN_POINT ( 'NONE',  ( 0.0000000000000000000, 1.000000000000000000, 0.0000000000000000000 ) ) ;
#115 = DIRECTION ( 'NONE',  ( 0.0000000000000000000, 0.0000000000000000000, 1.000000000000000000 ) ) ;
#116 = DIRECTION ( 'NONE',  ( 0.0000000000000000000, -1.000000000000000000, -0.0000000000000000000 ) ) ;
#117 = CARTESIAN_POINT ( 'NONE',  ( 5.907295722851799800E-016, 19.00000000000000000, 4.823673019000000100 ) ) ;
#118 = DIRECTION ( 'NONE',  ( 0.0000000000000000000, -2.775557561562891400E-015, -1.000000000000000000 ) ) ;
#119 = CARTESIAN_POINT ( 'NONE',  ( 0.0000000000000000000, 0.0000000000000000000, 0.0000000000000000000 ) ) ;
#120 = DIRECTION ( 'NONE',  ( 0.0000000000000000000, -1.000000000000000000, 0.0000000000000000000 ) ) ;
#121 = DIRECTION ( 'NONE',  ( 1.000000000000000000, 0.0000000000000000000, 0.0000000000000000000 ) ) ;
#122 = CARTESIAN_POINT ( 'NONE',  ( 0.0000000000000000000, 1.000000000000000000, -5.500000000000000000 ) ) ;
#123 = CARTESIAN_POINT ( 'NONE',  ( 0.0000000000000000000, 0.0000000000000000000, 0.0000000000000000000 ) ) ;
#124 = DIRECTION ( 'NONE',  ( 0.0000000000000000000, 0.0000000000000000000, 1.000000000000000000 ) ) ;
#125 = PLANE ( 'NONE',  #46 ) ;
#126 = DIRECTION ( 'NONE',  ( -0.0000000000000000000, 1.000000000000000000, 0.0000000000000000000 ) ) ;
#127 = DIRECTION ( 'NONE',  ( 0.0000000000000000000, 0.0000000000000000000, 1.000000000000000000 ) ) ;
#128 = CARTESIAN_POINT ( 'NONE',  ( -5.565999999999999800, 0.0000000000000000000, -5.565999999999999800 ) ) ;
#129 = DIRECTION ( 'NONE',  ( 0.0000000000000000000, -1.000000000000000000, 0.0000000000000000000 ) ) ;
#130 = CARTESIAN_POINT ( 'NONE',  ( 0.0000000000000000000, 19.00000000000000000, 0.0000000000000000000 ) ) ;
#131 = CARTESIAN_POINT ( 'NONE',  ( 0.0000000000000000000, 18.00000000000001400, 0.0000000000000000000 ) ) ;
#132 = CARTESIAN_POINT ( 'NONE',  ( 0.0000000000000000000, 1.000000000000000000, 0.0000000000000000000 ) ) ;
#133 = DIRECTION ( 'NONE',  ( -1.000000000000000000, 0.0000000000000000000, 0.0000000000000000000 ) ) ;
#134 = DIRECTION ( 'NONE',  ( 0.0000000000000000000, 0.0000000000000000000, -1.000000000000000000 ) ) ;
#135 = DIRECTION ( 'NONE',  ( 0.0000000000000000000, -1.000000000000000000, 0.0000000000000000000 ) ) ;
#136 = CARTESIAN_POINT ( 'NONE',  ( 0.0000000000000000000, 18.00000000000001400, 0.0000000000000000000 ) ) ;
#137 = PLANE ( 'NONE',  #8 ) ;
#138 = DIRECTION ( 'NONE',  ( 0.0000000000000000000, -1.000000000000000000, 0.0000000000000000000 ) ) ;
#139 = CARTESIAN_POINT ( 'NONE',  ( 4.881557095000000700, 19.00000000000000000, -4.881557095000000700 ) ) ;
#140 = DIRECTION ( 'NONE',  ( 0.0000000000000000000, -1.000000000000000000, 0.0000000000000000000 ) ) ;
#141 = DIRECTION ( 'NONE',  ( 0.0000000000000000000, -2.775557561562891400E-015, -1.000000000000000000 ) ) ;
#142 = DIRECTION ( 'NONE',  ( -1.000000000000000000, 0.0000000000000000000, 0.0000000000000000000 ) ) ;
#143 = DIRECTION ( 'NONE',  ( 0.0000000000000000000, 1.000000000000000000, -0.0000000000000000000 ) ) ;
#144 = PLANE ( 'NONE',  #15 ) ;
#145 = DIRECTION ( 'NONE',  ( 0.0000000000000000000, 0.0000000000000000000, -1.000000000000000000 ) ) ;
#146 = DIRECTION ( 'NONE',  ( 0.0000000000000000000, 0.0000000000000000000, -1.000000000000000000 ) ) ;
#147 = CARTESIAN_POINT ( 'NONE',  ( 5.565999999999999800, 1.000000000000000000, -5.565999999999999800 ) ) ;
#148 = CARTESIAN_POINT ( 'NONE',  ( 0.0000000000000000000, 1.000000000000000000, 0.0000000000000000000 ) ) ;
#149 = DIRECTION ( 'NONE',  ( 0.0000000000000000000, 1.000000000000000000, -0.0000000000000000000 ) ) ;
#150 = DIRECTION ( 'NONE',  ( -0.0000000000000000000, 1.000000000000000000, -0.0000000000000000000 ) ) ;
#151 = DIRECTION ( 'NONE',  ( 0.0000000000000000000, -1.000000000000000000, 0.0000000000000000000 ) ) ;
#152 = DIRECTION ( 'NONE',  ( 0.0000000000000000000, -1.000000000000000000, 0.0000000000000000000 ) ) ;
#153 = CARTESIAN_POINT ( 'NONE',  ( 0.0000000000000000000, 19.00000000000000000, 0.0000000000000000000 ) ) ;
#154 = DIRECTION ( 'NONE',  ( 0.0000000000000000000, 0.0000000000000000000, -1.000000000000000000 ) ) ;
#155 = DIRECTION ( 'NONE',  ( -0.0000000000000000000, 1.000000000000000000, 0.0000000000000000000 ) ) ;
#156 = CARTESIAN_POINT ( 'NONE',  ( 0.0000000000000000000, 0.0000000000000000000, 0.0000000000000000000 ) ) ;
#157 = DIRECTION ( 'NONE',  ( 0.0000000000000000000, 0.0000000000000000000, 1.000000000000000000 ) ) ;
#158 = DIRECTION ( 'NONE',  ( 0.0000000000000000000, 1.000000000000000000, 0.0000000000000000000 ) ) ;
#159 = CARTESIAN_POINT ( 'NONE',  ( 0.0000000000000000000, 1.000000000000000000, 0.0000000000000000000 ) ) ;
#160 = DIRECTION ( 'NONE',  ( 0.0000000000000000000, 0.0000000000000000000, 1.000000000000000000 ) ) ;
#161 = DIRECTION ( 'NONE',  ( 0.0000000000000000000, -1.000000000000000000, 0.0000000000000000000 ) ) ;
#162 = CARTESIAN_POINT ( 'NONE',  ( 0.0000000000000000000, 1.000000000000000000, 0.0000000000000000000 ) ) ;
#163 = DIRECTION ( 'NONE',  ( 0.0000000000000000000, -1.000000000000000000, 0.0000000000000000000 ) ) ;
#164 = CARTESIAN_POINT ( 'NONE',  ( 0.0000000000000000000, 19.00000000000000000, 0.0000000000000000000 ) ) ;
#165 =( NAMED_UNIT ( * ) SI_UNIT ( $, .STERADIAN. ) SOLID_ANGLE_UNIT ( ) );
#166 =( NAMED_UNIT ( * ) PLANE_ANGLE_UNIT ( ) SI_UNIT ( $, .RADIAN. ) );
#167 =( LENGTH_UNIT ( ) NAMED_UNIT ( * ) SI_UNIT ( .MILLI., .METRE. ) );
#168 = SURFACE_STYLE_USAGE ( .BOTH. , #169 ) ;
#169 = SURFACE_SIDE_STYLE ('',( #247 ) ) ;
#170 = FILL_AREA_STYLE ('',( #178 ) ) ;
#171 = DIRECTION ( 'NONE',  ( 0.0000000000000000000, 0.0000000000000000000, -1.000000000000000000 ) ) ;
#172 = DIRECTION ( 'NONE',  ( 0.0000000000000000000, 1.000000000000000000, 0.0000000000000000000 ) ) ;
#173 = CARTESIAN_POINT ( 'NONE',  ( 6.123233995736766300E-016, 1.000000000000000000, -5.000000000000000000 ) ) ;
#174 = DIRECTION ( 'NONE',  ( 0.0000000000000000000, 0.0000000000000000000, -1.000000000000000000 ) ) ;
#175 = DIRECTION ( 'NONE',  ( -0.0000000000000000000, 1.000000000000000000, -0.0000000000000000000 ) ) ;
#176 = CARTESIAN_POINT ( 'NONE',  ( 0.0000000000000000000, 18.99999999999990800, 0.0000000000000000000 ) ) ;
#177 = DIRECTION ( 'NONE',  ( 0.0000000000000000000, 0.0000000000000000000, -1.000000000000000000 ) ) ;
#178 = FILL_AREA_STYLE_COLOUR ( '', #276 ) ;
#179 = DIRECTION ( 'NONE',  ( 0.0000000000000000000, 0.0000000000000000000, 1.000000000000000000 ) ) ;
#180 = DIRECTION ( 'NONE',  ( 0.0000000000000000000, -1.000000000000000000, 0.0000000000000000000 ) ) ;
#181 = CARTESIAN_POINT ( 'NONE',  ( 6.735557395310442000E-016, 1.000000000000000000, 5.500000000000000000 ) ) ;
#182 = DIRECTION ( 'NONE',  ( 0.0000000000000000000, -1.000000000000000000, -0.0000000000000000000 ) ) ;
#183 = CARTESIAN_POINT ( 'NONE',  ( 0.0000000000000000000, 0.0000000000000000000, 0.0000000000000000000 ) ) ;
#184 = DIRECTION ( 'NONE',  ( -0.0000000000000000000, 1.000000000000000000, 0.0000000000000000000 ) ) ;
#185 = CARTESIAN_POINT ( 'NONE',  ( 0.0000000000000000000, 0.0000000000000000000, 4.500000000000000900 ) ) ;
#186 = DIRECTION ( 'NONE',  ( 0.0000000000000000000, 0.0000000000000000000, -1.000000000000000000 ) ) ;
#187 = DIRECTION ( 'NONE',  ( -0.0000000000000000000, 1.000000000000000000, -0.0000000000000000000 ) ) ;
#188 = CARTESIAN_POINT ( 'NONE',  ( 0.0000000000000000000, 18.99999999999990800, 0.0000000000000000000 ) ) ;
#189 = DIRECTION ( 'NONE',  ( 0.0000000000000000000, 1.000000000000000000, 0.0000000000000000000 ) ) ;
#190 = DIRECTION ( 'NONE',  ( 0.0000000000000000000, 0.0000000000000000000, 1.000000000000000000 ) ) ;
#191 = DIRECTION ( 'NONE',  ( 0.0000000000000000000, -1.000000000000000000, -0.0000000000000000000 ) ) ;
#192 = CARTESIAN_POINT ( 'NONE',  ( 0.0000000000000000000, 0.0000000000000000000, 0.0000000000000000000 ) ) ;
#193 = DIRECTION ( 'NONE',  ( 0.0000000000000000000, 0.0000000000000000000, -1.000000000000000000 ) ) ;
#194 = DIRECTION ( 'NONE',  ( -0.0000000000000000000, 1.000000000000000000, -0.0000000000000000000 ) ) ;
#195 = DIRECTION ( 'NONE',  ( 0.0000000000000000000, 0.0000000000000000000, 1.000000000000000000 ) ) ;
#196 = CARTESIAN_POINT ( 'NONE',  ( 0.0000000000000000000, 1.000000000000000000, 0.0000000000000000000 ) ) ;
#197 = CARTESIAN_POINT ( 'NONE',  ( 0.0000000000000000000, 1.000000000000000000, 5.000000000000000000 ) ) ;
#198 = DIRECTION ( 'NONE',  ( 0.0000000000000000000, 0.0000000000000000000, -1.000000000000000000 ) ) ;
#199 = DIRECTION ( 'NONE',  ( 0.0000000000000000000, -1.000000000000000000, 0.0000000000000000000 ) ) ;
#200 = CARTESIAN_POINT ( 'NONE',  ( 0.0000000000000000000, 0.0000000000000000000, 0.0000000000000000000 ) ) ;
#201 = PRODUCT ( '1077000018D00A', '1077000018D00A', '', ( #72 ) ) ;
#202 = ADVANCED_FACE ( 'NONE', ( #275 ), #232, .T. ) ;
#203 = ADVANCED_FACE ( 'NONE', ( #279 ), #241, .T. ) ;
#204 = ADVANCED_FACE ( 'NONE', ( #234 ), #230, .T. ) ;
#205 = ADVANCED_FACE ( 'NONE', ( #240 ), #228, .F. ) ;
#206 = ADVANCED_FACE ( 'NONE', ( #231 ), #224, .T. ) ;
#207 = ADVANCED_FACE ( 'NONE', ( #229, #235 ), #144, .T. ) ;
#208 = ADVANCED_FACE ( 'NONE', ( #278, #223 ), #137, .T. ) ;
#209 = ADVANCED_FACE ( 'NONE', ( #227 ), #221, .T. ) ;
#210 = ADVANCED_FACE ( 'NONE', ( #225, #220 ), #125, .T. ) ;
#211 = ADVANCED_FACE ( 'NONE', ( #222 ), #219, .F. ) ;
#212 = ADVANCED_FACE ( 'NONE', ( #226 ), #218, .T. ) ;
#213 = ORIENTED_EDGE ( 'NONE', *, *, #28, .F. ) ;
#214 = SHAPE_DEFINITION_REPRESENTATION ( #61, #64 ) ;
#215 = PRESENTATION_STYLE_ASSIGNMENT (( #78 ) ) ;
#216 = SURFACE_STYLE_FILL_AREA ( #80 ) ;
#217 = COLOUR_RGB ( '',1.000000000000000000, 1.000000000000000000, 0.5019607843137254800 ) ;
#218 = CYLINDRICAL_SURFACE ( 'NONE', #3, 5.000000000000000000 ) ;
#219 = CYLINDRICAL_SURFACE ( 'NONE', #1, 4.500000000000000900 ) ;
#220 = FACE_OUTER_BOUND ( 'NONE', #332, .T. ) ;
#221 = CYLINDRICAL_SURFACE ( 'NONE', #2, 5.500000000000000000 ) ;
#222 = FACE_OUTER_BOUND ( 'NONE', #344, .T. ) ;
#223 = FACE_OUTER_BOUND ( 'NONE', #339, .T. ) ;
#224 = CONICAL_SURFACE ( 'NONE', #27, 4.823673019000000100, 0.1745329254821776400 ) ;
#225 = FACE_BOUND ( 'NONE', #299, .T. ) ;
#226 = FACE_OUTER_BOUND ( 'NONE', #316, .T. ) ;
#227 = FACE_OUTER_BOUND ( 'NONE', #315, .T. ) ;
#228 = CYLINDRICAL_SURFACE ( 'NONE', #25, 4.500000000000000900 ) ;
#229 = FACE_BOUND ( 'NONE', #300, .T. ) ;
#230 = CYLINDRICAL_SURFACE ( 'NONE', #17, 5.000000000000000000 ) ;
#231 = FACE_OUTER_BOUND ( 'NONE', #337, .T. ) ;
#232 = CONICAL_SURFACE ( 'NONE', #39, 4.823673019000000100, 0.1745329254821776400 ) ;
#233 = VERTEX_POINT ( 'NONE', #106 ) ;
#234 = FACE_OUTER_BOUND ( 'NONE', #335, .T. ) ;
#235 = FACE_OUTER_BOUND ( 'NONE', #322, .T. ) ;
#236 = LINE ( 'NONE', #185, #238 ) ;
#237 = LINE ( 'NONE', #173, #280 ) ;
#238 = VECTOR ( 'NONE', #184, 1000.000000000000000 ) ;
#239 = CIRCLE ( 'NONE', #44, 4.823673019000016100 ) ;
#240 = FACE_OUTER_BOUND ( 'NONE', #307, .T. ) ;
#241 = CYLINDRICAL_SURFACE ( 'NONE', #4, 5.500000000000000000 ) ;
#242 = LINE ( 'NONE', #197, #244 ) ;
#243 = CIRCLE ( 'NONE', #47, 4.823673019000016100 ) ;
#244 = VECTOR ( 'NONE', #189, 1000.000000000000000 ) ;
#245 = CIRCLE ( 'NONE', #45, 4.500000000000000900 ) ;
#246 = CIRCLE ( 'NONE', #60, 4.500000000000000900 ) ;
#247 = SURFACE_STYLE_FILL_AREA ( #170 ) ;
#248 = CIRCLE ( 'NONE', #54, 5.500000000000000000 ) ;
#249 = VECTOR ( 'NONE', #109, 999.9999999999998900 ) ;
#250 = CIRCLE ( 'NONE', #6, 5.000000000000000000 ) ;
#251 = LINE ( 'NONE', #97, #256 ) ;
#252 = CIRCLE ( 'NONE', #5, 5.500000000000000000 ) ;
#253 = VECTOR ( 'NONE', #90, 999.9999999999998900 ) ;
#254 = LINE ( 'NONE', #96, #249 ) ;
#255 = LINE ( 'NONE', #117, #253 ) ;
#256 = VECTOR ( 'NONE', #82, 1000.000000000000000 ) ;
#257 = VECTOR ( 'NONE', #151, 1000.000000000000000 ) ;
#258 = CIRCLE ( 'NONE', #11, 5.000000000000000000 ) ;
#259 = CIRCLE ( 'NONE', #41, 4.500000000000000900 ) ;
#260 = LINE ( 'NONE', #122, #257 ) ;
#261 = CIRCLE ( 'NONE', #38, 5.000000000000000000 ) ;
#262 = VERTEX_POINT ( 'NONE', #105 ) ;
#263 = CIRCLE ( 'NONE', #10, 4.500000000000000900 ) ;
#264 = CIRCLE ( 'NONE', #36, 5.000000000000000000 ) ;
#265 = VECTOR ( 'NONE', #180, 1000.000000000000000 ) ;
#266 = LINE ( 'NONE', #181, #265 ) ;
#267 = CIRCLE ( 'NONE', #49, 5.500000000000000000 ) ;
#268 = ORIENTED_EDGE ( 'NONE', *, *, #37, .F. ) ;
#269 = ORIENTED_EDGE ( 'NONE', *, *, #16, .F. ) ;
#270 = ORIENTED_EDGE ( 'NONE', *, *, #22, .T. ) ;
#271 = ORIENTED_EDGE ( 'NONE', *, *, #24, .T. ) ;
#272 = ORIENTED_EDGE ( 'NONE', *, *, #19, .T. ) ;
#273 = ORIENTED_EDGE ( 'NONE', *, *, #18, .T. ) ;
#274 = ORIENTED_EDGE ( 'NONE', *, *, #23, .F. ) ;
#275 = FACE_OUTER_BOUND ( 'NONE', #308, .T. ) ;
#276 = COLOUR_RGB ( '',1.000000000000000000, 1.000000000000000000, 0.5019607843137254800 ) ;
#277 = PRESENTATION_STYLE_ASSIGNMENT (( #168 ) ) ;
#278 = FACE_BOUND ( 'NONE', #318, .T. ) ;
#279 = FACE_OUTER_BOUND ( 'NONE', #301, .T. ) ;
#280 = VECTOR ( 'NONE', #172, 1000.000000000000000 ) ;
#281 = ORIENTED_EDGE ( 'NONE', *, *, #35, .T. ) ;
#282 = ORIENTED_EDGE ( 'NONE', *, *, #21, .F. ) ;
#283 = ORIENTED_EDGE ( 'NONE', *, *, #58, .F. ) ;
#284 = ORIENTED_EDGE ( 'NONE', *, *, #31, .T. ) ;
#285 = ORIENTED_EDGE ( 'NONE', *, *, #42, .T. ) ;
#286 = ORIENTED_EDGE ( 'NONE', *, *, #13, .T. ) ;
#287 = ORIENTED_EDGE ( 'NONE', *, *, #26, .F. ) ;
#288 = ORIENTED_EDGE ( 'NONE', *, *, #28, .T. ) ;
#289 = ORIENTED_EDGE ( 'NONE', *, *, #30, .T. ) ;
#290 = ORIENTED_EDGE ( 'NONE', *, *, #14, .T. ) ;
#291 = ORIENTED_EDGE ( 'NONE', *, *, #23, .T. ) ;
#292 = ORIENTED_EDGE ( 'NONE', *, *, #31, .F. ) ;
#293 = ORIENTED_EDGE ( 'NONE', *, *, #29, .T. ) ;
#294 = ORIENTED_EDGE ( 'NONE', *, *, #14, .F. ) ;
#295 = ORIENTED_EDGE ( 'NONE', *, *, #33, .F. ) ;
#296 = ORIENTED_EDGE ( 'NONE', *, *, #30, .F. ) ;
#297 = ORIENTED_EDGE ( 'NONE', *, *, #20, .T. ) ;
#298 = ORIENTED_EDGE ( 'NONE', *, *, #7, .F. ) ;
#299 = EDGE_LOOP ( 'NONE', ( #295, #292 ) ) ;
#300 = EDGE_LOOP ( 'NONE', ( #291, #288 ) ) ;
#301 = EDGE_LOOP ( 'NONE', ( #313, #331, #314, #341 ) ) ;
#302 = VERTEX_POINT ( 'NONE', #104 ) ;
#303 = VERTEX_POINT ( 'NONE', #103 ) ;
#304 = VERTEX_POINT ( 'NONE', #102 ) ;
#305 = VERTEX_POINT ( 'NONE', #110 ) ;
#306 = VERTEX_POINT ( 'NONE', #101 ) ;
#307 = EDGE_LOOP ( 'NONE', ( #328, #327, #326, #329 ) ) ;
#308 = EDGE_LOOP ( 'NONE', ( #268, #270, #269, #342 ) ) ;
#309 = VERTEX_POINT ( 'NONE', #107 ) ;
#310 = VERTEX_POINT ( 'NONE', #100 ) ;
#311 = VERTEX_POINT ( 'NONE', #111 ) ;
#312 = CIRCLE ( 'NONE', #34, 5.500000000000000000 ) ;
#313 = ORIENTED_EDGE ( 'NONE', *, *, #13, .F. ) ;
#314 = ORIENTED_EDGE ( 'NONE', *, *, #29, .F. ) ;
#315 = EDGE_LOOP ( 'NONE', ( #298, #296, #297, #294 ) ) ;
#316 = EDGE_LOOP ( 'NONE', ( #283, #274, #281, #272 ) ) ;
#317 = VERTEX_POINT ( 'NONE', #94 ) ;
#318 = EDGE_LOOP ( 'NONE', ( #273, #320 ) ) ;
#319 = CLOSED_SHELL ( 'NONE', ( #202, #204, #205, #203, #206, #208, #212, #211, #207, #210, #209 ) ) ;
#320 = ORIENTED_EDGE ( 'NONE', *, *, #21, .T. ) ;
#321 = ORIENTED_EDGE ( 'NONE', *, *, #32, .F. ) ;
#322 = EDGE_LOOP ( 'NONE', ( #289, #286 ) ) ;
#323 = VERTEX_POINT ( 'NONE', #99 ) ;
#324 = VERTEX_POINT ( 'NONE', #88 ) ;
#325 = ORIENTED_EDGE ( 'NONE', *, *, #37, .T. ) ;
#326 = ORIENTED_EDGE ( 'NONE', *, *, #18, .F. ) ;
#327 = ORIENTED_EDGE ( 'NONE', *, *, #26, .T. ) ;
#328 = ORIENTED_EDGE ( 'NONE', *, *, #33, .T. ) ;
#329 = ORIENTED_EDGE ( 'NONE', *, *, #42, .F. ) ;
#330 = ORIENTED_EDGE ( 'NONE', *, *, #16, .T. ) ;
#331 = ORIENTED_EDGE ( 'NONE', *, *, #7, .T. ) ;
#332 = EDGE_LOOP ( 'NONE', ( #293, #290 ) ) ;
#333 = ORIENTED_EDGE ( 'NONE', *, *, #32, .T. ) ;
#334 = ORIENTED_EDGE ( 'NONE', *, *, #35, .F. ) ;
#335 = EDGE_LOOP ( 'NONE', ( #213, #343, #330, #334 ) ) ;
#336 = ORIENTED_EDGE ( 'NONE', *, *, #22, .F. ) ;
#337 = EDGE_LOOP ( 'NONE', ( #336, #321, #271, #340 ) ) ;
#338 = VERTEX_POINT ( 'NONE', #87 ) ;
#339 = EDGE_LOOP ( 'NONE', ( #333, #325 ) ) ;
#340 = ORIENTED_EDGE ( 'NONE', *, *, #19, .F. ) ;
#341 = ORIENTED_EDGE ( 'NONE', *, *, #20, .F. ) ;
#342 = ORIENTED_EDGE ( 'NONE', *, *, #24, .F. ) ;
#343 = ORIENTED_EDGE ( 'NONE', *, *, #58, .T. ) ;
#344 = EDGE_LOOP ( 'NONE', ( #287, #284, #285, #282 ) ) ;
ENDSEC;
END-ISO-10303-21;
