ISO-10303-21;
HEADER;
FILE_DESCRIPTION (( 'STEP AP214' ),
    '1' );
FILE_NAME ('1077000010F00A.STEP',
    '2013-02-25T17:29:09',
    ( '' ),
    ( '' ),
    'SwSTEP 2.0',
    'SolidWorks 2012',
    '' );
FILE_SCHEMA (( 'AUTOMOTIVE_DESIGN' ));
ENDSEC;

DATA;
#1 = ADVANCED_FACE ( 'NONE', ( #271 ), #267, .T. ) ;
#2 = ADVANCED_FACE ( 'NONE', ( #270 ), #265, .F. ) ;
#3 = ADVANCED_FACE ( 'NONE', ( #268 ), #263, .T. ) ;
#4 = ADVANCED_FACE ( 'NONE', ( #266 ), #261, .T. ) ;
#5 = ADVANCED_FACE ( 'NONE', ( #264 ), #259, .T. ) ;
#6 = ADVANCED_FACE ( 'NONE', ( #262 ), #257, .F. ) ;
#7 = ADVANCED_FACE ( 'NONE', ( #260, #256 ), #155, .T. ) ;
#8 = ADVANCED_FACE ( 'NONE', ( #334 ), #251, .T. ) ;
#9 = ADVANCED_FACE ( 'NONE', ( #269 ), #249, .T. ) ;
#10 = ADVANCED_FACE ( 'NONE', ( #252, #253 ), #115, .T. ) ;
#11 = ADVANCED_FACE ( 'NONE', ( #255, #248 ), #119, .T. ) ;
#12 = EDGE_CURVE ( 'NONE', #286, #291, #250, .T. ) ;
#13 = EDGE_CURVE ( 'NONE', #288, #294, #254, .T. ) ;
#14 = EDGE_CURVE ( 'NONE', #290, #338, #247, .T. ) ;
#15 = AXIS2_PLACEMENT_3D ( 'NONE', #131, #152, #125 ) ;
#16 = EDGE_CURVE ( 'NONE', #287, #297, #258, .T. ) ;
#17 = AXIS2_PLACEMENT_3D ( 'NONE', #145, #180, #117 ) ;
#18 = AXIS2_PLACEMENT_3D ( 'NONE', #114, #109, #146 ) ;
#19 = AXIS2_PLACEMENT_3D ( 'NONE', #141, #140, #138 ) ;
#20 = STYLED_ITEM ( 'NONE', ( #213 ), #78 ) ;
#21 = AXIS2_PLACEMENT_3D ( 'NONE', #148, #173, #149 ) ;
#22 = AXIS2_PLACEMENT_3D ( 'NONE', #211, #133, #132 ) ;
#23 = STYLED_ITEM ( 'NONE', ( #217 ), #75 ) ;
#24 = AXIS2_PLACEMENT_3D ( 'NONE', #102, #107, #101 ) ;
#25 = AXIS2_PLACEMENT_3D ( 'NONE', #95, #94, #93 ) ;
#26 = AXIS2_PLACEMENT_3D ( 'NONE', #99, #98, #97 ) ;
#27 = AXIS2_PLACEMENT_3D ( 'NONE', #90, #92, #83 ) ;
#28 = AXIS2_PLACEMENT_3D ( 'NONE', #118, #116, #110 ) ;
#29 = PRODUCT_RELATED_PRODUCT_CATEGORY ( 'part', '', ( #72 ) ) ;
#30 = AXIS2_PLACEMENT_3D ( 'NONE', #88, #91, #89 ) ;
#31 = MECHANICAL_DESIGN_GEOMETRIC_PRESENTATION_REPRESENTATION (  '', ( #23 ), #59 ) ;
#32 = AXIS2_PLACEMENT_3D ( 'NONE', #204, #186, #185 ) ;
#33 = EDGE_CURVE ( 'NONE', #290, #293, #245, .T. ) ;
#34 = EDGE_CURVE ( 'NONE', #298, #338, #243, .T. ) ;
#35 = EDGE_CURVE ( 'NONE', #293, #290, #242, .T. ) ;
#36 =( GEOMETRIC_REPRESENTATION_CONTEXT ( 3 ) GLOBAL_UNCERTAINTY_ASSIGNED_CONTEXT ( ( #79 ) ) GLOBAL_UNIT_ASSIGNED_CONTEXT ( ( #189, #188, #187 ) ) REPRESENTATION_CONTEXT ( 'NONE', 'WORKASPACE' ) );
#37 = AXIS2_PLACEMENT_3D ( 'NONE', #123, #121, #87 ) ;
#38 = AXIS2_PLACEMENT_3D ( 'NONE', #150, #112, #147 ) ;
#39 = EDGE_CURVE ( 'NONE', #289, #288, #240, .T. ) ;
#40 = AXIS2_PLACEMENT_3D ( 'NONE', #158, #159, #160 ) ;
#41 = EDGE_CURVE ( 'NONE', #292, #286, #241, .T. ) ;
#42 = EDGE_CURVE ( 'NONE', #293, #298, #239, .T. ) ;
#43 = EDGE_CURVE ( 'NONE', #288, #289, #235, .T. ) ;
#44 = EDGE_CURVE ( 'NONE', #297, #338, #233, .T. ) ;
#45 = EDGE_CURVE ( 'NONE', #296, #291, #238, .T. ) ;
#46 = EDGE_CURVE ( 'NONE', #295, #294, #232, .T. ) ;
#47 = AXIS2_PLACEMENT_3D ( 'NONE', #166, #167, #170 ) ;
#48 = AXIS2_PLACEMENT_3D ( 'NONE', #162, #163, #164 ) ;
#49 = AXIS2_PLACEMENT_3D ( 'NONE', #196, #205, #191 ) ;
#50 = AXIS2_PLACEMENT_3D ( 'NONE', #137, #172, #181 ) ;
#51 = AXIS2_PLACEMENT_3D ( 'NONE', #144, #143, #142 ) ;
#52 = AXIS2_PLACEMENT_3D ( 'NONE', #174, #171, #194 ) ;
#53 = EDGE_CURVE ( 'NONE', #297, #287, #230, .T. ) ;
#54 = EDGE_CURVE ( 'NONE', #338, #298, #227, .T. ) ;
#55 = MECHANICAL_DESIGN_GEOMETRIC_PRESENTATION_REPRESENTATION (  '', ( #20 ), #36 ) ;
#56 = PRESENTATION_LAYER_ASSIGNMENT (  '', '', ( #20 ) ) ;
#57 = AXIS2_PLACEMENT_3D ( 'NONE', #178, #177, #175 ) ;
#58 = EDGE_CURVE ( 'NONE', #291, #286, #226, .T. ) ;
#59 =( GEOMETRIC_REPRESENTATION_CONTEXT ( 3 ) GLOBAL_UNCERTAINTY_ASSIGNED_CONTEXT ( ( #77 ) ) GLOBAL_UNIT_ASSIGNED_CONTEXT ( ( #104, #156, #103 ) ) REPRESENTATION_CONTEXT ( 'NONE', 'WORKASPACE' ) );
#60 = AXIS2_PLACEMENT_3D ( 'NONE', #157, #176, #122 ) ;
#61 = PRODUCT_DEFINITION ( 'NON CONOSCIUTO', '', #68, #73 ) ;
#62 = EDGE_CURVE ( 'NONE', #292, #296, #225, .T. ) ;
#63 =( GEOMETRIC_REPRESENTATION_CONTEXT ( 3 ) GLOBAL_UNCERTAINTY_ASSIGNED_CONTEXT ( ( #76 ) ) GLOBAL_UNIT_ASSIGNED_CONTEXT ( ( #201, #200, #199 ) ) REPRESENTATION_CONTEXT ( 'NONE', 'WORKASPACE' ) );
#64 = EDGE_CURVE ( 'NONE', #294, #295, #224, .T. ) ;
#65 = AXIS2_PLACEMENT_3D ( 'NONE', #127, #126, #124 ) ;
#66 = PRESENTATION_LAYER_ASSIGNMENT (  '', '', ( #23 ) ) ;
#67 = EDGE_CURVE ( 'NONE', #296, #292, #223, .T. ) ;
#68 = PRODUCT_DEFINITION_FORMATION_WITH_SPECIFIED_SOURCE ( 'TUTTO', '', #72, .NOT_KNOWN. ) ;
#69 = EDGE_CURVE ( 'NONE', #287, #298, #222, .T. ) ;
#70 = AXIS2_PLACEMENT_3D ( 'NONE', #153, #151, #203 ) ;
#71 = EDGE_CURVE ( 'NONE', #289, #295, #228, .T. ) ;
#72 = PRODUCT ( '1077000010F00A', '1077000010F00A', '', ( #184 ) ) ;
#73 = PRODUCT_DEFINITION_CONTEXT ( 'detailed design', #183, 'design' ) ;
#74 = PRODUCT_DEFINITION_SHAPE ( 'NONE', 'NONE',  #61 ) ;
#75 = MANIFOLD_SOLID_BREP ( 'Importato1', #325 ) ;
#76 = UNCERTAINTY_MEASURE_WITH_UNIT (LENGTH_MEASURE( 1.000000000000000100E-005 ), #201, 'distance_accuracy_value', 'NONE');
#77 = UNCERTAINTY_MEASURE_WITH_UNIT (LENGTH_MEASURE( 1.000000000000000100E-005 ), #104, 'distance_accuracy_value', 'NONE');
#78 = ADVANCED_BREP_SHAPE_REPRESENTATION ( '1077000010F00A', ( #75, #32 ), #63 ) ;
#79 = UNCERTAINTY_MEASURE_WITH_UNIT (LENGTH_MEASURE( 1.000000000000000100E-005 ), #189, 'distance_accuracy_value', 'NONE');
#80 = CARTESIAN_POINT ( 'NONE',  ( 0.0000000000000000000, 0.0000000000000000000, -10.50000000000000000 ) ) ;
#81 = CARTESIAN_POINT ( 'NONE',  ( 0.0000000000000000000, 0.0000000000000000000, 8.250000000000000000 ) ) ;
#82 = CARTESIAN_POINT ( 'NONE',  ( 1.285879139104720800E-015, 1.000000000000000000, 10.50000000000000000 ) ) ;
#83 = DIRECTION ( 'NONE',  ( 0.0000000000000000000, 0.0000000000000000000, -1.000000000000000000 ) ) ;
#84 = CARTESIAN_POINT ( 'NONE',  ( 1.102182119232617900E-015, 1.000000000000000000, -9.000000000000001800 ) ) ;
#85 = CARTESIAN_POINT ( 'NONE',  ( 1.010333609296566500E-015, 25.00000000000000000, -8.250000000000000000 ) ) ;
#86 = DIRECTION ( 'NONE',  ( 0.0000000000000000000, -1.000000000000000000, 0.0000000000000000000 ) ) ;
#87 = DIRECTION ( 'NONE',  ( 0.0000000000000000000, 0.0000000000000000000, 1.000000000000000000 ) ) ;
#88 = CARTESIAN_POINT ( 'NONE',  ( 0.0000000000000000000, 1.000000000000000000, 0.0000000000000000000 ) ) ;
#89 = DIRECTION ( 'NONE',  ( 0.0000000000000000000, 0.0000000000000000000, 1.000000000000000000 ) ) ;
#90 = CARTESIAN_POINT ( 'NONE',  ( 0.0000000000000000000, 1.000000000000000000, 0.0000000000000000000 ) ) ;
#91 = DIRECTION ( 'NONE',  ( -0.0000000000000000000, 1.000000000000000000, 0.0000000000000000000 ) ) ;
#92 = DIRECTION ( 'NONE',  ( 0.0000000000000000000, -1.000000000000000000, 0.0000000000000000000 ) ) ;
#93 = DIRECTION ( 'NONE',  ( 0.0000000000000000000, 0.0000000000000000000, 1.000000000000000000 ) ) ;
#94 = DIRECTION ( 'NONE',  ( -0.0000000000000000000, 1.000000000000000000, 0.0000000000000000000 ) ) ;
#95 = CARTESIAN_POINT ( 'NONE',  ( 0.0000000000000000000, 1.000000000000000000, 0.0000000000000000000 ) ) ;
#96 = CARTESIAN_POINT ( 'NONE',  ( 0.0000000000000000000, 1.000000000000000000, 9.000000000000001800 ) ) ;
#97 = DIRECTION ( 'NONE',  ( 0.0000000000000000000, 0.0000000000000000000, -1.000000000000000000 ) ) ;
#98 = DIRECTION ( 'NONE',  ( 0.0000000000000000000, -1.000000000000000000, 0.0000000000000000000 ) ) ;
#99 = CARTESIAN_POINT ( 'NONE',  ( 0.0000000000000000000, 1.000000000000000000, 0.0000000000000000000 ) ) ;
#100 = SURFACE_SIDE_STYLE ('',( #218 ) ) ;
#101 = DIRECTION ( 'NONE',  ( 0.0000000000000000000, 0.0000000000000000000, 1.000000000000000000 ) ) ;
#102 = CARTESIAN_POINT ( 'NONE',  ( 0.0000000000000000000, 0.0000000000000000000, 0.0000000000000000000 ) ) ;
#103 =( NAMED_UNIT ( * ) SI_UNIT ( $, .STERADIAN. ) SOLID_ANGLE_UNIT ( ) );
#104 =( LENGTH_UNIT ( ) NAMED_UNIT ( * ) SI_UNIT ( .MILLI., .METRE. ) );
#105 = SURFACE_STYLE_USAGE ( .BOTH. , #100 ) ;
#106 = FILL_AREA_STYLE ('',( #113 ) ) ;
#107 = DIRECTION ( 'NONE',  ( -0.0000000000000000000, 1.000000000000000000, 0.0000000000000000000 ) ) ;
#108 = CARTESIAN_POINT ( 'NONE',  ( 0.0000000000000000000, 25.00000000000002100, -8.823673018999999200 ) ) ;
#109 = DIRECTION ( 'NONE',  ( 0.0000000000000000000, 1.000000000000000000, -0.0000000000000000000 ) ) ;
#110 = DIRECTION ( 'NONE',  ( -1.000000000000000000, 0.0000000000000000000, 0.0000000000000000000 ) ) ;
#111 = DIRECTION ( 'NONE',  ( 0.0000000000000000000, -1.000000000000000000, 0.0000000000000000000 ) ) ;
#112 = DIRECTION ( 'NONE',  ( 0.0000000000000000000, -1.000000000000000000, 0.0000000000000000000 ) ) ;
#113 = FILL_AREA_STYLE_COLOUR ( '', #221 ) ;
#114 = CARTESIAN_POINT ( 'NONE',  ( 8.929557095000001600, 25.00000000000000000, -8.929557095000001600 ) ) ;
#115 = PLANE ( 'NONE',  #17 ) ;
#116 = DIRECTION ( 'NONE',  ( 0.0000000000000000000, 1.000000000000000000, -0.0000000000000000000 ) ) ;
#117 = DIRECTION ( 'NONE',  ( 1.000000000000000000, 0.0000000000000000000, 0.0000000000000000000 ) ) ;
#118 = CARTESIAN_POINT ( 'NONE',  ( 10.62599999999999900, 1.000000000000000000, -10.62599999999999900 ) ) ;
#119 = PLANE ( 'NONE',  #28 ) ;
#120 = CARTESIAN_POINT ( 'NONE',  ( 0.0000000000000000000, 1.000000000000000000, -10.50000000000000000 ) ) ;
#121 = DIRECTION ( 'NONE',  ( -0.0000000000000000000, 1.000000000000000000, 0.0000000000000000000 ) ) ;
#122 = DIRECTION ( 'NONE',  ( 0.0000000000000000000, 0.0000000000000000000, -1.000000000000000000 ) ) ;
#123 = CARTESIAN_POINT ( 'NONE',  ( 0.0000000000000000000, 0.0000000000000000000, 0.0000000000000000000 ) ) ;
#124 = DIRECTION ( 'NONE',  ( 0.0000000000000000000, 0.0000000000000000000, 1.000000000000000000 ) ) ;
#125 = DIRECTION ( 'NONE',  ( 0.0000000000000000000, 0.0000000000000000000, 1.000000000000000000 ) ) ;
#126 = DIRECTION ( 'NONE',  ( 0.0000000000000000000, -1.000000000000000000, -0.0000000000000000000 ) ) ;
#127 = CARTESIAN_POINT ( 'NONE',  ( 0.0000000000000000000, 0.0000000000000000000, 0.0000000000000000000 ) ) ;
#128 = CARTESIAN_POINT ( 'NONE',  ( 1.285879139104720800E-015, 1.000000000000000000, 10.50000000000000000 ) ) ;
#129 = CARTESIAN_POINT ( 'NONE',  ( 0.0000000000000000000, 1.000000000000000000, 9.000000000000001800 ) ) ;
#130 = CARTESIAN_POINT ( 'NONE',  ( 0.0000000000000000000, 25.00000000000000000, 8.250000000000000000 ) ) ;
#131 = CARTESIAN_POINT ( 'NONE',  ( 0.0000000000000000000, 25.00000000000000000, 0.0000000000000000000 ) ) ;
#132 = DIRECTION ( 'NONE',  ( 0.0000000000000000000, 0.0000000000000000000, -1.000000000000000000 ) ) ;
#133 = DIRECTION ( 'NONE',  ( 0.0000000000000000000, -1.000000000000000000, 0.0000000000000000000 ) ) ;
#134 = CARTESIAN_POINT ( 'NONE',  ( 0.0000000000000000000, 1.000000000000000000, -10.50000000000000000 ) ) ;
#135 = DIRECTION ( 'NONE',  ( 0.0000000000000000000, -0.9848077529631101800, -0.1736481779453780700 ) ) ;
#136 = CARTESIAN_POINT ( 'NONE',  ( 0.0000000000000000000, 25.00000000000000000, -8.823673019000001000 ) ) ;
#137 = CARTESIAN_POINT ( 'NONE',  ( 0.0000000000000000000, 1.000000000000000000, 0.0000000000000000000 ) ) ;
#138 = DIRECTION ( 'NONE',  ( 0.0000000000000000000, 0.0000000000000000000, 1.000000000000000000 ) ) ;
#139 = CARTESIAN_POINT ( 'NONE',  ( 1.080588291944121500E-015, 25.00000000000000000, 8.823673019000001000 ) ) ;
#140 = DIRECTION ( 'NONE',  ( 0.0000000000000000000, -1.000000000000000000, -0.0000000000000000000 ) ) ;
#141 = CARTESIAN_POINT ( 'NONE',  ( 0.0000000000000000000, 0.0000000000000000000, 0.0000000000000000000 ) ) ;
#142 = DIRECTION ( 'NONE',  ( 0.0000000000000000000, 0.0000000000000000000, 1.000000000000000000 ) ) ;
#143 = DIRECTION ( 'NONE',  ( 0.0000000000000000000, -1.000000000000000000, -0.0000000000000000000 ) ) ;
#144 = CARTESIAN_POINT ( 'NONE',  ( 0.0000000000000000000, 25.00000000000000000, 0.0000000000000000000 ) ) ;
#145 = CARTESIAN_POINT ( 'NONE',  ( -10.62599999999999900, 0.0000000000000000000, -10.62599999999999900 ) ) ;
#146 = DIRECTION ( 'NONE',  ( -1.000000000000000000, 0.0000000000000000000, 0.0000000000000000000 ) ) ;
#147 = DIRECTION ( 'NONE',  ( 0.0000000000000000000, 0.0000000000000000000, -1.000000000000000000 ) ) ;
#148 = CARTESIAN_POINT ( 'NONE',  ( 0.0000000000000000000, 25.00000000000000000, 0.0000000000000000000 ) ) ;
#149 = DIRECTION ( 'NONE',  ( 0.0000000000000000000, 0.0000000000000000000, -1.000000000000000000 ) ) ;
#150 = CARTESIAN_POINT ( 'NONE',  ( 0.0000000000000000000, 25.00000000000000000, 0.0000000000000000000 ) ) ;
#151 = DIRECTION ( 'NONE',  ( 0.0000000000000000000, -1.000000000000000000, 0.0000000000000000000 ) ) ;
#152 = DIRECTION ( 'NONE',  ( 0.0000000000000000000, -1.000000000000000000, -0.0000000000000000000 ) ) ;
#153 = CARTESIAN_POINT ( 'NONE',  ( 0.0000000000000000000, 24.00000000000002100, 0.0000000000000000000 ) ) ;
#154 = DIRECTION ( 'NONE',  ( -0.0000000000000000000, 1.000000000000000000, 0.0000000000000000000 ) ) ;
#155 = PLANE ( 'NONE',  #18 ) ;
#156 =( NAMED_UNIT ( * ) PLANE_ANGLE_UNIT ( ) SI_UNIT ( $, .RADIAN. ) );
#157 = CARTESIAN_POINT ( 'NONE',  ( 0.0000000000000000000, 25.00000000000002100, 0.0000000000000000000 ) ) ;
#158 = CARTESIAN_POINT ( 'NONE',  ( 0.0000000000000000000, 1.000000000000000000, 0.0000000000000000000 ) ) ;
#159 = DIRECTION ( 'NONE',  ( 0.0000000000000000000, -1.000000000000000000, -0.0000000000000000000 ) ) ;
#160 = DIRECTION ( 'NONE',  ( 0.0000000000000000000, 0.0000000000000000000, 1.000000000000000000 ) ) ;
#161 = DIRECTION ( 'NONE',  ( 2.126576852985772900E-017, -0.9848077529631101800, 0.1736481779453780700 ) ) ;
#162 = CARTESIAN_POINT ( 'NONE',  ( 0.0000000000000000000, 24.00000000000002100, 0.0000000000000000000 ) ) ;
#163 = DIRECTION ( 'NONE',  ( 0.0000000000000000000, -1.000000000000000000, 0.0000000000000000000 ) ) ;
#164 = DIRECTION ( 'NONE',  ( 0.0000000000000000000, -2.312964634635742300E-015, -1.000000000000000000 ) ) ;
#165 = DIRECTION ( 'NONE',  ( -0.0000000000000000000, 1.000000000000000000, 0.0000000000000000000 ) ) ;
#166 = CARTESIAN_POINT ( 'NONE',  ( 0.0000000000000000000, 1.000000000000000000, 0.0000000000000000000 ) ) ;
#167 = DIRECTION ( 'NONE',  ( 0.0000000000000000000, -1.000000000000000000, -0.0000000000000000000 ) ) ;
#168 = CARTESIAN_POINT ( 'NONE',  ( 0.0000000000000000000, 0.0000000000000000000, 8.250000000000000000 ) ) ;
#169 = CARTESIAN_POINT ( 'NONE',  ( 1.102182119232617900E-015, 1.000000000000000000, -9.000000000000001800 ) ) ;
#170 = DIRECTION ( 'NONE',  ( 0.0000000000000000000, 0.0000000000000000000, 1.000000000000000000 ) ) ;
#171 = DIRECTION ( 'NONE',  ( -0.0000000000000000000, 1.000000000000000000, -0.0000000000000000000 ) ) ;
#172 = DIRECTION ( 'NONE',  ( -0.0000000000000000000, 1.000000000000000000, -0.0000000000000000000 ) ) ;
#173 = DIRECTION ( 'NONE',  ( 0.0000000000000000000, -1.000000000000000000, 0.0000000000000000000 ) ) ;
#174 = CARTESIAN_POINT ( 'NONE',  ( 0.0000000000000000000, 25.00000000000002100, 0.0000000000000000000 ) ) ;
#175 = DIRECTION ( 'NONE',  ( 0.0000000000000000000, 0.0000000000000000000, -1.000000000000000000 ) ) ;
#176 = DIRECTION ( 'NONE',  ( -0.0000000000000000000, 1.000000000000000000, -0.0000000000000000000 ) ) ;
#177 = DIRECTION ( 'NONE',  ( 0.0000000000000000000, -1.000000000000000000, 0.0000000000000000000 ) ) ;
#178 = CARTESIAN_POINT ( 'NONE',  ( 0.0000000000000000000, 0.0000000000000000000, 0.0000000000000000000 ) ) ;
#179 = DIRECTION ( 'NONE',  ( -0.0000000000000000000, 1.000000000000000000, 0.0000000000000000000 ) ) ;
#180 = DIRECTION ( 'NONE',  ( 0.0000000000000000000, -1.000000000000000000, 0.0000000000000000000 ) ) ;
#181 = DIRECTION ( 'NONE',  ( 0.0000000000000000000, 0.0000000000000000000, -1.000000000000000000 ) ) ;
#182 = APPLICATION_PROTOCOL_DEFINITION ( 'draft international standard', 'automotive_design', 1998, #183 ) ;
#183 = APPLICATION_CONTEXT ( 'automotive_design' ) ;
#184 = PRODUCT_CONTEXT ( 'NONE', #195, 'mechanical' ) ;
#185 = DIRECTION ( 'NONE',  ( 1.000000000000000000, 0.0000000000000000000, 0.0000000000000000000 ) ) ;
#186 = DIRECTION ( 'NONE',  ( 0.0000000000000000000, 0.0000000000000000000, 1.000000000000000000 ) ) ;
#187 =( NAMED_UNIT ( * ) SI_UNIT ( $, .STERADIAN. ) SOLID_ANGLE_UNIT ( ) );
#188 =( NAMED_UNIT ( * ) PLANE_ANGLE_UNIT ( ) SI_UNIT ( $, .RADIAN. ) );
#189 =( LENGTH_UNIT ( ) NAMED_UNIT ( * ) SI_UNIT ( .MILLI., .METRE. ) );
#190 = SURFACE_STYLE_USAGE ( .BOTH. , #192 ) ;
#191 = DIRECTION ( 'NONE',  ( 0.0000000000000000000, 0.0000000000000000000, -1.000000000000000000 ) ) ;
#192 = SURFACE_SIDE_STYLE ('',( #236 ) ) ;
#193 = FILL_AREA_STYLE ('',( #206 ) ) ;
#194 = DIRECTION ( 'NONE',  ( 0.0000000000000000000, 0.0000000000000000000, -1.000000000000000000 ) ) ;
#195 = APPLICATION_CONTEXT ( 'automotive_design' ) ;
#196 = CARTESIAN_POINT ( 'NONE',  ( 0.0000000000000000000, 1.000000000000000000, 0.0000000000000000000 ) ) ;
#197 = APPLICATION_PROTOCOL_DEFINITION ( 'draft international standard', 'automotive_design', 1998, #195 ) ;
#198 = CARTESIAN_POINT ( 'NONE',  ( 1.010333609296566500E-015, 0.0000000000000000000, -8.250000000000000000 ) ) ;
#199 =( NAMED_UNIT ( * ) SI_UNIT ( $, .STERADIAN. ) SOLID_ANGLE_UNIT ( ) );
#200 =( NAMED_UNIT ( * ) PLANE_ANGLE_UNIT ( ) SI_UNIT ( $, .RADIAN. ) );
#201 =( LENGTH_UNIT ( ) NAMED_UNIT ( * ) SI_UNIT ( .MILLI., .METRE. ) );
#202 = CARTESIAN_POINT ( 'NONE',  ( 0.0000000000000000000, 24.00000000000002100, 9.000000000000001800 ) ) ;
#203 = DIRECTION ( 'NONE',  ( 0.0000000000000000000, -2.312964634635742300E-015, -1.000000000000000000 ) ) ;
#204 = CARTESIAN_POINT ( 'NONE',  ( 0.0000000000000000000, 0.0000000000000000000, 0.0000000000000000000 ) ) ;
#205 = DIRECTION ( 'NONE',  ( -0.0000000000000000000, 1.000000000000000000, -0.0000000000000000000 ) ) ;
#206 = FILL_AREA_STYLE_COLOUR ( '', #215 ) ;
#207 = CARTESIAN_POINT ( 'NONE',  ( 1.102182119232617900E-015, 24.00000000000002100, -9.000000000000001800 ) ) ;
#208 = DIRECTION ( 'NONE',  ( -0.0000000000000000000, 1.000000000000000000, 0.0000000000000000000 ) ) ;
#209 = CARTESIAN_POINT ( 'NONE',  ( 1.091385205588369600E-015, 25.00000000000002100, 8.823673018999999200 ) ) ;
#210 = CARTESIAN_POINT ( 'NONE',  ( 1.010333609296566500E-015, 0.0000000000000000000, -8.250000000000000000 ) ) ;
#211 = CARTESIAN_POINT ( 'NONE',  ( 0.0000000000000000000, 0.0000000000000000000, 0.0000000000000000000 ) ) ;
#212 = CARTESIAN_POINT ( 'NONE',  ( 1.285879139104720800E-015, 0.0000000000000000000, 10.50000000000000000 ) ) ;
#213 = PRESENTATION_STYLE_ASSIGNMENT (( #190 ) ) ;
#214 = ORIENTED_EDGE ( 'NONE', *, *, #14, .T. ) ;
#215 = COLOUR_RGB ( '',0.6470588235294118000, 0.5176470588235293500, 0.0000000000000000000 ) ;
#216 = SHAPE_DEFINITION_REPRESENTATION ( #74, #78 ) ;
#217 = PRESENTATION_STYLE_ASSIGNMENT (( #105 ) ) ;
#218 = SURFACE_STYLE_FILL_AREA ( #106 ) ;
#219 = VECTOR ( 'NONE', #111, 1000.000000000000000 ) ;
#220 = VECTOR ( 'NONE', #135, 1000.000000000000200 ) ;
#221 = COLOUR_RGB ( '',0.6470588235294118000, 0.5176470588235293500, 0.0000000000000000000 ) ;
#222 = LINE ( 'NONE', #136, #220 ) ;
#223 = CIRCLE ( 'NONE', #65, 8.250000000000000000 ) ;
#224 = CIRCLE ( 'NONE', #22, 10.50000000000000000 ) ;
#225 = CIRCLE ( 'NONE', #19, 8.250000000000000000 ) ;
#226 = CIRCLE ( 'NONE', #51, 8.250000000000000000 ) ;
#227 = CIRCLE ( 'NONE', #70, 9.000000000000001800 ) ;
#228 = LINE ( 'NONE', #128, #219 ) ;
#229 = VECTOR ( 'NONE', #179, 1000.000000000000000 ) ;
#230 = CIRCLE ( 'NONE', #52, 8.823673018999999200 ) ;
#231 = VECTOR ( 'NONE', #161, 1000.000000000000200 ) ;
#232 = CIRCLE ( 'NONE', #57, 10.50000000000000000 ) ;
#233 = LINE ( 'NONE', #139, #231 ) ;
#234 = VECTOR ( 'NONE', #208, 1000.000000000000000 ) ;
#235 = CIRCLE ( 'NONE', #49, 10.50000000000000000 ) ;
#236 = SURFACE_STYLE_FILL_AREA ( #193 ) ;
#237 = VECTOR ( 'NONE', #165, 1000.000000000000000 ) ;
#238 = LINE ( 'NONE', #198, #229 ) ;
#239 = LINE ( 'NONE', #169, #234 ) ;
#240 = CIRCLE ( 'NONE', #50, 10.50000000000000000 ) ;
#241 = LINE ( 'NONE', #168, #237 ) ;
#242 = CIRCLE ( 'NONE', #47, 9.000000000000001800 ) ;
#243 = CIRCLE ( 'NONE', #48, 9.000000000000001800 ) ;
#244 = VECTOR ( 'NONE', #154, 1000.000000000000000 ) ;
#245 = CIRCLE ( 'NONE', #40, 9.000000000000001800 ) ;
#246 = VECTOR ( 'NONE', #86, 1000.000000000000000 ) ;
#247 = LINE ( 'NONE', #129, #244 ) ;
#248 = FACE_OUTER_BOUND ( 'NONE', #273, .T. ) ;
#249 = CONICAL_SURFACE ( 'NONE', #21, 8.823673019000001000, 0.1745329254821761900 ) ;
#250 = CIRCLE ( 'NONE', #15, 8.250000000000000000 ) ;
#251 = CONICAL_SURFACE ( 'NONE', #38, 8.823673019000001000, 0.1745329254821761900 ) ;
#252 = FACE_BOUND ( 'NONE', #279, .T. ) ;
#253 = FACE_OUTER_BOUND ( 'NONE', #275, .T. ) ;
#254 = LINE ( 'NONE', #134, #246 ) ;
#255 = FACE_BOUND ( 'NONE', #277, .T. ) ;
#256 = FACE_OUTER_BOUND ( 'NONE', #284, .T. ) ;
#257 = CYLINDRICAL_SURFACE ( 'NONE', #24, 8.250000000000000000 ) ;
#258 = CIRCLE ( 'NONE', #60, 8.823673018999999200 ) ;
#259 = CYLINDRICAL_SURFACE ( 'NONE', #26, 10.50000000000000000 ) ;
#260 = FACE_BOUND ( 'NONE', #282, .T. ) ;
#261 = CYLINDRICAL_SURFACE ( 'NONE', #25, 9.000000000000001800 ) ;
#262 = FACE_OUTER_BOUND ( 'NONE', #285, .T. ) ;
#263 = CYLINDRICAL_SURFACE ( 'NONE', #27, 10.50000000000000000 ) ;
#264 = FACE_OUTER_BOUND ( 'NONE', #280, .T. ) ;
#265 = CYLINDRICAL_SURFACE ( 'NONE', #37, 8.250000000000000000 ) ;
#266 = FACE_OUTER_BOUND ( 'NONE', #283, .T. ) ;
#267 = CYLINDRICAL_SURFACE ( 'NONE', #30, 9.000000000000001800 ) ;
#268 = FACE_OUTER_BOUND ( 'NONE', #274, .T. ) ;
#269 = FACE_OUTER_BOUND ( 'NONE', #281, .T. ) ;
#270 = FACE_OUTER_BOUND ( 'NONE', #272, .T. ) ;
#271 = FACE_OUTER_BOUND ( 'NONE', #276, .T. ) ;
#272 = EDGE_LOOP ( 'NONE', ( #326, #310, #316, #304 ) ) ;
#273 = EDGE_LOOP ( 'NONE', ( #311, #322 ) ) ;
#274 = EDGE_LOOP ( 'NONE', ( #312, #336, #343, #308 ) ) ;
#275 = EDGE_LOOP ( 'NONE', ( #306, #299 ) ) ;
#276 = EDGE_LOOP ( 'NONE', ( #339, #329, #315, #314 ) ) ;
#277 = EDGE_LOOP ( 'NONE', ( #327, #307 ) ) ;
#278 = EDGE_LOOP ( 'NONE', ( #318, #344, #324, #301 ) ) ;
#279 = EDGE_LOOP ( 'NONE', ( #300, #305 ) ) ;
#280 = EDGE_LOOP ( 'NONE', ( #309, #337, #302, #303 ) ) ;
#281 = EDGE_LOOP ( 'NONE', ( #321, #328, #332, #323 ) ) ;
#282 = EDGE_LOOP ( 'NONE', ( #313, #341 ) ) ;
#283 = EDGE_LOOP ( 'NONE', ( #331, #330, #214, #333 ) ) ;
#284 = EDGE_LOOP ( 'NONE', ( #342, #335 ) ) ;
#285 = EDGE_LOOP ( 'NONE', ( #319, #317, #340, #320 ) ) ;
#286 = VERTEX_POINT ( 'NONE', #130 ) ;
#287 = VERTEX_POINT ( 'NONE', #108 ) ;
#288 = VERTEX_POINT ( 'NONE', #120 ) ;
#289 = VERTEX_POINT ( 'NONE', #82 ) ;
#290 = VERTEX_POINT ( 'NONE', #96 ) ;
#291 = VERTEX_POINT ( 'NONE', #85 ) ;
#292 = VERTEX_POINT ( 'NONE', #81 ) ;
#293 = VERTEX_POINT ( 'NONE', #84 ) ;
#294 = VERTEX_POINT ( 'NONE', #80 ) ;
#295 = VERTEX_POINT ( 'NONE', #212 ) ;
#296 = VERTEX_POINT ( 'NONE', #210 ) ;
#297 = VERTEX_POINT ( 'NONE', #209 ) ;
#298 = VERTEX_POINT ( 'NONE', #207 ) ;
#299 = ORIENTED_EDGE ( 'NONE', *, *, #46, .T. ) ;
#300 = ORIENTED_EDGE ( 'NONE', *, *, #62, .F. ) ;
#301 = ORIENTED_EDGE ( 'NONE', *, *, #69, .F. ) ;
#302 = ORIENTED_EDGE ( 'NONE', *, *, #13, .T. ) ;
#303 = ORIENTED_EDGE ( 'NONE', *, *, #46, .F. ) ;
#304 = ORIENTED_EDGE ( 'NONE', *, *, #41, .F. ) ;
#305 = ORIENTED_EDGE ( 'NONE', *, *, #67, .F. ) ;
#306 = ORIENTED_EDGE ( 'NONE', *, *, #64, .T. ) ;
#307 = ORIENTED_EDGE ( 'NONE', *, *, #35, .T. ) ;
#308 = ORIENTED_EDGE ( 'NONE', *, *, #13, .F. ) ;
#309 = ORIENTED_EDGE ( 'NONE', *, *, #71, .F. ) ;
#310 = ORIENTED_EDGE ( 'NONE', *, *, #45, .T. ) ;
#311 = ORIENTED_EDGE ( 'NONE', *, *, #43, .T. ) ;
#312 = ORIENTED_EDGE ( 'NONE', *, *, #39, .F. ) ;
#313 = ORIENTED_EDGE ( 'NONE', *, *, #12, .T. ) ;
#314 = ORIENTED_EDGE ( 'NONE', *, *, #14, .F. ) ;
#315 = ORIENTED_EDGE ( 'NONE', *, *, #34, .T. ) ;
#316 = ORIENTED_EDGE ( 'NONE', *, *, #12, .F. ) ;
#317 = ORIENTED_EDGE ( 'NONE', *, *, #67, .T. ) ;
#318 = ORIENTED_EDGE ( 'NONE', *, *, #53, .F. ) ;
#319 = ORIENTED_EDGE ( 'NONE', *, *, #45, .F. ) ;
#320 = ORIENTED_EDGE ( 'NONE', *, *, #58, .F. ) ;
#321 = ORIENTED_EDGE ( 'NONE', *, *, #44, .F. ) ;
#322 = ORIENTED_EDGE ( 'NONE', *, *, #39, .T. ) ;
#323 = ORIENTED_EDGE ( 'NONE', *, *, #54, .F. ) ;
#324 = ORIENTED_EDGE ( 'NONE', *, *, #34, .F. ) ;
#325 = CLOSED_SHELL ( 'NONE', ( #8, #1, #2, #3, #9, #7, #4, #6, #11, #10, #5 ) ) ;
#326 = ORIENTED_EDGE ( 'NONE', *, *, #62, .T. ) ;
#327 = ORIENTED_EDGE ( 'NONE', *, *, #33, .T. ) ;
#328 = ORIENTED_EDGE ( 'NONE', *, *, #16, .F. ) ;
#329 = ORIENTED_EDGE ( 'NONE', *, *, #42, .T. ) ;
#330 = ORIENTED_EDGE ( 'NONE', *, *, #33, .F. ) ;
#331 = ORIENTED_EDGE ( 'NONE', *, *, #42, .F. ) ;
#332 = ORIENTED_EDGE ( 'NONE', *, *, #69, .T. ) ;
#333 = ORIENTED_EDGE ( 'NONE', *, *, #54, .T. ) ;
#334 = FACE_OUTER_BOUND ( 'NONE', #278, .T. ) ;
#335 = ORIENTED_EDGE ( 'NONE', *, *, #53, .T. ) ;
#336 = ORIENTED_EDGE ( 'NONE', *, *, #71, .T. ) ;
#337 = ORIENTED_EDGE ( 'NONE', *, *, #43, .F. ) ;
#338 = VERTEX_POINT ( 'NONE', #202 ) ;
#339 = ORIENTED_EDGE ( 'NONE', *, *, #35, .F. ) ;
#340 = ORIENTED_EDGE ( 'NONE', *, *, #41, .T. ) ;
#341 = ORIENTED_EDGE ( 'NONE', *, *, #58, .T. ) ;
#342 = ORIENTED_EDGE ( 'NONE', *, *, #16, .T. ) ;
#343 = ORIENTED_EDGE ( 'NONE', *, *, #64, .F. ) ;
#344 = ORIENTED_EDGE ( 'NONE', *, *, #44, .T. ) ;
ENDSEC;
END-ISO-10303-21;
