ISO-10303-21;
HEADER;
FILE_DESCRIPTION (( 'STEP AP214' ),
    '1' );
FILE_NAME ('107400002X100A.STEP',
    '2013-02-25T17:22:16',
    ( '' ),
    ( '' ),
    'SwSTEP 2.0',
    'SolidWorks 2012',
    '' );
FILE_SCHEMA (( 'AUTOMOTIVE_DESIGN' ));
ENDSEC;

DATA;
#1 = ADVANCED_FACE ( 'NONE', ( #97 ), #91, .F. ) ;
#2 = ADVANCED_FACE ( 'NONE', ( #96 ), #89, .F. ) ;
#3 = ADVANCED_FACE ( 'NONE', ( #93 ), #87, .T. ) ;
#4 = ADVANCED_FACE ( 'NONE', ( #90 ), #83, .T. ) ;
#5 = ADVANCED_FACE ( 'NONE', ( #88 ), #94, .T. ) ;
#6 = ADVANCED_FACE ( 'NONE', ( #84 ), #79, .T. ) ;
#7 = ADVANCED_FACE ( 'NONE', ( #86 ), #77, .T. ) ;
#8 = ADVANCED_FACE ( 'NONE', ( #80, #81 ), #212, .T. ) ;
#9 = ADVANCED_FACE ( 'NONE', ( #30, #76 ), #210, .T. ) ;
#10 = ADVANCED_FACE ( 'NONE', ( #82 ), #71, .T. ) ;
#11 = CLOSED_SHELL ( 'NONE', ( #1, #6, #4, #5, #2, #9, #8, #10, #7, #3 ) ) ;
#12 = ORIENTED_EDGE ( 'NONE', *, *, #165, .F. ) ;
#13 = ORIENTED_EDGE ( 'NONE', *, *, #149, .T. ) ;
#14 = ORIENTED_EDGE ( 'NONE', *, *, #169, .F. ) ;
#15 = ORIENTED_EDGE ( 'NONE', *, *, #162, .T. ) ;
#16 = ORIENTED_EDGE ( 'NONE', *, *, #161, .T. ) ;
#17 = ORIENTED_EDGE ( 'NONE', *, *, #168, .T. ) ;
#18 = ORIENTED_EDGE ( 'NONE', *, *, #157, .T. ) ;
#19 = ORIENTED_EDGE ( 'NONE', *, *, #158, .F. ) ;
#20 = ORIENTED_EDGE ( 'NONE', *, *, #169, .T. ) ;
#21 = SHAPE_DEFINITION_REPRESENTATION ( #308, #314 ) ;
#22 = ORIENTED_EDGE ( 'NONE', *, *, #157, .F. ) ;
#23 = ORIENTED_EDGE ( 'NONE', *, *, #155, .F. ) ;
#24 = ORIENTED_EDGE ( 'NONE', *, *, #153, .T. ) ;
#25 = ORIENTED_EDGE ( 'NONE', *, *, #150, .F. ) ;
#26 = PRESENTATION_STYLE_ASSIGNMENT (( #298 ) ) ;
#27 = SURFACE_STYLE_FILL_AREA ( #300 ) ;
#28 = COLOUR_RGB ( '',0.9882352941176471000, 0.8705882352941176600, 0.5490196078431373000 ) ;
#29 = ORIENTED_EDGE ( 'NONE', *, *, #152, .T. ) ;
#30 = FACE_BOUND ( 'NONE', #100, .T. ) ;
#31 = ORIENTED_EDGE ( 'NONE', *, *, #164, .F. ) ;
#32 = ORIENTED_EDGE ( 'NONE', *, *, #151, .F. ) ;
#33 = ORIENTED_EDGE ( 'NONE', *, *, #156, .T. ) ;
#34 = ORIENTED_EDGE ( 'NONE', *, *, #155, .T. ) ;
#35 = VERTEX_POINT ( 'NONE', #259 ) ;
#36 = ORIENTED_EDGE ( 'NONE', *, *, #160, .T. ) ;
#37 = ORIENTED_EDGE ( 'NONE', *, *, #153, .F. ) ;
#38 = ORIENTED_EDGE ( 'NONE', *, *, #161, .F. ) ;
#39 = ORIENTED_EDGE ( 'NONE', *, *, #168, .F. ) ;
#40 = ORIENTED_EDGE ( 'NONE', *, *, #173, .F. ) ;
#41 = ORIENTED_EDGE ( 'NONE', *, *, #152, .F. ) ;
#42 = ORIENTED_EDGE ( 'NONE', *, *, #151, .T. ) ;
#43 = ORIENTED_EDGE ( 'NONE', *, *, #154, .F. ) ;
#44 = ORIENTED_EDGE ( 'NONE', *, *, #182, .F. ) ;
#45 = ORIENTED_EDGE ( 'NONE', *, *, #150, .T. ) ;
#46 = PRESENTATION_STYLE_ASSIGNMENT (( #193 ) ) ;
#47 = SURFACE_STYLE_FILL_AREA ( #199 ) ;
#48 = CIRCLE ( 'NONE', #179, 2.000000000000000000 ) ;
#49 = VECTOR ( 'NONE', #272, 1000.000000000000000 ) ;
#50 = CIRCLE ( 'NONE', #183, 2.150000000000016300 ) ;
#51 = COLOUR_RGB ( '',0.9882352941176471000, 0.8705882352941176600, 0.5490196078431373000 ) ;
#52 = VECTOR ( 'NONE', #283, 1000.000000000000000 ) ;
#53 = CIRCLE ( 'NONE', #144, 2.000000000000000000 ) ;
#54 = LINE ( 'NONE', #284, #52 ) ;
#55 = VECTOR ( 'NONE', #287, 1000.000000000000000 ) ;
#56 = CIRCLE ( 'NONE', #142, 3.000000000000000000 ) ;
#57 = LINE ( 'NONE', #216, #49 ) ;
#58 = VECTOR ( 'NONE', #188, 1000.000000000000100 ) ;
#59 = LINE ( 'NONE', #281, #55 ) ;
#60 = LINE ( 'NONE', #302, #58 ) ;
#61 = VECTOR ( 'NONE', #189, 1000.000000000000100 ) ;
#62 = CIRCLE ( 'NONE', #143, 3.000000000000000000 ) ;
#63 = LINE ( 'NONE', #207, #61 ) ;
#64 = VECTOR ( 'NONE', #231, 1000.000000000000000 ) ;
#65 = CIRCLE ( 'NONE', #139, 2.000000000000000000 ) ;
#66 = LINE ( 'NONE', #226, #64 ) ;
#67 = LINE ( 'NONE', #220, #78 ) ;
#68 = CIRCLE ( 'NONE', #135, 2.000000000000000000 ) ;
#69 = LINE ( 'NONE', #288, #74 ) ;
#70 = CIRCLE ( 'NONE', #178, 3.000000000000000000 ) ;
#71 = CONICAL_SURFACE ( 'NONE', #184, 2.149999999999999900, 0.3141592653139259100 ) ;
#72 = CIRCLE ( 'NONE', #141, 2.149999999999999900 ) ;
#73 = CIRCLE ( 'NONE', #140, 3.000000000000000000 ) ;
#74 = VECTOR ( 'NONE', #225, 1000.000000000000000 ) ;
#75 = CIRCLE ( 'NONE', #181, 2.150000000000016300 ) ;
#76 = FACE_OUTER_BOUND ( 'NONE', #107, .T. ) ;
#77 = CONICAL_SURFACE ( 'NONE', #170, 2.149999999999999900, 0.3141592653139259600 ) ;
#78 = VECTOR ( 'NONE', #218, 1000.000000000000000 ) ;
#79 = CONICAL_SURFACE ( 'NONE', #177, 2.149999999999999900, 0.3141592653139259100 ) ;
#80 = FACE_BOUND ( 'NONE', #109, .T. ) ;
#81 = FACE_OUTER_BOUND ( 'NONE', #104, .T. ) ;
#82 = FACE_OUTER_BOUND ( 'NONE', #105, .T. ) ;
#83 = CONICAL_SURFACE ( 'NONE', #171, 2.149999999999999900, 0.3141592653139259600 ) ;
#84 = FACE_OUTER_BOUND ( 'NONE', #101, .T. ) ;
#85 = CIRCLE ( 'NONE', #138, 2.149999999999999900 ) ;
#86 = FACE_OUTER_BOUND ( 'NONE', #108, .T. ) ;
#87 = CYLINDRICAL_SURFACE ( 'NONE', #174, 3.000000000000000000 ) ;
#88 = FACE_OUTER_BOUND ( 'NONE', #102, .T. ) ;
#89 = CYLINDRICAL_SURFACE ( 'NONE', #175, 2.000000000000000000 ) ;
#90 = FACE_OUTER_BOUND ( 'NONE', #99, .T. ) ;
#91 = CYLINDRICAL_SURFACE ( 'NONE', #172, 2.000000000000000000 ) ;
#92 = ORIENTED_EDGE ( 'NONE', *, *, #158, .T. ) ;
#93 = FACE_OUTER_BOUND ( 'NONE', #103, .T. ) ;
#94 = CYLINDRICAL_SURFACE ( 'NONE', #176, 3.000000000000000000 ) ;
#95 = ORIENTED_EDGE ( 'NONE', *, *, #159, .T. ) ;
#96 = FACE_OUTER_BOUND ( 'NONE', #106, .T. ) ;
#97 = FACE_OUTER_BOUND ( 'NONE', #98, .T. ) ;
#98 = EDGE_LOOP ( 'NONE', ( #127, #20, #17, #12 ) ) ;
#99 = EDGE_LOOP ( 'NONE', ( #43, #36, #23, #19 ) ) ;
#100 = EDGE_LOOP ( 'NONE', ( #130, #39 ) ) ;
#101 = EDGE_LOOP ( 'NONE', ( #25, #42, #37, #41 ) ) ;
#102 = EDGE_LOOP ( 'NONE', ( #24, #33, #34, #126 ) ) ;
#103 = EDGE_LOOP ( 'NONE', ( #121, #16, #15, #125 ) ) ;
#104 = EDGE_LOOP ( 'NONE', ( #95, #124 ) ) ;
#105 = EDGE_LOOP ( 'NONE', ( #32, #40, #29, #38 ) ) ;
#106 = EDGE_LOOP ( 'NONE', ( #14, #18, #129, #13 ) ) ;
#107 = EDGE_LOOP ( 'NONE', ( #128, #45 ) ) ;
#108 = EDGE_LOOP ( 'NONE', ( #123, #122, #92, #31 ) ) ;
#109 = EDGE_LOOP ( 'NONE', ( #44, #22 ) ) ;
#110 = VERTEX_POINT ( 'NONE', #235 ) ;
#111 = VERTEX_POINT ( 'NONE', #265 ) ;
#112 = VERTEX_POINT ( 'NONE', #238 ) ;
#113 = VERTEX_POINT ( 'NONE', #239 ) ;
#114 = VERTEX_POINT ( 'NONE', #280 ) ;
#115 = VERTEX_POINT ( 'NONE', #263 ) ;
#116 = VERTEX_POINT ( 'NONE', #273 ) ;
#117 = VERTEX_POINT ( 'NONE', #264 ) ;
#118 = VERTEX_POINT ( 'NONE', #208 ) ;
#119 = VERTEX_POINT ( 'NONE', #275 ) ;
#120 = VERTEX_POINT ( 'NONE', #274 ) ;
#121 = ORIENTED_EDGE ( 'NONE', *, *, #156, .F. ) ;
#122 = ORIENTED_EDGE ( 'NONE', *, *, #159, .F. ) ;
#123 = ORIENTED_EDGE ( 'NONE', *, *, #160, .F. ) ;
#124 = ORIENTED_EDGE ( 'NONE', *, *, #154, .T. ) ;
#125 = ORIENTED_EDGE ( 'NONE', *, *, #164, .T. ) ;
#126 = ORIENTED_EDGE ( 'NONE', *, *, #162, .F. ) ;
#127 = ORIENTED_EDGE ( 'NONE', *, *, #182, .T. ) ;
#128 = ORIENTED_EDGE ( 'NONE', *, *, #173, .T. ) ;
#129 = ORIENTED_EDGE ( 'NONE', *, *, #165, .T. ) ;
#130 = ORIENTED_EDGE ( 'NONE', *, *, #149, .F. ) ;
#131 =( GEOMETRIC_REPRESENTATION_CONTEXT ( 3 ) GLOBAL_UNCERTAINTY_ASSIGNED_CONTEXT ( ( #312 ) ) GLOBAL_UNIT_ASSIGNED_CONTEXT ( ( #297, #296, #295 ) ) REPRESENTATION_CONTEXT ( 'NONE', 'WORKASPACE' ) );
#132 = PRODUCT_RELATED_PRODUCT_CATEGORY ( 'part', '', ( #186 ) ) ;
#133 = PRODUCT_DEFINITION_FORMATION_WITH_SPECIFIED_SOURCE ( 'TUTTO', '', #186, .NOT_KNOWN. ) ;
#134 = PRODUCT_DEFINITION ( 'NON CONOSCIUTO', '', #133, #309 ) ;
#135 = AXIS2_PLACEMENT_3D ( 'NONE', #221, #268, #307 ) ;
#136 = AXIS2_PLACEMENT_3D ( 'NONE', #294, #293, #292 ) ;
#137 = MECHANICAL_DESIGN_GEOMETRIC_PRESENTATION_REPRESENTATION (  '', ( #167 ), #131 ) ;
#138 = AXIS2_PLACEMENT_3D ( 'NONE', #230, #276, #232 ) ;
#139 = AXIS2_PLACEMENT_3D ( 'NONE', #205, #206, #303 ) ;
#140 = AXIS2_PLACEMENT_3D ( 'NONE', #306, #203, #209 ) ;
#141 = AXIS2_PLACEMENT_3D ( 'NONE', #286, #282, #285 ) ;
#142 = AXIS2_PLACEMENT_3D ( 'NONE', #279, #270, #301 ) ;
#143 = AXIS2_PLACEMENT_3D ( 'NONE', #278, #277, #271 ) ;
#144 = AXIS2_PLACEMENT_3D ( 'NONE', #215, #214, #211 ) ;
#145 = STYLED_ITEM ( 'NONE', ( #46 ), #310 ) ;
#146 = MECHANICAL_DESIGN_GEOMETRIC_PRESENTATION_REPRESENTATION (  '', ( #145 ), #148 ) ;
#147 = PRESENTATION_LAYER_ASSIGNMENT (  '', '', ( #145 ) ) ;
#148 =( GEOMETRIC_REPRESENTATION_CONTEXT ( 3 ) GLOBAL_UNCERTAINTY_ASSIGNED_CONTEXT ( ( #313 ) ) GLOBAL_UNIT_ASSIGNED_CONTEXT ( ( #192, #191, #190 ) ) REPRESENTATION_CONTEXT ( 'NONE', 'WORKASPACE' ) );
#149 = EDGE_CURVE ( 'NONE', #111, #119, #68, .T. ) ;
#150 = EDGE_CURVE ( 'NONE', #110, #117, #75, .T. ) ;
#151 = EDGE_CURVE ( 'NONE', #110, #120, #67, .T. ) ;
#152 = EDGE_CURVE ( 'NONE', #117, #115, #69, .T. ) ;
#153 = EDGE_CURVE ( 'NONE', #115, #120, #70, .T. ) ;
#154 = EDGE_CURVE ( 'NONE', #113, #35, #85, .T. ) ;
#155 = EDGE_CURVE ( 'NONE', #118, #114, #73, .T. ) ;
#156 = EDGE_CURVE ( 'NONE', #120, #118, #66, .T. ) ;
#157 = EDGE_CURVE ( 'NONE', #112, #116, #65, .T. ) ;
#158 = EDGE_CURVE ( 'NONE', #35, #118, #63, .T. ) ;
#159 = EDGE_CURVE ( 'NONE', #35, #113, #72, .T. ) ;
#160 = EDGE_CURVE ( 'NONE', #113, #114, #60, .T. ) ;
#161 = EDGE_CURVE ( 'NONE', #120, #115, #62, .T. ) ;
#162 = EDGE_CURVE ( 'NONE', #115, #114, #59, .T. ) ;
#163 =( GEOMETRIC_REPRESENTATION_CONTEXT ( 3 ) GLOBAL_UNCERTAINTY_ASSIGNED_CONTEXT ( ( #311 ) ) GLOBAL_UNIT_ASSIGNED_CONTEXT ( ( #204, #219, #187 ) ) REPRESENTATION_CONTEXT ( 'NONE', 'WORKASPACE' ) );
#164 = EDGE_CURVE ( 'NONE', #114, #118, #56, .T. ) ;
#165 = EDGE_CURVE ( 'NONE', #116, #111, #54, .T. ) ;
#166 = PRESENTATION_LAYER_ASSIGNMENT (  '', '', ( #167 ) ) ;
#167 = STYLED_ITEM ( 'NONE', ( #26 ), #314 ) ;
#168 = EDGE_CURVE ( 'NONE', #119, #111, #53, .T. ) ;
#169 = EDGE_CURVE ( 'NONE', #112, #119, #57, .T. ) ;
#170 = AXIS2_PLACEMENT_3D ( 'NONE', #258, #261, #257 ) ;
#171 = AXIS2_PLACEMENT_3D ( 'NONE', #249, #251, #248 ) ;
#172 = AXIS2_PLACEMENT_3D ( 'NONE', #243, #245, #244 ) ;
#173 = EDGE_CURVE ( 'NONE', #117, #110, #50, .T. ) ;
#174 = AXIS2_PLACEMENT_3D ( 'NONE', #247, #246, #241 ) ;
#175 = AXIS2_PLACEMENT_3D ( 'NONE', #242, #267, #269 ) ;
#176 = AXIS2_PLACEMENT_3D ( 'NONE', #250, #254, #252 ) ;
#177 = AXIS2_PLACEMENT_3D ( 'NONE', #253, #256, #255 ) ;
#178 = AXIS2_PLACEMENT_3D ( 'NONE', #227, #228, #229 ) ;
#179 = AXIS2_PLACEMENT_3D ( 'NONE', #197, #196, #195 ) ;
#180 = AXIS2_PLACEMENT_3D ( 'NONE', #234, #260, #233 ) ;
#181 = AXIS2_PLACEMENT_3D ( 'NONE', #222, #223, #224 ) ;
#182 = EDGE_CURVE ( 'NONE', #116, #112, #48, .T. ) ;
#183 = AXIS2_PLACEMENT_3D ( 'NONE', #202, #201, #200 ) ;
#184 = AXIS2_PLACEMENT_3D ( 'NONE', #262, #236, #240 ) ;
#185 = AXIS2_PLACEMENT_3D ( 'NONE', #237, #213, #266 ) ;
#186 = PRODUCT ( '107400002X100A', '107400002X100A', '', ( #291 ) ) ;
#187 =( NAMED_UNIT ( * ) SI_UNIT ( $, .STERADIAN. ) SOLID_ANGLE_UNIT ( ) );
#188 = DIRECTION ( 'NONE',  ( 3.784366729909408900E-017, 0.9510565163090757300, -0.3090169943320990600 ) ) ;
#189 = DIRECTION ( 'NONE',  ( 0.0000000000000000000, 0.9510565163090757300, 0.3090169943320990600 ) ) ;
#190 =( NAMED_UNIT ( * ) SI_UNIT ( $, .STERADIAN. ) SOLID_ANGLE_UNIT ( ) );
#191 =( NAMED_UNIT ( * ) PLANE_ANGLE_UNIT ( ) SI_UNIT ( $, .RADIAN. ) );
#192 =( LENGTH_UNIT ( ) NAMED_UNIT ( * ) SI_UNIT ( .MILLI., .METRE. ) );
#193 = SURFACE_STYLE_USAGE ( .BOTH. , #194 ) ;
#194 = SURFACE_SIDE_STYLE ('',( #47 ) ) ;
#195 = DIRECTION ( 'NONE',  ( 0.0000000000000000000, 0.0000000000000000000, 1.000000000000000000 ) ) ;
#196 = DIRECTION ( 'NONE',  ( -0.0000000000000000000, -1.000000000000000000, -0.0000000000000000000 ) ) ;
#197 = CARTESIAN_POINT ( 'NONE',  ( 0.0000000000000000000, 0.0000000000000000000, 0.0000000000000000000 ) ) ;
#198 = FILL_AREA_STYLE_COLOUR ( '', #28 ) ;
#199 = FILL_AREA_STYLE ('',( #217 ) ) ;
#200 = DIRECTION ( 'NONE',  ( 0.0000000000000000000, 0.0000000000000000000, -1.000000000000000000 ) ) ;
#201 = DIRECTION ( 'NONE',  ( -0.0000000000000000000, 1.000000000000000000, -0.0000000000000000000 ) ) ;
#202 = CARTESIAN_POINT ( 'NONE',  ( 0.0000000000000000000, 5.499999999999949400, 0.0000000000000000000 ) ) ;
#203 = DIRECTION ( 'NONE',  ( 0.0000000000000000000, 1.000000000000000000, 0.0000000000000000000 ) ) ;
#204 =( LENGTH_UNIT ( ) NAMED_UNIT ( * ) SI_UNIT ( .MILLI., .METRE. ) );
#205 = CARTESIAN_POINT ( 'NONE',  ( 0.0000000000000000000, 0.0000000000000000000, 0.0000000000000000000 ) ) ;
#206 = DIRECTION ( 'NONE',  ( -0.0000000000000000000, -1.000000000000000000, -0.0000000000000000000 ) ) ;
#207 = CARTESIAN_POINT ( 'NONE',  ( 0.0000000000000000000, 0.0000000000000000000, 2.149999999999999900 ) ) ;
#208 = CARTESIAN_POINT ( 'NONE',  ( 3.673940397442059900E-016, 2.616031007000030300, 3.000000000000000000 ) ) ;
#209 = DIRECTION ( 'NONE',  ( 0.0000000000000000000, -1.011922027653137400E-014, 1.000000000000000000 ) ) ;
#210 = PLANE ( 'NONE',  #185 ) ;
#211 = DIRECTION ( 'NONE',  ( 0.0000000000000000000, 0.0000000000000000000, 1.000000000000000000 ) ) ;
#212 = PLANE ( 'NONE',  #180 ) ;
#213 = DIRECTION ( 'NONE',  ( 0.0000000000000000000, 1.000000000000000000, 0.0000000000000000000 ) ) ;
#214 = DIRECTION ( 'NONE',  ( 0.0000000000000000000, 1.000000000000000000, 0.0000000000000000000 ) ) ;
#215 = CARTESIAN_POINT ( 'NONE',  ( 0.0000000000000000000, 5.500000000000000000, 0.0000000000000000000 ) ) ;
#216 = CARTESIAN_POINT ( 'NONE',  ( 2.449293598294706400E-016, 0.0000000000000000000, -2.000000000000000000 ) ) ;
#217 = FILL_AREA_STYLE_COLOUR ( '', #51 ) ;
#218 = DIRECTION ( 'NONE',  ( 3.784366729909408900E-017, -0.9510565163090758400, 0.3090169943320990600 ) ) ;
#219 =( NAMED_UNIT ( * ) PLANE_ANGLE_UNIT ( ) SI_UNIT ( $, .RADIAN. ) );
#220 = CARTESIAN_POINT ( 'NONE',  ( 2.632990618166809200E-016, 5.500000000000000000, 2.149999999999999900 ) ) ;
#221 = CARTESIAN_POINT ( 'NONE',  ( 0.0000000000000000000, 5.500000000000000000, 0.0000000000000000000 ) ) ;
#222 = CARTESIAN_POINT ( 'NONE',  ( 0.0000000000000000000, 5.499999999999949400, 0.0000000000000000000 ) ) ;
#223 = DIRECTION ( 'NONE',  ( -0.0000000000000000000, 1.000000000000000000, -0.0000000000000000000 ) ) ;
#224 = DIRECTION ( 'NONE',  ( 0.0000000000000000000, 0.0000000000000000000, -1.000000000000000000 ) ) ;
#225 = DIRECTION ( 'NONE',  ( 0.0000000000000000000, -0.9510565163090758400, -0.3090169943320990600 ) ) ;
#226 = CARTESIAN_POINT ( 'NONE',  ( 3.673940397442059900E-016, 2.883968992999999400, 3.000000000000000000 ) ) ;
#227 = CARTESIAN_POINT ( 'NONE',  ( 0.0000000000000000000, 2.883968993000030100, 0.0000000000000000000 ) ) ;
#228 = DIRECTION ( 'NONE',  ( 0.0000000000000000000, -1.000000000000000000, 0.0000000000000000000 ) ) ;
#229 = DIRECTION ( 'NONE',  ( 0.0000000000000000000, -1.026378056619610900E-014, -1.000000000000000000 ) ) ;
#230 = CARTESIAN_POINT ( 'NONE',  ( 0.0000000000000000000, 0.0000000000000000000, 0.0000000000000000000 ) ) ;
#231 = DIRECTION ( 'NONE',  ( 0.0000000000000000000, -1.000000000000000000, 0.0000000000000000000 ) ) ;
#232 = DIRECTION ( 'NONE',  ( 0.0000000000000000000, 0.0000000000000000000, 1.000000000000000000 ) ) ;
#233 = DIRECTION ( 'NONE',  ( 0.0000000000000000000, 0.0000000000000000000, -1.000000000000000000 ) ) ;
#234 = CARTESIAN_POINT ( 'NONE',  ( -2.175799999999999700, 0.0000000000000000000, 2.175799999999999700 ) ) ;
#235 = CARTESIAN_POINT ( 'NONE',  ( 3.153465507804444700E-016, 5.499999999999949400, 2.150000000000016300 ) ) ;
#236 = DIRECTION ( 'NONE',  ( 0.0000000000000000000, -1.000000000000000000, 0.0000000000000000000 ) ) ;
#237 = CARTESIAN_POINT ( 'NONE',  ( -2.175799999999999700, 5.500000000000000000, -2.175799999999999700 ) ) ;
#238 = CARTESIAN_POINT ( 'NONE',  ( 2.449293598294706400E-016, 0.0000000000000000000, -2.000000000000000000 ) ) ;
#239 = CARTESIAN_POINT ( 'NONE',  ( 3.153465507804434300E-016, 0.0000000000000000000, -2.149999999999999900 ) ) ;
#240 = DIRECTION ( 'NONE',  ( 0.0000000000000000000, 0.0000000000000000000, -1.000000000000000000 ) ) ;
#241 = DIRECTION ( 'NONE',  ( 0.0000000000000000000, 0.0000000000000000000, -1.000000000000000000 ) ) ;
#242 = CARTESIAN_POINT ( 'NONE',  ( 0.0000000000000000000, 0.0000000000000000000, 0.0000000000000000000 ) ) ;
#243 = CARTESIAN_POINT ( 'NONE',  ( 0.0000000000000000000, 0.0000000000000000000, 0.0000000000000000000 ) ) ;
#244 = DIRECTION ( 'NONE',  ( 0.0000000000000000000, 0.0000000000000000000, 1.000000000000000000 ) ) ;
#245 = DIRECTION ( 'NONE',  ( 0.0000000000000000000, 1.000000000000000000, 0.0000000000000000000 ) ) ;
#246 = DIRECTION ( 'NONE',  ( 0.0000000000000000000, -1.000000000000000000, 0.0000000000000000000 ) ) ;
#247 = CARTESIAN_POINT ( 'NONE',  ( 0.0000000000000000000, 2.883968992999999400, 0.0000000000000000000 ) ) ;
#248 = DIRECTION ( 'NONE',  ( 0.0000000000000000000, 0.0000000000000000000, 1.000000000000000000 ) ) ;
#249 = CARTESIAN_POINT ( 'NONE',  ( 0.0000000000000000000, 0.0000000000000000000, 0.0000000000000000000 ) ) ;
#250 = CARTESIAN_POINT ( 'NONE',  ( 0.0000000000000000000, 2.883968992999999400, 0.0000000000000000000 ) ) ;
#251 = DIRECTION ( 'NONE',  ( -0.0000000000000000000, 1.000000000000000000, 0.0000000000000000000 ) ) ;
#252 = DIRECTION ( 'NONE',  ( 0.0000000000000000000, 0.0000000000000000000, -1.000000000000000000 ) ) ;
#253 = CARTESIAN_POINT ( 'NONE',  ( 0.0000000000000000000, 5.500000000000000000, 0.0000000000000000000 ) ) ;
#254 = DIRECTION ( 'NONE',  ( 0.0000000000000000000, -1.000000000000000000, 0.0000000000000000000 ) ) ;
#255 = DIRECTION ( 'NONE',  ( 0.0000000000000000000, 0.0000000000000000000, -1.000000000000000000 ) ) ;
#256 = DIRECTION ( 'NONE',  ( 0.0000000000000000000, -1.000000000000000000, 0.0000000000000000000 ) ) ;
#257 = DIRECTION ( 'NONE',  ( 0.0000000000000000000, 0.0000000000000000000, 1.000000000000000000 ) ) ;
#258 = CARTESIAN_POINT ( 'NONE',  ( 0.0000000000000000000, 0.0000000000000000000, 0.0000000000000000000 ) ) ;
#259 = CARTESIAN_POINT ( 'NONE',  ( 0.0000000000000000000, 0.0000000000000000000, 2.149999999999999900 ) ) ;
#260 = DIRECTION ( 'NONE',  ( 0.0000000000000000000, -1.000000000000000000, 0.0000000000000000000 ) ) ;
#261 = DIRECTION ( 'NONE',  ( -0.0000000000000000000, 1.000000000000000000, 0.0000000000000000000 ) ) ;
#262 = CARTESIAN_POINT ( 'NONE',  ( 0.0000000000000000000, 5.500000000000000000, 0.0000000000000000000 ) ) ;
#263 = CARTESIAN_POINT ( 'NONE',  ( 0.0000000000000000000, 2.883968992999999400, -3.000000000000000000 ) ) ;
#264 = CARTESIAN_POINT ( 'NONE',  ( 0.0000000000000000000, 5.499999999999949400, -2.150000000000016300 ) ) ;
#265 = CARTESIAN_POINT ( 'NONE',  ( 0.0000000000000000000, 5.500000000000000000, 2.000000000000000000 ) ) ;
#266 = DIRECTION ( 'NONE',  ( 0.0000000000000000000, 0.0000000000000000000, 1.000000000000000000 ) ) ;
#267 = DIRECTION ( 'NONE',  ( 0.0000000000000000000, 1.000000000000000000, 0.0000000000000000000 ) ) ;
#268 = DIRECTION ( 'NONE',  ( 0.0000000000000000000, 1.000000000000000000, 0.0000000000000000000 ) ) ;
#269 = DIRECTION ( 'NONE',  ( 0.0000000000000000000, 0.0000000000000000000, 1.000000000000000000 ) ) ;
#270 = DIRECTION ( 'NONE',  ( 0.0000000000000000000, 1.000000000000000000, 0.0000000000000000000 ) ) ;
#271 = DIRECTION ( 'NONE',  ( 0.0000000000000000000, -1.026378056619610900E-014, -1.000000000000000000 ) ) ;
#272 = DIRECTION ( 'NONE',  ( 0.0000000000000000000, 1.000000000000000000, 0.0000000000000000000 ) ) ;
#273 = CARTESIAN_POINT ( 'NONE',  ( 0.0000000000000000000, 0.0000000000000000000, 2.000000000000000000 ) ) ;
#274 = CARTESIAN_POINT ( 'NONE',  ( 3.673940397442059900E-016, 2.883968993000030100, 3.000000000000000000 ) ) ;
#275 = CARTESIAN_POINT ( 'NONE',  ( 2.449293598294706400E-016, 5.500000000000000000, -2.000000000000000000 ) ) ;
#276 = DIRECTION ( 'NONE',  ( 0.0000000000000000000, -1.000000000000000000, -0.0000000000000000000 ) ) ;
#277 = DIRECTION ( 'NONE',  ( 0.0000000000000000000, -1.000000000000000000, 0.0000000000000000000 ) ) ;
#278 = CARTESIAN_POINT ( 'NONE',  ( 0.0000000000000000000, 2.883968993000030100, 0.0000000000000000000 ) ) ;
#279 = CARTESIAN_POINT ( 'NONE',  ( 0.0000000000000000000, 2.616031007000030300, 0.0000000000000000000 ) ) ;
#280 = CARTESIAN_POINT ( 'NONE',  ( 0.0000000000000000000, 2.616031007000030300, -3.000000000000000000 ) ) ;
#281 = CARTESIAN_POINT ( 'NONE',  ( 0.0000000000000000000, 2.883968992999999400, -3.000000000000000000 ) ) ;
#282 = DIRECTION ( 'NONE',  ( 0.0000000000000000000, -1.000000000000000000, -0.0000000000000000000 ) ) ;
#283 = DIRECTION ( 'NONE',  ( 0.0000000000000000000, 1.000000000000000000, 0.0000000000000000000 ) ) ;
#284 = CARTESIAN_POINT ( 'NONE',  ( 0.0000000000000000000, 0.0000000000000000000, 2.000000000000000000 ) ) ;
#285 = DIRECTION ( 'NONE',  ( 0.0000000000000000000, 0.0000000000000000000, 1.000000000000000000 ) ) ;
#286 = CARTESIAN_POINT ( 'NONE',  ( 0.0000000000000000000, 0.0000000000000000000, 0.0000000000000000000 ) ) ;
#287 = DIRECTION ( 'NONE',  ( 0.0000000000000000000, -1.000000000000000000, 0.0000000000000000000 ) ) ;
#288 = CARTESIAN_POINT ( 'NONE',  ( 0.0000000000000000000, 5.500000000000000000, -2.149999999999999900 ) ) ;
#289 = APPLICATION_PROTOCOL_DEFINITION ( 'draft international standard', 'automotive_design', 1998, #290 ) ;
#290 = APPLICATION_CONTEXT ( 'automotive_design' ) ;
#291 = PRODUCT_CONTEXT ( 'NONE', #304, 'mechanical' ) ;
#292 = DIRECTION ( 'NONE',  ( 1.000000000000000000, 0.0000000000000000000, 0.0000000000000000000 ) ) ;
#293 = DIRECTION ( 'NONE',  ( 0.0000000000000000000, 0.0000000000000000000, 1.000000000000000000 ) ) ;
#294 = CARTESIAN_POINT ( 'NONE',  ( 0.0000000000000000000, 0.0000000000000000000, 0.0000000000000000000 ) ) ;
#295 =( NAMED_UNIT ( * ) SI_UNIT ( $, .STERADIAN. ) SOLID_ANGLE_UNIT ( ) );
#296 =( NAMED_UNIT ( * ) PLANE_ANGLE_UNIT ( ) SI_UNIT ( $, .RADIAN. ) );
#297 =( LENGTH_UNIT ( ) NAMED_UNIT ( * ) SI_UNIT ( .MILLI., .METRE. ) );
#298 = SURFACE_STYLE_USAGE ( .BOTH. , #299 ) ;
#299 = SURFACE_SIDE_STYLE ('',( #27 ) ) ;
#300 = FILL_AREA_STYLE ('',( #198 ) ) ;
#301 = DIRECTION ( 'NONE',  ( 0.0000000000000000000, -1.011922027653137400E-014, 1.000000000000000000 ) ) ;
#302 = CARTESIAN_POINT ( 'NONE',  ( 2.632990618166809200E-016, 0.0000000000000000000, -2.149999999999999900 ) ) ;
#303 = DIRECTION ( 'NONE',  ( 0.0000000000000000000, 0.0000000000000000000, 1.000000000000000000 ) ) ;
#304 = APPLICATION_CONTEXT ( 'automotive_design' ) ;
#305 = APPLICATION_PROTOCOL_DEFINITION ( 'draft international standard', 'automotive_design', 1998, #304 ) ;
#306 = CARTESIAN_POINT ( 'NONE',  ( 0.0000000000000000000, 2.616031007000030300, 0.0000000000000000000 ) ) ;
#307 = DIRECTION ( 'NONE',  ( 0.0000000000000000000, 0.0000000000000000000, 1.000000000000000000 ) ) ;
#308 = PRODUCT_DEFINITION_SHAPE ( 'NONE', 'NONE',  #134 ) ;
#309 = PRODUCT_DEFINITION_CONTEXT ( 'detailed design', #290, 'design' ) ;
#310 = MANIFOLD_SOLID_BREP ( 'Importato1', #11 ) ;
#311 = UNCERTAINTY_MEASURE_WITH_UNIT (LENGTH_MEASURE( 1.000000000000000100E-005 ), #204, 'distance_accuracy_value', 'NONE');
#312 = UNCERTAINTY_MEASURE_WITH_UNIT (LENGTH_MEASURE( 1.000000000000000100E-005 ), #297, 'distance_accuracy_value', 'NONE');
#313 = UNCERTAINTY_MEASURE_WITH_UNIT (LENGTH_MEASURE( 1.000000000000000100E-005 ), #192, 'distance_accuracy_value', 'NONE');
#314 = ADVANCED_BREP_SHAPE_REPRESENTATION ( '107400002X100A', ( #310, #136 ), #163 ) ;
ENDSEC;
END-ISO-10303-21;
