ISO-10303-21;
HEADER;
FILE_DESCRIPTION (( 'STEP AP214' ),
    '1' );
FILE_NAME ('107600002X100A.STEP',
    '2013-02-25T17:26:23',
    ( '' ),
    ( '' ),
    'SwSTEP 2.0',
    'SolidWorks 2012',
    '' );
FILE_SCHEMA (( 'AUTOMOTIVE_DESIGN' ));
ENDSEC;

DATA;
#1 = ADVANCED_FACE ( 'NONE', ( #105 ), #106, .T. ) ;
#2 = ADVANCED_FACE ( 'NONE', ( #186 ), #107, .T. ) ;
#3 = ADVANCED_FACE ( 'NONE', ( #178 ), #185, .F. ) ;
#4 = ADVANCED_FACE ( 'NONE', ( #182, #133 ), #263, .T. ) ;
#5 = ADVANCED_FACE ( 'NONE', ( #95 ), #188, .T. ) ;
#6 = ADVANCED_FACE ( 'NONE', ( #181 ), #179, .F. ) ;
#7 = ADVANCED_FACE ( 'NONE', ( #126 ), #193, .T. ) ;
#8 = ADVANCED_FACE ( 'NONE', ( #158 ), #172, .T. ) ;
#9 = ADVANCED_FACE ( 'NONE', ( #191 ), #157, .T. ) ;
#10 = ADVANCED_FACE ( 'NONE', ( #171, #176 ), #273, .T. ) ;
#11 = EDGE_CURVE ( 'NONE', #110, #86, #170, .T. ) ;
#12 = EDGE_CURVE ( 'NONE', #110, #94, #169, .T. ) ;
#13 = EDGE_CURVE ( 'NONE', #161, #94, #165, .T. ) ;
#14 = AXIS2_PLACEMENT_3D ( 'NONE', #219, #218, #217 ) ;
#15 = EDGE_CURVE ( 'NONE', #83, #79, #153, .T. ) ;
#16 =( GEOMETRIC_REPRESENTATION_CONTEXT ( 3 ) GLOBAL_UNCERTAINTY_ASSIGNED_CONTEXT ( ( #70 ) ) GLOBAL_UNIT_ASSIGNED_CONTEXT ( ( #291, #290, #288 ) ) REPRESENTATION_CONTEXT ( 'NONE', 'WORKASPACE' ) );
#17 = AXIS2_PLACEMENT_3D ( 'NONE', #305, #287, #286 ) ;
#18 = PRODUCT_DEFINITION_FORMATION_WITH_SPECIFIED_SOURCE ( 'TUTTO', '', #66, .NOT_KNOWN. ) ;
#19 = PRODUCT_DEFINITION ( 'NON CONOSCIUTO', '', #18, #68 ) ;
#20 = PRODUCT_RELATED_PRODUCT_CATEGORY ( 'part', '', ( #66 ) ) ;
#21 =( GEOMETRIC_REPRESENTATION_CONTEXT ( 3 ) GLOBAL_UNCERTAINTY_ASSIGNED_CONTEXT ( ( #69 ) ) GLOBAL_UNIT_ASSIGNED_CONTEXT ( ( #203, #199, #202 ) ) REPRESENTATION_CONTEXT ( 'NONE', 'WORKASPACE' ) );
#22 = EDGE_CURVE ( 'NONE', #109, #119, #159, .T. ) ;
#23 = AXIS2_PLACEMENT_3D ( 'NONE', #239, #240, #241 ) ;
#24 = EDGE_CURVE ( 'NONE', #82, #160, #173, .T. ) ;
#25 = PRESENTATION_LAYER_ASSIGNMENT (  '', '', ( #63 ) ) ;
#26 = EDGE_CURVE ( 'NONE', #79, #83, #97, .T. ) ;
#27 = EDGE_CURVE ( 'NONE', #94, #83, #132, .T. ) ;
#28 = AXIS2_PLACEMENT_3D ( 'NONE', #245, #244, #243 ) ;
#29 = AXIS2_PLACEMENT_3D ( 'NONE', #236, #237, #238 ) ;
#30 = AXIS2_PLACEMENT_3D ( 'NONE', #234, #235, #205 ) ;
#31 = AXIS2_PLACEMENT_3D ( 'NONE', #274, #231, #222 ) ;
#32 = AXIS2_PLACEMENT_3D ( 'NONE', #272, #271, #268 ) ;
#33 = AXIS2_PLACEMENT_3D ( 'NONE', #250, #270, #224 ) ;
#34 = AXIS2_PLACEMENT_3D ( 'NONE', #277, #229, #276 ) ;
#35 = AXIS2_PLACEMENT_3D ( 'NONE', #232, #226, #247 ) ;
#36 = AXIS2_PLACEMENT_3D ( 'NONE', #267, #269, #266 ) ;
#37 = AXIS2_PLACEMENT_3D ( 'NONE', #246, #248, #227 ) ;
#38 = AXIS2_PLACEMENT_3D ( 'NONE', #257, #259, #252 ) ;
#39 = EDGE_CURVE ( 'NONE', #86, #110, #168, .T. ) ;
#40 = PRESENTATION_LAYER_ASSIGNMENT (  '', '', ( #57 ) ) ;
#41 = AXIS2_PLACEMENT_3D ( 'NONE', #258, #260, #264 ) ;
#42 = EDGE_CURVE ( 'NONE', #94, #161, #174, .T. ) ;
#43 = EDGE_CURVE ( 'NONE', #119, #109, #175, .T. ) ;
#44 = EDGE_CURVE ( 'NONE', #161, #79, #180, .T. ) ;
#45 = AXIS2_PLACEMENT_3D ( 'NONE', #289, #195, #312 ) ;
#46 = EDGE_CURVE ( 'NONE', #160, #80, #190, .T. ) ;
#47 = AXIS2_PLACEMENT_3D ( 'NONE', #265, #261, #262 ) ;
#48 = EDGE_CURVE ( 'NONE', #119, #79, #143, .T. ) ;
#49 = EDGE_CURVE ( 'NONE', #86, #161, #166, .T. ) ;
#50 = EDGE_CURVE ( 'NONE', #109, #83, #148, .T. ) ;
#51 = EDGE_CURVE ( 'NONE', #81, #80, #155, .T. ) ;
#52 = EDGE_CURVE ( 'NONE', #160, #82, #138, .T. ) ;
#53 = AXIS2_PLACEMENT_3D ( 'NONE', #308, #295, #284 ) ;
#54 = AXIS2_PLACEMENT_3D ( 'NONE', #311, #306, #204 ) ;
#55 = AXIS2_PLACEMENT_3D ( 'NONE', #214, #213, #212 ) ;
#56 = AXIS2_PLACEMENT_3D ( 'NONE', #249, #209, #208 ) ;
#57 = STYLED_ITEM ( 'NONE', ( #117 ), #71 ) ;
#58 =( GEOMETRIC_REPRESENTATION_CONTEXT ( 3 ) GLOBAL_UNCERTAINTY_ASSIGNED_CONTEXT ( ( #73 ) ) GLOBAL_UNIT_ASSIGNED_CONTEXT ( ( #304, #303, #302 ) ) REPRESENTATION_CONTEXT ( 'NONE', 'WORKASPACE' ) );
#59 = MECHANICAL_DESIGN_GEOMETRIC_PRESENTATION_REPRESENTATION (  '', ( #57 ), #21 ) ;
#60 = MECHANICAL_DESIGN_GEOMETRIC_PRESENTATION_REPRESENTATION (  '', ( #63 ), #16 ) ;
#61 = AXIS2_PLACEMENT_3D ( 'NONE', #254, #256, #255 ) ;
#62 = AXIS2_PLACEMENT_3D ( 'NONE', #253, #251, #275 ) ;
#63 = STYLED_ITEM ( 'NONE', ( #75 ), #72 ) ;
#64 = EDGE_CURVE ( 'NONE', #82, #81, #142, .T. ) ;
#65 = EDGE_CURVE ( 'NONE', #80, #81, #136, .T. ) ;
#66 = PRODUCT ( '107600002X100A', '107600002X100A', '', ( #285 ) ) ;
#67 = PRODUCT_DEFINITION_SHAPE ( 'NONE', 'NONE',  #19 ) ;
#68 = PRODUCT_DEFINITION_CONTEXT ( 'detailed design', #282, 'design' ) ;
#69 = UNCERTAINTY_MEASURE_WITH_UNIT (LENGTH_MEASURE( 1.000000000000000100E-005 ), #203, 'distance_accuracy_value', 'NONE');
#70 = UNCERTAINTY_MEASURE_WITH_UNIT (LENGTH_MEASURE( 1.000000000000000100E-005 ), #291, 'distance_accuracy_value', 'NONE');
#71 = MANIFOLD_SOLID_BREP ( 'Importato1', #146 ) ;
#72 = ADVANCED_BREP_SHAPE_REPRESENTATION ( '107600002X100A', ( #71, #17 ), #58 ) ;
#73 = UNCERTAINTY_MEASURE_WITH_UNIT (LENGTH_MEASURE( 1.000000000000000100E-005 ), #304, 'distance_accuracy_value', 'NONE');
#74 = SHAPE_DEFINITION_REPRESENTATION ( #67, #72 ) ;
#75 = PRESENTATION_STYLE_ASSIGNMENT (( #292 ) ) ;
#76 = ORIENTED_EDGE ( 'NONE', *, *, #50, .F. ) ;
#77 = ORIENTED_EDGE ( 'NONE', *, *, #49, .F. ) ;
#78 = ORIENTED_EDGE ( 'NONE', *, *, #46, .T. ) ;
#79 = VERTEX_POINT ( 'NONE', #210 ) ;
#80 = VERTEX_POINT ( 'NONE', #201 ) ;
#81 = VERTEX_POINT ( 'NONE', #196 ) ;
#82 = VERTEX_POINT ( 'NONE', #197 ) ;
#83 = VERTEX_POINT ( 'NONE', #230 ) ;
#84 = EDGE_LOOP ( 'NONE', ( #90, #147, #134, #100 ) ) ;
#85 = ORIENTED_EDGE ( 'NONE', *, *, #51, .F. ) ;
#86 = VERTEX_POINT ( 'NONE', #216 ) ;
#87 = ORIENTED_EDGE ( 'NONE', *, *, #22, .T. ) ;
#88 = ORIENTED_EDGE ( 'NONE', *, *, #13, .F. ) ;
#89 = ORIENTED_EDGE ( 'NONE', *, *, #42, .F. ) ;
#90 = ORIENTED_EDGE ( 'NONE', *, *, #48, .F. ) ;
#91 = ORIENTED_EDGE ( 'NONE', *, *, #39, .F. ) ;
#92 = ORIENTED_EDGE ( 'NONE', *, *, #44, .T. ) ;
#93 = ORIENTED_EDGE ( 'NONE', *, *, #46, .F. ) ;
#94 = VERTEX_POINT ( 'NONE', #310 ) ;
#95 = FACE_OUTER_BOUND ( 'NONE', #84, .T. ) ;
#96 = ORIENTED_EDGE ( 'NONE', *, *, #11, .F. ) ;
#97 = CIRCLE ( 'NONE', #28, 3.000000000000000000 ) ;
#98 = ORIENTED_EDGE ( 'NONE', *, *, #11, .T. ) ;
#99 = ORIENTED_EDGE ( 'NONE', *, *, #12, .F. ) ;
#100 = ORIENTED_EDGE ( 'NONE', *, *, #26, .F. ) ;
#101 = ORIENTED_EDGE ( 'NONE', *, *, #39, .T. ) ;
#102 = ORIENTED_EDGE ( 'NONE', *, *, #48, .T. ) ;
#103 = COLOUR_RGB ( '',0.6470588235294118000, 0.5176470588235293500, 0.0000000000000000000 ) ;
#104 = ORIENTED_EDGE ( 'NONE', *, *, #24, .T. ) ;
#105 = FACE_OUTER_BOUND ( 'NONE', #162, .T. ) ;
#106 = CYLINDRICAL_SURFACE ( 'NONE', #61, 3.000000000000000000 ) ;
#107 = CONICAL_SURFACE ( 'NONE', #62, 2.149999999999999900, 0.3141592653139259100 ) ;
#108 = SURFACE_STYLE_FILL_AREA ( #296 ) ;
#109 = VERTEX_POINT ( 'NONE', #194 ) ;
#110 = VERTEX_POINT ( 'NONE', #215 ) ;
#111 = EDGE_LOOP ( 'NONE', ( #123, #85 ) ) ;
#112 = EDGE_LOOP ( 'NONE', ( #120, #129 ) ) ;
#113 = EDGE_LOOP ( 'NONE', ( #141, #118, #124, #93 ) ) ;
#114 = ORIENTED_EDGE ( 'NONE', *, *, #26, .T. ) ;
#115 = SURFACE_STYLE_FILL_AREA ( #211 ) ;
#116 = VECTOR ( 'NONE', #313, 1000.000000000000000 ) ;
#117 = PRESENTATION_STYLE_ASSIGNMENT (( #207 ) ) ;
#118 = ORIENTED_EDGE ( 'NONE', *, *, #64, .T. ) ;
#119 = VERTEX_POINT ( 'NONE', #309 ) ;
#120 = ORIENTED_EDGE ( 'NONE', *, *, #52, .F. ) ;
#121 = ORIENTED_EDGE ( 'NONE', *, *, #44, .F. ) ;
#122 = ORIENTED_EDGE ( 'NONE', *, *, #12, .T. ) ;
#123 = ORIENTED_EDGE ( 'NONE', *, *, #65, .F. ) ;
#124 = ORIENTED_EDGE ( 'NONE', *, *, #51, .T. ) ;
#125 = ORIENTED_EDGE ( 'NONE', *, *, #27, .F. ) ;
#126 = FACE_OUTER_BOUND ( 'NONE', #145, .T. ) ;
#127 = ORIENTED_EDGE ( 'NONE', *, *, #43, .F. ) ;
#128 = ORIENTED_EDGE ( 'NONE', *, *, #13, .T. ) ;
#129 = ORIENTED_EDGE ( 'NONE', *, *, #24, .F. ) ;
#130 = ORIENTED_EDGE ( 'NONE', *, *, #15, .F. ) ;
#131 = ORIENTED_EDGE ( 'NONE', *, *, #27, .T. ) ;
#132 = LINE ( 'NONE', #242, #177 ) ;
#133 = FACE_OUTER_BOUND ( 'NONE', #163, .T. ) ;
#134 = ORIENTED_EDGE ( 'NONE', *, *, #50, .T. ) ;
#135 = VECTOR ( 'NONE', #220, 1000.000000000000000 ) ;
#136 = CIRCLE ( 'NONE', #56, 2.000000000000000000 ) ;
#137 = VECTOR ( 'NONE', #225, 1000.000000000000000 ) ;
#138 = CIRCLE ( 'NONE', #55, 2.000000000000000000 ) ;
#139 = VECTOR ( 'NONE', #223, 1000.000000000000100 ) ;
#140 = COLOUR_RGB ( '',0.6470588235294118000, 0.5176470588235293500, 0.0000000000000000000 ) ;
#141 = ORIENTED_EDGE ( 'NONE', *, *, #52, .T. ) ;
#142 = LINE ( 'NONE', #200, #135 ) ;
#143 = LINE ( 'NONE', #283, #149 ) ;
#144 = VECTOR ( 'NONE', #294, 1000.000000000000000 ) ;
#145 = EDGE_LOOP ( 'NONE', ( #99, #91, #151, #89 ) ) ;
#146 = CLOSED_SHELL ( 'NONE', ( #6, #2, #8, #1, #3, #10, #4, #7, #5, #9 ) ) ;
#147 = ORIENTED_EDGE ( 'NONE', *, *, #22, .F. ) ;
#148 = LINE ( 'NONE', #299, #139 ) ;
#149 = VECTOR ( 'NONE', #228, 1000.000000000000100 ) ;
#150 = ORIENTED_EDGE ( 'NONE', *, *, #42, .T. ) ;
#151 = ORIENTED_EDGE ( 'NONE', *, *, #49, .T. ) ;
#152 = ORIENTED_EDGE ( 'NONE', *, *, #65, .T. ) ;
#153 = CIRCLE ( 'NONE', #31, 3.000000000000000000 ) ;
#154 = ORIENTED_EDGE ( 'NONE', *, *, #64, .F. ) ;
#155 = CIRCLE ( 'NONE', #14, 2.000000000000000000 ) ;
#156 = EDGE_LOOP ( 'NONE', ( #101, #98 ) ) ;
#157 = CYLINDRICAL_SURFACE ( 'NONE', #33, 3.000000000000000000 ) ;
#158 = FACE_OUTER_BOUND ( 'NONE', #164, .T. ) ;
#159 = CIRCLE ( 'NONE', #29, 2.149999999999999900 ) ;
#160 = VERTEX_POINT ( 'NONE', #307 ) ;
#161 = VERTEX_POINT ( 'NONE', #314 ) ;
#162 = EDGE_LOOP ( 'NONE', ( #128, #131, #184, #121 ) ) ;
#163 = EDGE_LOOP ( 'NONE', ( #87, #192 ) ) ;
#164 = EDGE_LOOP ( 'NONE', ( #127, #102, #130, #76 ) ) ;
#165 = CIRCLE ( 'NONE', #30, 3.000000000000000000 ) ;
#166 = LINE ( 'NONE', #297, #137 ) ;
#167 = VECTOR ( 'NONE', #279, 1000.000000000000000 ) ;
#168 = CIRCLE ( 'NONE', #45, 2.149999999999980400 ) ;
#169 = LINE ( 'NONE', #278, #167 ) ;
#170 = CIRCLE ( 'NONE', #34, 2.149999999999980400 ) ;
#171 = FACE_BOUND ( 'NONE', #111, .T. ) ;
#172 = CONICAL_SURFACE ( 'NONE', #37, 2.149999999999999900, 0.3141592653139259600 ) ;
#173 = CIRCLE ( 'NONE', #23, 2.000000000000000000 ) ;
#174 = CIRCLE ( 'NONE', #54, 3.000000000000000000 ) ;
#175 = CIRCLE ( 'NONE', #53, 2.149999999999999900 ) ;
#176 = FACE_OUTER_BOUND ( 'NONE', #156, .T. ) ;
#177 = VECTOR ( 'NONE', #233, 1000.000000000000000 ) ;
#178 = FACE_OUTER_BOUND ( 'NONE', #183, .T. ) ;
#179 = CYLINDRICAL_SURFACE ( 'NONE', #36, 2.000000000000000000 ) ;
#180 = LINE ( 'NONE', #198, #116 ) ;
#181 = FACE_OUTER_BOUND ( 'NONE', #113, .T. ) ;
#182 = FACE_BOUND ( 'NONE', #112, .T. ) ;
#183 = EDGE_LOOP ( 'NONE', ( #154, #104, #78, #152 ) ) ;
#184 = ORIENTED_EDGE ( 'NONE', *, *, #15, .T. ) ;
#185 = CYLINDRICAL_SURFACE ( 'NONE', #38, 2.000000000000000000 ) ;
#186 = FACE_OUTER_BOUND ( 'NONE', #187, .T. ) ;
#187 = EDGE_LOOP ( 'NONE', ( #96, #122, #88, #77 ) ) ;
#188 = CONICAL_SURFACE ( 'NONE', #47, 2.149999999999999900, 0.3141592653139259600 ) ;
#189 = EDGE_LOOP ( 'NONE', ( #125, #150, #92, #114 ) ) ;
#190 = LINE ( 'NONE', #281, #144 ) ;
#191 = FACE_OUTER_BOUND ( 'NONE', #189, .T. ) ;
#192 = ORIENTED_EDGE ( 'NONE', *, *, #43, .T. ) ;
#193 = CONICAL_SURFACE ( 'NONE', #35, 2.149999999999999900, 0.3141592653139259100 ) ;
#194 = CARTESIAN_POINT ( 'NONE',  ( 0.0000000000000000000, 0.0000000000000000000, 2.149999999999999900 ) ) ;
#195 = DIRECTION ( 'NONE',  ( -0.0000000000000000000, 1.000000000000000000, -0.0000000000000000000 ) ) ;
#196 = CARTESIAN_POINT ( 'NONE',  ( 2.449293598294706400E-016, 5.500000000000000000, -2.000000000000000000 ) ) ;
#197 = CARTESIAN_POINT ( 'NONE',  ( 2.449293598294706400E-016, 0.0000000000000000000, -2.000000000000000000 ) ) ;
#198 = CARTESIAN_POINT ( 'NONE',  ( 0.0000000000000000000, 2.883968992999999400, -3.000000000000000000 ) ) ;
#199 =( NAMED_UNIT ( * ) PLANE_ANGLE_UNIT ( ) SI_UNIT ( $, .RADIAN. ) );
#200 = CARTESIAN_POINT ( 'NONE',  ( 2.449293598294706400E-016, 0.0000000000000000000, -2.000000000000000000 ) ) ;
#201 = CARTESIAN_POINT ( 'NONE',  ( 0.0000000000000000000, 5.500000000000000000, 2.000000000000000000 ) ) ;
#202 =( NAMED_UNIT ( * ) SI_UNIT ( $, .STERADIAN. ) SOLID_ANGLE_UNIT ( ) );
#203 =( LENGTH_UNIT ( ) NAMED_UNIT ( * ) SI_UNIT ( .MILLI., .METRE. ) );
#204 = DIRECTION ( 'NONE',  ( 0.0000000000000000000, -1.026378056619610900E-014, -1.000000000000000000 ) ) ;
#205 = DIRECTION ( 'NONE',  ( 0.0000000000000000000, -1.026378056619610900E-014, -1.000000000000000000 ) ) ;
#206 = SURFACE_SIDE_STYLE ('',( #115 ) ) ;
#207 = SURFACE_STYLE_USAGE ( .BOTH. , #206 ) ;
#208 = DIRECTION ( 'NONE',  ( 0.0000000000000000000, 0.0000000000000000000, 1.000000000000000000 ) ) ;
#209 = DIRECTION ( 'NONE',  ( -0.0000000000000000000, 1.000000000000000000, 0.0000000000000000000 ) ) ;
#210 = CARTESIAN_POINT ( 'NONE',  ( 0.0000000000000000000, 2.616031007000030300, -3.000000000000000000 ) ) ;
#211 = FILL_AREA_STYLE ('',( #221 ) ) ;
#212 = DIRECTION ( 'NONE',  ( 0.0000000000000000000, 0.0000000000000000000, 1.000000000000000000 ) ) ;
#213 = DIRECTION ( 'NONE',  ( 0.0000000000000000000, -1.000000000000000000, -0.0000000000000000000 ) ) ;
#214 = CARTESIAN_POINT ( 'NONE',  ( 0.0000000000000000000, 0.0000000000000000000, 0.0000000000000000000 ) ) ;
#215 = CARTESIAN_POINT ( 'NONE',  ( 3.153465507804423000E-016, 5.500000000000060400, 2.149999999999980400 ) ) ;
#216 = CARTESIAN_POINT ( 'NONE',  ( 0.0000000000000000000, 5.500000000000060400, -2.149999999999980400 ) ) ;
#217 = DIRECTION ( 'NONE',  ( 0.0000000000000000000, 0.0000000000000000000, 1.000000000000000000 ) ) ;
#218 = DIRECTION ( 'NONE',  ( -0.0000000000000000000, 1.000000000000000000, 0.0000000000000000000 ) ) ;
#219 = CARTESIAN_POINT ( 'NONE',  ( 0.0000000000000000000, 5.500000000000000000, 0.0000000000000000000 ) ) ;
#220 = DIRECTION ( 'NONE',  ( -0.0000000000000000000, 1.000000000000000000, 0.0000000000000000000 ) ) ;
#221 = FILL_AREA_STYLE_COLOUR ( '', #140 ) ;
#222 = DIRECTION ( 'NONE',  ( 0.0000000000000000000, -1.011922027653137400E-014, 1.000000000000000000 ) ) ;
#223 = DIRECTION ( 'NONE',  ( 0.0000000000000000000, 0.9510565163090757300, 0.3090169943320990600 ) ) ;
#224 = DIRECTION ( 'NONE',  ( 0.0000000000000000000, 0.0000000000000000000, -1.000000000000000000 ) ) ;
#225 = DIRECTION ( 'NONE',  ( 0.0000000000000000000, -0.9510565163090758400, -0.3090169943320990600 ) ) ;
#226 = DIRECTION ( 'NONE',  ( 0.0000000000000000000, -1.000000000000000000, 0.0000000000000000000 ) ) ;
#227 = DIRECTION ( 'NONE',  ( 0.0000000000000000000, 0.0000000000000000000, 1.000000000000000000 ) ) ;
#228 = DIRECTION ( 'NONE',  ( 3.784366729909408900E-017, 0.9510565163090757300, -0.3090169943320990600 ) ) ;
#229 = DIRECTION ( 'NONE',  ( -0.0000000000000000000, 1.000000000000000000, -0.0000000000000000000 ) ) ;
#230 = CARTESIAN_POINT ( 'NONE',  ( 3.673940397442059900E-016, 2.616031007000030300, 3.000000000000000000 ) ) ;
#231 = DIRECTION ( 'NONE',  ( 0.0000000000000000000, 1.000000000000000000, 0.0000000000000000000 ) ) ;
#232 = CARTESIAN_POINT ( 'NONE',  ( 0.0000000000000000000, 5.500000000000000000, 0.0000000000000000000 ) ) ;
#233 = DIRECTION ( 'NONE',  ( 0.0000000000000000000, -1.000000000000000000, 0.0000000000000000000 ) ) ;
#234 = CARTESIAN_POINT ( 'NONE',  ( 0.0000000000000000000, 2.883968993000030100, 0.0000000000000000000 ) ) ;
#235 = DIRECTION ( 'NONE',  ( 0.0000000000000000000, -1.000000000000000000, 0.0000000000000000000 ) ) ;
#236 = CARTESIAN_POINT ( 'NONE',  ( 0.0000000000000000000, 0.0000000000000000000, 0.0000000000000000000 ) ) ;
#237 = DIRECTION ( 'NONE',  ( 0.0000000000000000000, -1.000000000000000000, -0.0000000000000000000 ) ) ;
#238 = DIRECTION ( 'NONE',  ( 0.0000000000000000000, 0.0000000000000000000, 1.000000000000000000 ) ) ;
#239 = CARTESIAN_POINT ( 'NONE',  ( 0.0000000000000000000, 0.0000000000000000000, 0.0000000000000000000 ) ) ;
#240 = DIRECTION ( 'NONE',  ( 0.0000000000000000000, -1.000000000000000000, -0.0000000000000000000 ) ) ;
#241 = DIRECTION ( 'NONE',  ( 0.0000000000000000000, 0.0000000000000000000, 1.000000000000000000 ) ) ;
#242 = CARTESIAN_POINT ( 'NONE',  ( 3.673940397442059900E-016, 2.883968992999999400, 3.000000000000000000 ) ) ;
#243 = DIRECTION ( 'NONE',  ( 0.0000000000000000000, -1.011922027653137400E-014, 1.000000000000000000 ) ) ;
#244 = DIRECTION ( 'NONE',  ( 0.0000000000000000000, 1.000000000000000000, 0.0000000000000000000 ) ) ;
#245 = CARTESIAN_POINT ( 'NONE',  ( 0.0000000000000000000, 2.616031007000030300, 0.0000000000000000000 ) ) ;
#246 = CARTESIAN_POINT ( 'NONE',  ( 0.0000000000000000000, 0.0000000000000000000, 0.0000000000000000000 ) ) ;
#247 = DIRECTION ( 'NONE',  ( 0.0000000000000000000, 0.0000000000000000000, -1.000000000000000000 ) ) ;
#248 = DIRECTION ( 'NONE',  ( -0.0000000000000000000, 1.000000000000000000, 0.0000000000000000000 ) ) ;
#249 = CARTESIAN_POINT ( 'NONE',  ( 0.0000000000000000000, 5.500000000000000000, 0.0000000000000000000 ) ) ;
#250 = CARTESIAN_POINT ( 'NONE',  ( 0.0000000000000000000, 2.883968992999999400, 0.0000000000000000000 ) ) ;
#251 = DIRECTION ( 'NONE',  ( 0.0000000000000000000, -1.000000000000000000, 0.0000000000000000000 ) ) ;
#252 = DIRECTION ( 'NONE',  ( 0.0000000000000000000, 0.0000000000000000000, 1.000000000000000000 ) ) ;
#253 = CARTESIAN_POINT ( 'NONE',  ( 0.0000000000000000000, 5.500000000000000000, 0.0000000000000000000 ) ) ;
#254 = CARTESIAN_POINT ( 'NONE',  ( 0.0000000000000000000, 2.883968992999999400, 0.0000000000000000000 ) ) ;
#255 = DIRECTION ( 'NONE',  ( 0.0000000000000000000, 0.0000000000000000000, -1.000000000000000000 ) ) ;
#256 = DIRECTION ( 'NONE',  ( 0.0000000000000000000, -1.000000000000000000, 0.0000000000000000000 ) ) ;
#257 = CARTESIAN_POINT ( 'NONE',  ( 0.0000000000000000000, 0.0000000000000000000, 0.0000000000000000000 ) ) ;
#258 = CARTESIAN_POINT ( 'NONE',  ( -2.175799999999999700, 0.0000000000000000000, 2.175799999999999700 ) ) ;
#259 = DIRECTION ( 'NONE',  ( -0.0000000000000000000, 1.000000000000000000, 0.0000000000000000000 ) ) ;
#260 = DIRECTION ( 'NONE',  ( 0.0000000000000000000, -1.000000000000000000, 0.0000000000000000000 ) ) ;
#261 = DIRECTION ( 'NONE',  ( -0.0000000000000000000, 1.000000000000000000, 0.0000000000000000000 ) ) ;
#262 = DIRECTION ( 'NONE',  ( 0.0000000000000000000, 0.0000000000000000000, 1.000000000000000000 ) ) ;
#263 = PLANE ( 'NONE',  #41 ) ;
#264 = DIRECTION ( 'NONE',  ( 0.0000000000000000000, 0.0000000000000000000, -1.000000000000000000 ) ) ;
#265 = CARTESIAN_POINT ( 'NONE',  ( 0.0000000000000000000, 0.0000000000000000000, 0.0000000000000000000 ) ) ;
#266 = DIRECTION ( 'NONE',  ( 0.0000000000000000000, 0.0000000000000000000, 1.000000000000000000 ) ) ;
#267 = CARTESIAN_POINT ( 'NONE',  ( 0.0000000000000000000, 0.0000000000000000000, 0.0000000000000000000 ) ) ;
#268 = DIRECTION ( 'NONE',  ( 0.0000000000000000000, 0.0000000000000000000, 1.000000000000000000 ) ) ;
#269 = DIRECTION ( 'NONE',  ( -0.0000000000000000000, 1.000000000000000000, 0.0000000000000000000 ) ) ;
#270 = DIRECTION ( 'NONE',  ( 0.0000000000000000000, -1.000000000000000000, 0.0000000000000000000 ) ) ;
#271 = DIRECTION ( 'NONE',  ( 0.0000000000000000000, 1.000000000000000000, 0.0000000000000000000 ) ) ;
#272 = CARTESIAN_POINT ( 'NONE',  ( -2.175799999999999700, 5.500000000000000000, -2.175799999999999700 ) ) ;
#273 = PLANE ( 'NONE',  #32 ) ;
#274 = CARTESIAN_POINT ( 'NONE',  ( 0.0000000000000000000, 2.616031007000030300, 0.0000000000000000000 ) ) ;
#275 = DIRECTION ( 'NONE',  ( 0.0000000000000000000, 0.0000000000000000000, -1.000000000000000000 ) ) ;
#276 = DIRECTION ( 'NONE',  ( 0.0000000000000000000, 0.0000000000000000000, -1.000000000000000000 ) ) ;
#277 = CARTESIAN_POINT ( 'NONE',  ( 0.0000000000000000000, 5.500000000000060400, 0.0000000000000000000 ) ) ;
#278 = CARTESIAN_POINT ( 'NONE',  ( 2.632990618166809200E-016, 5.500000000000000000, 2.149999999999999900 ) ) ;
#279 = DIRECTION ( 'NONE',  ( 3.784366729909408900E-017, -0.9510565163090758400, 0.3090169943320990600 ) ) ;
#280 = APPLICATION_PROTOCOL_DEFINITION ( 'draft international standard', 'automotive_design', 1998, #282 ) ;
#281 = CARTESIAN_POINT ( 'NONE',  ( 0.0000000000000000000, 0.0000000000000000000, 2.000000000000000000 ) ) ;
#282 = APPLICATION_CONTEXT ( 'automotive_design' ) ;
#283 = CARTESIAN_POINT ( 'NONE',  ( 2.632990618166809200E-016, 0.0000000000000000000, -2.149999999999999900 ) ) ;
#284 = DIRECTION ( 'NONE',  ( 0.0000000000000000000, 0.0000000000000000000, 1.000000000000000000 ) ) ;
#285 = PRODUCT_CONTEXT ( 'NONE', #300, 'mechanical' ) ;
#286 = DIRECTION ( 'NONE',  ( 1.000000000000000000, 0.0000000000000000000, 0.0000000000000000000 ) ) ;
#287 = DIRECTION ( 'NONE',  ( 0.0000000000000000000, 0.0000000000000000000, 1.000000000000000000 ) ) ;
#288 =( NAMED_UNIT ( * ) SI_UNIT ( $, .STERADIAN. ) SOLID_ANGLE_UNIT ( ) );
#289 = CARTESIAN_POINT ( 'NONE',  ( 0.0000000000000000000, 5.500000000000060400, 0.0000000000000000000 ) ) ;
#290 =( NAMED_UNIT ( * ) PLANE_ANGLE_UNIT ( ) SI_UNIT ( $, .RADIAN. ) );
#291 =( LENGTH_UNIT ( ) NAMED_UNIT ( * ) SI_UNIT ( .MILLI., .METRE. ) );
#292 = SURFACE_STYLE_USAGE ( .BOTH. , #293 ) ;
#293 = SURFACE_SIDE_STYLE ('',( #108 ) ) ;
#294 = DIRECTION ( 'NONE',  ( -0.0000000000000000000, 1.000000000000000000, 0.0000000000000000000 ) ) ;
#295 = DIRECTION ( 'NONE',  ( 0.0000000000000000000, -1.000000000000000000, -0.0000000000000000000 ) ) ;
#296 = FILL_AREA_STYLE ('',( #298 ) ) ;
#297 = CARTESIAN_POINT ( 'NONE',  ( 0.0000000000000000000, 5.500000000000000000, -2.149999999999999900 ) ) ;
#298 = FILL_AREA_STYLE_COLOUR ( '', #103 ) ;
#299 = CARTESIAN_POINT ( 'NONE',  ( 0.0000000000000000000, 0.0000000000000000000, 2.149999999999999900 ) ) ;
#300 = APPLICATION_CONTEXT ( 'automotive_design' ) ;
#301 = APPLICATION_PROTOCOL_DEFINITION ( 'draft international standard', 'automotive_design', 1998, #300 ) ;
#302 =( NAMED_UNIT ( * ) SI_UNIT ( $, .STERADIAN. ) SOLID_ANGLE_UNIT ( ) );
#303 =( NAMED_UNIT ( * ) PLANE_ANGLE_UNIT ( ) SI_UNIT ( $, .RADIAN. ) );
#304 =( LENGTH_UNIT ( ) NAMED_UNIT ( * ) SI_UNIT ( .MILLI., .METRE. ) );
#305 = CARTESIAN_POINT ( 'NONE',  ( 0.0000000000000000000, 0.0000000000000000000, 0.0000000000000000000 ) ) ;
#306 = DIRECTION ( 'NONE',  ( 0.0000000000000000000, -1.000000000000000000, 0.0000000000000000000 ) ) ;
#307 = CARTESIAN_POINT ( 'NONE',  ( 0.0000000000000000000, 0.0000000000000000000, 2.000000000000000000 ) ) ;
#308 = CARTESIAN_POINT ( 'NONE',  ( 0.0000000000000000000, 0.0000000000000000000, 0.0000000000000000000 ) ) ;
#309 = CARTESIAN_POINT ( 'NONE',  ( 3.153465507804434300E-016, 0.0000000000000000000, -2.149999999999999900 ) ) ;
#310 = CARTESIAN_POINT ( 'NONE',  ( 3.673940397442059900E-016, 2.883968993000030100, 3.000000000000000000 ) ) ;
#311 = CARTESIAN_POINT ( 'NONE',  ( 0.0000000000000000000, 2.883968993000030100, 0.0000000000000000000 ) ) ;
#312 = DIRECTION ( 'NONE',  ( 0.0000000000000000000, 0.0000000000000000000, -1.000000000000000000 ) ) ;
#313 = DIRECTION ( 'NONE',  ( 0.0000000000000000000, -1.000000000000000000, 0.0000000000000000000 ) ) ;
#314 = CARTESIAN_POINT ( 'NONE',  ( 0.0000000000000000000, 2.883968992999999400, -3.000000000000000000 ) ) ;
ENDSEC;
END-ISO-10303-21;
